999
DXF file: CXED-XCN.dxf
999
Pro/ENGINEER 2006240 by Parametric Technology Corporation
  0
SECTION
  2
HEADER
  9
$ACADVER
  1
AC1015
  9
$DWGCODEPAGE
  3
ANSI_1252
  9
$EXTMAX
 10
11.6929133858
 20
8.2677165354
 30
0.0
  9
$EXTMIN
 10
0.0
 20
0.0
 30
0.0
  9
$LIMMIN
 10
0.0
 20
0.0
  9
$LIMMAX
 10
11.6929133858
 20
8.2677165354
  9
$VIEWCTR
 10
5.8464566929
 20
4.1338582677
  9
$VIEWSIZE
 40
8.2677165354
  9
$CLAYER
  8
0
  9
$LTSCALE
 40
0.6431102362
  9
$CELTYPE
  6
BYLAYER
  9
$DIMSCALE
 40
1.0
  9
$DIMASZ
 40
0.1875
  9
$DIMEXO
 40
0.0730807087
  9
$DIMDLI
 40
0.4443307087
  9
$DIMEXE
 40
0.2104724409
  9
$DIMCEN
 40
0.1052362205
  9
$DIMLFAC
 40
1.0
  9
$DIMBLK
  1
_CLOSED
  9
$DIMTXT
 40
0.15625
  9
$DIMTOL
 70
0
  9
$DIMLIM
 70
0
  9
$DIMTFAC
 40
1.0
  9
$PDMODE
 70
3
  9
$PDSIZE
 40
0.3125
  9
$HANDSEED
  5
416
  9
$MEASUREMENT
 70
0
  9
$INSUNITS
 70
1
  0
ENDSEC
  0
SECTION
  2
CLASSES
  0
CLASS
  1
ACDBDICTIONARYWDFLT
  2
AcDbDictionaryWithDefault
  3
AutoCAD 2000
 90
0
280
0
281
0
  0
CLASS
  1
ACDBPLACEHOLDER
  2
AcDbPlaceHolder
  3
AutoCAD 2000
 90
0
280
0
281
0
  0
CLASS
  1
LAYOUT
  2
AcDbLayout
  3
AutoCAD 2000
 90
0
280
0
281
0
  0
ENDSEC
  0
SECTION
  2
TABLES
  0
TABLE
  2
VPORT
  5
8
100
AcDbSymbolTable
 70
2
  0
VPORT
  5
1F4
100
AcDbSymbolTableRecord
100
AcDbViewportTableRecord
  2
*ACTIVE
 70
0
 10
0.0
 20
0.0
 11
1.0
 21
1.0
 12
5.8464566929
 22
4.1338582677
 13
0.0
 23
0.0
 14
1.0
 24
1.0
 15
0.0
 25
0.0
 16
0.0
 26
0.0
 36
1.0
 17
0.0
 27
0.0
 37
0.0
 40
8.2677165354
 41
1.4142857143
 42
50.0
 43
0.0
 44
0.0
 50
0.0
 51
0.0
 71
0
 72
100
 73
1
 74
1
 75
0
 76
0
 77
0
 78
0
  0
ENDTAB
  0
TABLE
  2
LTYPE
  5
5
100
AcDbSymbolTable
 70
6
  0
LTYPE
  5
14
100
AcDbSymbolTableRecord
100
AcDbLinetypeTableRecord
  2
BYBLOCK
 70
0
  3

 72
65
 73
0
 40
0.0
  0
LTYPE
  5
15
100
AcDbSymbolTableRecord
100
AcDbLinetypeTableRecord
  2
BYLAYER
 70
0
  3

 72
65
 73
0
 40
0.0
  0
LTYPE
  5
16
100
AcDbSymbolTableRecord
100
AcDbLinetypeTableRecord
  2
CONTINUOUS
 70
64
  3
Solid line
 72
65
 73
0
 40
0.0
  0
LTYPE
  5
1F5
100
AcDbSymbolTableRecord
100
AcDbLinetypeTableRecord
  2
CENTER
 70
64
  3
____ _ ____ _ ____ _ ____ _ ____ _ ____ _ ____
 72
65
 73
4
 40
0.6
 49
0.375
 74
0
 49
-0.075
 74
0
 49
0.075
 74
0
 49
-0.075
 74
0
  0
LTYPE
  5
1F6
100
AcDbSymbolTableRecord
100
AcDbLinetypeTableRecord
  2
HIDDEN
 70
64
  3
- - - - - - - - - - - - - - - - - - - -
 72
65
 73
2
 40
0.2
 49
0.1
 74
0
 49
-0.1
 74
0
  0
LTYPE
  5
1F7
100
AcDbSymbolTableRecord
100
AcDbLinetypeTableRecord
  2
PHANTOM
 70
64
  3
_____ _ _ _____ _ _ _____ _ _ _____
 72
65
 73
6
 40
0.8
 49
0.45
 74
0
 49
-0.05
 74
0
 49
0.1
 74
0
 49
-0.05
 74
0
 49
0.1
 74
0
 49
-0.05
 74
0
  0
LTYPE
  5
1F8
100
AcDbSymbolTableRecord
100
AcDbLinetypeTableRecord
  2
DOT
 70
64
  3
. . . . . . . . . . . . . . . . . . . .
 72
65
 73
2
 40
0.2
 49
0.1
 74
0
 49
-0.1
 74
0
  0
LTYPE
  5
1F9
100
AcDbSymbolTableRecord
100
AcDbLinetypeTableRecord
  2
DASHED
 70
64
  3
- - - - - - - - - - - - - - - - - - - -
 72
65
 73
2
 40
0.2
 49
0.1
 74
0
 49
-0.1
 74
0
  0
ENDTAB
  0
TABLE
  2
LAYER
  5
2
100
AcDbSymbolTable
 70
36
  0
LAYER
  5
10
100
AcDbSymbolTableRecord
100
AcDbLayerTableRecord
  2
0
 70
0
 62
7
  6
CONTINUOUS
370
-3
390
F
  0
LAYER
  5
1FA
100
AcDbSymbolTableRecord
100
AcDbLayerTableRecord
  2
DEFAULT_1
 70
0
 62
7
  6
CENTER
370
-3
390
F
  0
LAYER
  5
1FB
100
AcDbSymbolTableRecord
100
AcDbLayerTableRecord
  2
DEFAULT_2
 70
0
 62
8
  6
HIDDEN
370
-3
390
F
  0
LAYER
  5
1FC
100
AcDbSymbolTableRecord
100
AcDbLayerTableRecord
  2
DEFAULT_3
 70
0
 62
7
  6
PHANTOM
370
-3
390
F
  0
LAYER
  5
1FD
100
AcDbSymbolTableRecord
100
AcDbLayerTableRecord
  2
_BLACK_HOLE
 70
0
 62
7
  6
CONTINUOUS
370
-3
390
F
  0
LAYER
  5
1FE
100
AcDbSymbolTableRecord
100
AcDbLayerTableRecord
  2
01_ALL_DTM_PLN
 70
0
 62
7
  6
CONTINUOUS
370
-3
390
F
  0
LAYER
  5
1FF
100
AcDbSymbolTableRecord
100
AcDbLayerTableRecord
  2
01__ASM_ALL_DTM_PLN
 70
0
 62
7
  6
CONTINUOUS
370
-3
390
F
  0
LAYER
  5
200
100
AcDbSymbolTableRecord
100
AcDbLayerTableRecord
  2
01__ASM_DEF_DTM_PLN
 70
0
 62
7
  6
CONTINUOUS
370
-3
390
F
  0
LAYER
  5
201
100
AcDbSymbolTableRecord
100
AcDbLayerTableRecord
  2
01___PRT_ALL_DTM_PLN
 70
0
 62
7
  6
CONTINUOUS
370
-3
390
F
  0
LAYER
  5
202
100
AcDbSymbolTableRecord
100
AcDbLayerTableRecord
  2
01___PRT_DEF_DTM_PLN
 70
0
 62
7
  6
CONTINUOUS
370
-3
390
F
  0
LAYER
  5
203
100
AcDbSymbolTableRecord
100
AcDbLayerTableRecord
  2
02_ALL_AXES
 70
0
 62
7
  6
CONTINUOUS
370
-3
390
F
  0
LAYER
  5
204
100
AcDbSymbolTableRecord
100
AcDbLayerTableRecord
  2
02__ASM_ALL_AXES
 70
0
 62
7
  6
CONTINUOUS
370
-3
390
F
  0
LAYER
  5
205
100
AcDbSymbolTableRecord
100
AcDbLayerTableRecord
  2
02___PRT_ALL_AXES
 70
0
 62
7
  6
CONTINUOUS
370
-3
390
F
  0
LAYER
  5
206
100
AcDbSymbolTableRecord
100
AcDbLayerTableRecord
  2
03_ALL_CURVES
 70
0
 62
7
  6
CONTINUOUS
370
-3
390
F
  0
LAYER
  5
207
100
AcDbSymbolTableRecord
100
AcDbLayerTableRecord
  2
03__ASM_ALL_CURVES
 70
0
 62
7
  6
CONTINUOUS
370
-3
390
F
  0
LAYER
  5
208
100
AcDbSymbolTableRecord
100
AcDbLayerTableRecord
  2
03___PRT_ALL_CURVES
 70
0
 62
7
  6
CONTINUOUS
370
-3
390
F
  0
LAYER
  5
209
100
AcDbSymbolTableRecord
100
AcDbLayerTableRecord
  2
04_ALL_DTM_PNT
 70
0
 62
7
  6
CONTINUOUS
370
-3
390
F
  0
LAYER
  5
20A
100
AcDbSymbolTableRecord
100
AcDbLayerTableRecord
  2
04__ASM_ALL_DTM_PNT
 70
0
 62
7
  6
CONTINUOUS
370
-3
390
F
  0
LAYER
  5
20B
100
AcDbSymbolTableRecord
100
AcDbLayerTableRecord
  2
04___PRT_ALL_DTM_PNT
 70
0
 62
7
  6
CONTINUOUS
370
-3
390
F
  0
LAYER
  5
20C
100
AcDbSymbolTableRecord
100
AcDbLayerTableRecord
  2
05_ALL_DTM_CSYS
 70
0
 62
7
  6
CONTINUOUS
370
-3
390
F
  0
LAYER
  5
20D
100
AcDbSymbolTableRecord
100
AcDbLayerTableRecord
  2
05__ASM_ALL_DTM_CSYS
 70
0
 62
7
  6
CONTINUOUS
370
-3
390
F
  0
LAYER
  5
20E
100
AcDbSymbolTableRecord
100
AcDbLayerTableRecord
  2
05__ASM_DEF_DTM_CSYS
 70
0
 62
7
  6
CONTINUOUS
370
-3
390
F
  0
LAYER
  5
20F
100
AcDbSymbolTableRecord
100
AcDbLayerTableRecord
  2
05___PRT_ALL_DTM_CSYS
 70
0
 62
7
  6
CONTINUOUS
370
-3
390
F
  0
LAYER
  5
210
100
AcDbSymbolTableRecord
100
AcDbLayerTableRecord
  2
05___PRT_DEF_DTM_CSYS
 70
0
 62
7
  6
CONTINUOUS
370
-3
390
F
  0
LAYER
  5
211
100
AcDbSymbolTableRecord
100
AcDbLayerTableRecord
  2
06_ALL_SURFS
 70
0
 62
7
  6
CONTINUOUS
370
-3
390
F
  0
LAYER
  5
212
100
AcDbSymbolTableRecord
100
AcDbLayerTableRecord
  2
06__ASM_ALL_SURFS
 70
0
 62
7
  6
CONTINUOUS
370
-3
390
F
  0
LAYER
  5
213
100
AcDbSymbolTableRecord
100
AcDbLayerTableRecord
  2
06___PRT_ALL_SURFS
 70
0
 62
7
  6
CONTINUOUS
370
-3
390
F
  0
LAYER
  5
214
100
AcDbSymbolTableRecord
100
AcDbLayerTableRecord
  2
07__ASM_ALL_SKELETONS
 70
0
 62
7
  6
CONTINUOUS
370
-3
390
F
  0
LAYER
  5
215
100
AcDbSymbolTableRecord
100
AcDbLayerTableRecord
  2
127-002_FEATURES
 70
0
 62
7
  6
CONTINUOUS
370
-3
390
F
  0
LAYER
  5
216
100
AcDbSymbolTableRecord
100
AcDbLayerTableRecord
  2
127-002_REF_GEOMETRY
 70
0
 62
7
  6
CONTINUOUS
370
-3
390
F
  0
LAYER
  5
217
100
AcDbSymbolTableRecord
100
AcDbLayerTableRecord
  2
127-110_FEATURES
 70
0
 62
7
  6
CONTINUOUS
370
-3
390
F
  0
LAYER
  5
218
100
AcDbSymbolTableRecord
100
AcDbLayerTableRecord
  2
127-110_REF_GEOMETRY
 70
0
 62
7
  6
CONTINUOUS
370
-3
390
F
  0
LAYER
  5
219
100
AcDbSymbolTableRecord
100
AcDbLayerTableRecord
  2
127-112_FEATURES
 70
0
 62
7
  6
CONTINUOUS
370
-3
390
F
  0
LAYER
  5
21A
100
AcDbSymbolTableRecord
100
AcDbLayerTableRecord
  2
127-112_REF_GEOMETRY
 70
0
 62
7
  6
CONTINUOUS
370
-3
390
F
  0
LAYER
  5
21B
100
AcDbSymbolTableRecord
100
AcDbLayerTableRecord
  2
127-113_FEATURES
 70
0
 62
7
  6
CONTINUOUS
370
-3
390
F
  0
LAYER
  5
21C
100
AcDbSymbolTableRecord
100
AcDbLayerTableRecord
  2
127-113_REF_GEOMETRY
 70
0
 62
7
  6
CONTINUOUS
370
-3
390
F
  0
LAYER
  5
21D
100
AcDbSymbolTableRecord
100
AcDbLayerTableRecord
  2
127-114_FEATURES
 70
0
 62
7
  6
CONTINUOUS
370
-3
390
F
  0
LAYER
  5
21E
100
AcDbSymbolTableRecord
100
AcDbLayerTableRecord
  2
127-114_REF_GEOMETRY
 70
0
 62
7
  6
CONTINUOUS
370
-3
390
F
  0
LAYER
  5
21F
100
AcDbSymbolTableRecord
100
AcDbLayerTableRecord
  2
250-18_NPTF_PORT
 70
0
 62
7
  6
CONTINUOUS
370
-3
390
F
  0
LAYER
  5
220
100
AcDbSymbolTableRecord
100
AcDbLayerTableRecord
  2
COPY_GEO_FET
 70
0
 62
7
  6
CONTINUOUS
370
-3
390
F
  0
LAYER
  5
221
100
AcDbSymbolTableRecord
100
AcDbLayerTableRecord
  2
COSMETIC
 70
0
 62
7
  6
CONTINUOUS
370
-3
390
F
  0
LAYER
  5
222
100
AcDbSymbolTableRecord
100
AcDbLayerTableRecord
  2
CROSS_HOLE_DATUMS
 70
0
 62
7
  6
CONTINUOUS
370
-3
390
F
  0
LAYER
  5
223
100
AcDbSymbolTableRecord
100
AcDbLayerTableRecord
  2
CURVES
 70
0
 62
7
  6
CONTINUOUS
370
-3
390
F
  0
LAYER
  5
224
100
AcDbSymbolTableRecord
100
AcDbLayerTableRecord
  2
CUT_REF_SURF
 70
0
 62
7
  6
CONTINUOUS
370
-3
390
F
  0
LAYER
  5
225
100
AcDbSymbolTableRecord
100
AcDbLayerTableRecord
  2
DATUM
 70
0
 62
7
  6
CONTINUOUS
370
-3
390
F
  0
LAYER
  5
226
100
AcDbSymbolTableRecord
100
AcDbLayerTableRecord
  2
DATUMCURVES
 70
0
 62
7
  6
CONTINUOUS
370
-3
390
F
  0
LAYER
  5
227
100
AcDbSymbolTableRecord
100
AcDbLayerTableRecord
  2
DIMENSIONS
 70
0
 62
7
  6
CONTINUOUS
370
-3
390
F
  0
LAYER
  5
228
100
AcDbSymbolTableRecord
100
AcDbLayerTableRecord
  2
DRAWINGNOTES
 70
0
 62
7
  6
CONTINUOUS
370
-3
390
F
  0
LAYER
  5
229
100
AcDbSymbolTableRecord
100
AcDbLayerTableRecord
  2
DTM
 70
0
 62
7
  6
CONTINUOUS
370
-3
390
F
  0
LAYER
  5
22A
100
AcDbSymbolTableRecord
100
AcDbLayerTableRecord
  2
DTM230
 70
0
 62
7
  6
CONTINUOUS
370
-3
390
F
  0
LAYER
  5
22B
100
AcDbSymbolTableRecord
100
AcDbLayerTableRecord
  2
DTM_500001
 70
0
 62
7
  6
CONTINUOUS
370
-3
390
F
  0
LAYER
  5
22C
100
AcDbSymbolTableRecord
100
AcDbLayerTableRecord
  2
DTM_500002
 70
0
 62
7
  6
CONTINUOUS
370
-3
390
F
  0
LAYER
  5
22D
100
AcDbSymbolTableRecord
100
AcDbLayerTableRecord
  2
DTM_515002
 70
0
 62
7
  6
CONTINUOUS
370
-3
390
F
  0
LAYER
  5
22E
100
AcDbSymbolTableRecord
100
AcDbLayerTableRecord
  2
DTM_SPRING_RH
 70
0
 62
7
  6
CONTINUOUS
370
-3
390
F
  0
LAYER
  5
22F
100
AcDbSymbolTableRecord
100
AcDbLayerTableRecord
  2
DTM_SP_RH_CONSTR
 70
0
 62
7
  6
CONTINUOUS
370
-3
390
F
  0
LAYER
  5
230
100
AcDbSymbolTableRecord
100
AcDbLayerTableRecord
  2
FLUTE_DATUMS
 70
0
 62
7
  6
CONTINUOUS
370
-3
390
F
  0
LAYER
  5
231
100
AcDbSymbolTableRecord
100
AcDbLayerTableRecord
  2
GEOMETRICTOLERANCES
 70
0
 62
7
  6
CONTINUOUS
370
-3
390
F
  0
LAYER
  5
232
100
AcDbSymbolTableRecord
100
AcDbLayerTableRecord
  2
PARAMETERDIMENSIONS
 70
0
 62
7
  6
CONTINUOUS
370
-3
390
F
  0
LAYER
  5
233
100
AcDbSymbolTableRecord
100
AcDbLayerTableRecord
  2
PLANE
 70
0
 62
7
  6
CONTINUOUS
370
-3
390
F
  0
LAYER
  5
234
100
AcDbSymbolTableRecord
100
AcDbLayerTableRecord
  2
SAE-6_PORT
 70
0
 62
7
  6
CONTINUOUS
370
-3
390
F
  0
LAYER
  5
235
100
AcDbSymbolTableRecord
100
AcDbLayerTableRecord
  2
T-8A_CAVITY
 70
0
 62
7
  6
CONTINUOUS
370
-3
390
F
  0
LAYER
  5
236
100
AcDbSymbolTableRecord
100
AcDbLayerTableRecord
  2
T-8A_CAVITY_REF_GEOMETRY
 70
0
 62
7
  6
CONTINUOUS
370
-3
390
F
  0
LAYER
  5
237
100
AcDbSymbolTableRecord
100
AcDbLayerTableRecord
  2
TEXT
 70
0
 62
7
  6
CONTINUOUS
370
-3
390
F
  0
LAYER
  5
238
100
AcDbSymbolTableRecord
100
AcDbLayerTableRecord
  2
THREAD
 70
0
 62
7
  6
CONTINUOUS
370
-3
390
F
  0
ENDTAB
  0
TABLE
  2
STYLE
  5
3
100
AcDbSymbolTable
 70
1
  0
STYLE
  5
11
100
AcDbSymbolTableRecord
100
AcDbTextStyleTableRecord
  2
STANDARD
 70
0
 40
0.0
 41
0.8
 50
0.0
 71
0
 42
0.2
  3
txt
  4

  0
ENDTAB
  0
TABLE
  2
VIEW
  5
6
100
AcDbSymbolTable
 70
0
  0
ENDTAB
  0
TABLE
  2
UCS
  5
7
100
AcDbSymbolTable
 70
0
  0
ENDTAB
  0
TABLE
  2
APPID
  5
9
100
AcDbSymbolTable
 70
1
  0
APPID
  5
239
100
AcDbSymbolTableRecord
100
AcDbRegAppTableRecord
  2
ACAD
 70
0
  0
ENDTAB
  0
TABLE
  2
BLOCK_RECORD
  5
1
100
AcDbSymbolTable
 70
0
  0
BLOCK_RECORD
  5
1F
100
AcDbSymbolTableRecord
100
AcDbBlockTableRecord
  2
*MODEL_SPACE
  0
BLOCK_RECORD
  5
1B
100
AcDbSymbolTableRecord
100
AcDbBlockTableRecord
  2
*PAPER_SPACE
  0
ENDTAB
  0
TABLE
  2
DIMSTYLE
  5
A
100
AcDbSymbolTable
 70
1
100
AcDbDimStyleTable
 71
0
  0
DIMSTYLE
105
23A
100
AcDbSymbolTableRecord
100
AcDbDimStyleTableRecord
  2
STANDARD
 70
0
  3

  4

 40
1.0
 41
0.1875
 42
0.0625
 43
0.38
 44
0.18
 45
0.0
 46
0.0
 47
0.01
 48
0.01
140
0.15625
141
0.09
142
0.0
143
25.4
144
1.0
145
0.0
146
1.0
147
0.09
 71
0.0
 72
0.0
 73
1
 74
1
 75
0
 76
0
 77
0
 78
4
170
0
171
2
172
0
173
0
174
0
175
0
176
0
177
0
178
0
270
2
271
2
272
2
273
2
274
2
275
0
280
0
281
0
282
0
283
1
284
4
285
0
286
0
287
3
288
0
340
11
  0
ENDTAB
  0
ENDSEC
  0
SECTION
  2
BLOCKS
  0
BLOCK
  5
20
100
AcDbEntity
  8
0
100
AcDbBlockBegin
  2
*MODEL_SPACE
 70
0
 10
0.0
 20
0.0
 30
0.0
  3
*MODEL_SPACE
  1

  0
ENDBLK
  5
21
100
AcDbEntity
  8
0
100
AcDbBlockEnd
  0
BLOCK
  5
1C
100
AcDbEntity
  8
0
100
AcDbBlockBegin
  2
*PAPER_SPACE
 70
0
 10
0.0
 20
0.0
 30
0.0
  3
*PAPER_SPACE
  1

  0
ENDBLK
  5
1D
100
AcDbEntity
  8
0
100
AcDbBlockEnd
  0
ENDSEC
  0
SECTION
  2
ENTITIES
  0
LINE
  5
23B
100
AcDbEntity
  8
03__ASM_ALL_CURVES
100
AcDbLine
 62
40
  6
CONTINUOUS
 10
4.357113887
 20
5.140107434
 11
4.361448887
 21
5.1516674312
  0
LINE
  5
23C
100
AcDbEntity
  8
03__ASM_ALL_CURVES
100
AcDbLine
 62
40
  6
CONTINUOUS
 10
4.391793887
 20
5.1169874333
 11
4.387458887
 21
5.1054274329
  0
LINE
  5
23D
100
AcDbEntity
  8
03__ASM_ALL_CURVES
100
AcDbLine
 62
40
  6
CONTINUOUS
 10
4.361448887
 20
5.1516674312
 11
4.365783887
 21
5.157447434
  0
LINE
  5
23E
100
AcDbEntity
  8
03__ASM_ALL_CURVES
100
AcDbLine
 62
40
  6
CONTINUOUS
 10
4.387458887
 20
5.1054274329
 11
4.383123887
 21
5.0996474328
  0
LINE
  5
23F
100
AcDbEntity
  8
03__ASM_ALL_CURVES
100
AcDbLine
 62
40
  6
CONTINUOUS
 10
4.495833887
 20
5.140107434
 11
4.500168887
 21
5.1516674312
  0
LINE
  5
240
100
AcDbEntity
  8
03__ASM_ALL_CURVES
100
AcDbLine
 62
40
  6
CONTINUOUS
 10
4.495833887
 20
5.1169874333
 11
4.500168887
 21
5.1285474326
  0
LINE
  5
241
100
AcDbEntity
  8
03__ASM_ALL_CURVES
100
AcDbLine
 62
40
  6
CONTINUOUS
 10
4.530513887
 20
5.1169874333
 11
4.526178887
 21
5.1054274329
  0
LINE
  5
242
100
AcDbEntity
  8
0
100
AcDbLine
 62
7
  6
CONTINUOUS
 10
4.4230983894
 20
4.8908064147
 11
4.377753887
 21
4.8122674326
  0
LINE
  5
243
100
AcDbEntity
  8
03__ASM_ALL_CURVES
100
AcDbLine
 62
40
  6
CONTINUOUS
 10
4.500168887
 20
5.1516674312
 11
4.504503887
 21
5.157447434
  0
LINE
  5
244
100
AcDbEntity
  8
03__ASM_ALL_CURVES
100
AcDbLine
 62
40
  6
CONTINUOUS
 10
4.526178887
 20
5.1054274329
 11
4.521843887
 21
5.0996474328
  0
LINE
  5
245
100
AcDbEntity
  8
03__ASM_ALL_CURVES
100
AcDbLine
 62
40
  6
CONTINUOUS
 10
4.565193887
 20
5.1516674312
 11
4.569528887
 21
5.157447434
  0
LINE
  5
246
100
AcDbEntity
  8
03__ASM_ALL_CURVES
100
AcDbLine
 62
40
  6
CONTINUOUS
 10
4.560858887
 20
5.1169874333
 11
4.569528887
 21
5.1285474326
  0
LINE
  5
247
100
AcDbEntity
  8
03__ASM_ALL_CURVES
100
AcDbLine
 62
40
  6
CONTINUOUS
 10
4.599873887
 20
5.1458874326
 11
4.595538887
 21
5.140107434
  0
LINE
  5
248
100
AcDbEntity
  8
03__ASM_ALL_CURVES
100
AcDbLine
 62
40
  6
CONTINUOUS
 10
4.604208887
 20
5.1112074326
 11
4.595538887
 21
5.0996474328
  0
LINE
  5
249
100
AcDbEntity
  8
03__ASM_ALL_CURVES
100
AcDbLine
 62
40
  6
CONTINUOUS
 10
4.365783887
 20
5.157447434
 11
4.374453887
 21
5.1632274326
  0
LINE
  5
24A
100
AcDbEntity
  8
03__ASM_ALL_CURVES
100
AcDbLine
 62
40
  6
CONTINUOUS
 10
4.383123887
 20
5.0996474328
 11
4.374453887
 21
5.0938674326
  0
LINE
  5
24B
100
AcDbEntity
  8
0
100
AcDbLine
 62
7
  6
CONTINUOUS
 10
4.4230983894
 20
3.6237284505
 11
4.377753887
 21
3.7022674326
  0
LINE
  5
24C
100
AcDbEntity
  8
03__ASM_ALL_CURVES
100
AcDbLine
 62
40
  6
CONTINUOUS
 10
4.357113887
 20
5.1169874333
 11
4.357113887
 21
5.140107434
  0
LINE
  5
24D
100
AcDbEntity
  8
0
100
AcDbLine
 62
7
  6
CONTINUOUS
 10
4.377753887
 20
3.7022674326
 11
4.377753887
 21
4.8122674326
  0
LINE
  5
24E
100
AcDbEntity
  8
03__ASM_ALL_CURVES
100
AcDbLine
 62
40
  6
CONTINUOUS
 10
4.377753887
 20
4.8122674326
 11
4.377753887
 21
5.0938674326
  0
LINE
  5
24F
100
AcDbEntity
  8
03__ASM_ALL_CURVES
100
AcDbLine
 62
40
  6
CONTINUOUS
 10
4.391793887
 20
5.140107434
 11
4.391793887
 21
5.1169874333
  0
LINE
  5
250
100
AcDbEntity
  8
0
100
AcDbLine
 62
7
  6
CONTINUOUS
 10
4.4233645582
 20
3.6232674326
 11
4.4233645582
 21
3.6238821231
  0
LINE
  5
251
100
AcDbEntity
  8
0
100
AcDbLine
 62
7
  6
CONTINUOUS
 10
4.4233645582
 20
3.9164027421
 11
4.4233645582
 21
3.9647468137
  0
LINE
  5
252
100
AcDbEntity
  8
0
100
AcDbLine
 62
7
  6
CONTINUOUS
 10
4.4233645582
 20
4.5497880515
 11
4.4233645582
 21
4.5981321231
  0
LINE
  5
253
100
AcDbEntity
  8
0
100
AcDbLine
 62
7
  6
CONTINUOUS
 10
4.4233645582
 20
4.8906527421
 11
4.4233645582
 21
4.8912674326
  0
LINE
  5
254
100
AcDbEntity
  8
03__ASM_ALL_CURVES
100
AcDbLine
 62
40
  6
CONTINUOUS
 10
4.439478887
 20
5.0938674326
 11
4.439478887
 21
5.0996474328
  0
LINE
  5
255
100
AcDbEntity
  8
03__ASM_ALL_CURVES
100
AcDbLine
 62
40
  6
CONTINUOUS
 10
4.447113887
 20
5.0823074326
 11
4.447113887
 21
5.0591874326
  0
LINE
  5
256
100
AcDbEntity
  8
03__ASM_ALL_CURVES
100
AcDbLine
 62
40
  6
CONTINUOUS
 10
4.656228887
 20
5.1632274326
 11
4.647558887
 21
5.1516674312
  0
LINE
  5
257
100
AcDbEntity
  8
03__ASM_ALL_CURVES
100
AcDbLine
 62
40
  6
CONTINUOUS
 10
4.504503887
 20
5.157447434
 11
4.513173887
 21
5.1632274326
  0
LINE
  5
258
100
AcDbEntity
  8
03__ASM_ALL_CURVES
100
AcDbLine
 62
40
  6
CONTINUOUS
 10
4.569528887
 20
5.157447434
 11
4.578198887
 21
5.1632274326
  0
LINE
  5
259
100
AcDbEntity
  8
03__ASM_ALL_CURVES
100
AcDbLine
 62
40
  6
CONTINUOUS
 10
4.521843887
 20
5.0996474328
 11
4.513173887
 21
5.0938674326
  0
LINE
  5
25A
100
AcDbEntity
  8
03__ASM_ALL_CURVES
100
AcDbLine
 62
40
  6
CONTINUOUS
 10
4.569528887
 20
5.1285474326
 11
4.578198887
 21
5.1343274312
  0
LINE
  5
25B
100
AcDbEntity
  8
03__ASM_ALL_CURVES
100
AcDbLine
 62
40
  6
CONTINUOUS
 10
4.595538887
 20
5.140107434
 11
4.586868887
 21
5.1343274312
  0
LINE
  5
25C
100
AcDbEntity
  8
03__ASM_ALL_CURVES
100
AcDbLine
 62
40
  6
CONTINUOUS
 10
4.595538887
 20
5.0996474328
 11
4.586868887
 21
5.0938674326
  0
LINE
  5
25D
100
AcDbEntity
  8
03__ASM_ALL_CURVES
100
AcDbLine
 62
40
  6
CONTINUOUS
 10
4.495833887
 20
5.1169874333
 11
4.495833887
 21
5.140107434
  0
LINE
  5
25E
100
AcDbEntity
  8
03__ASM_ALL_CURVES
100
AcDbLine
 62
40
  6
CONTINUOUS
 10
4.560858887
 20
5.1112074326
 11
4.560858887
 21
5.1169874333
  0
LINE
  5
25F
100
AcDbEntity
  8
03__ASM_ALL_CURVES
100
AcDbLine
 62
40
  6
CONTINUOUS
 10
4.565193887
 20
5.1458874326
 11
4.565193887
 21
5.1516674312
  0
LINE
  5
260
100
AcDbEntity
  8
03__ASM_ALL_CURVES
100
AcDbLine
 62
40
  6
CONTINUOUS
 10
4.647558887
 20
5.1516674312
 11
4.643223887
 21
5.1343274312
  0
LINE
  5
261
100
AcDbEntity
  8
03__ASM_ALL_CURVES
100
AcDbLine
 62
40
  6
CONTINUOUS
 10
4.799283887
 20
5.140107434
 11
4.807953887
 21
5.1632274326
  0
LINE
  5
262
100
AcDbEntity
  8
03__ASM_ALL_CURVES
100
AcDbLine
 62
40
  6
CONTINUOUS
 10
4.911993887
 20
5.1516674312
 11
4.916328887
 21
5.157447434
  0
LINE
  5
263
100
AcDbEntity
  8
03__ASM_ALL_CURVES
100
AcDbLine
 62
40
  6
CONTINUOUS
 10
4.500168887
 20
5.1285474326
 11
4.513173887
 21
5.1343274312
  0
LINE
  5
264
100
AcDbEntity
  8
03__ASM_ALL_CURVES
100
AcDbLine
 62
40
  6
CONTINUOUS
 10
4.599873887
 20
5.1516674312
 11
4.599873887
 21
5.1458874326
  0
LINE
  5
265
100
AcDbEntity
  8
03__ASM_ALL_CURVES
100
AcDbLine
 62
40
  6
CONTINUOUS
 10
4.604208887
 20
5.1169874333
 11
4.604208887
 21
5.1112074326
  0
LINE
  5
266
100
AcDbEntity
  8
03__ASM_ALL_CURVES
100
AcDbLine
 62
40
  6
CONTINUOUS
 10
4.643223887
 20
5.1343274312
 11
4.643223887
 21
5.1227674319
  0
LINE
  5
267
100
AcDbEntity
  8
03__ASM_ALL_CURVES
100
AcDbLine
 62
40
  6
CONTINUOUS
 10
4.790613887
 20
5.0938674326
 11
4.794948887
 21
5.1227674319
  0
LINE
  5
268
100
AcDbEntity
  8
03__ASM_ALL_CURVES
100
AcDbLine
 62
40
  6
CONTINUOUS
 10
4.794948887
 20
5.1227674319
 11
4.799283887
 21
5.140107434
  0
LINE
  5
269
100
AcDbEntity
  8
03__ASM_ALL_CURVES
100
AcDbLine
 62
40
  6
CONTINUOUS
 10
4.924998887
 20
5.1227674319
 11
4.916328887
 21
5.1112074326
  0
LINE
  5
26A
100
AcDbEntity
  8
03__ASM_ALL_CURVES
100
AcDbLine
 62
40
  6
CONTINUOUS
 10
4.946673887
 20
5.140107434
 11
4.942338887
 21
5.1343274312
  0
LINE
  5
26B
100
AcDbEntity
  8
03__ASM_ALL_CURVES
100
AcDbLine
 62
40
  6
CONTINUOUS
 10
4.916328887
 20
5.157447434
 11
4.924998887
 21
5.1632274326
  0
LINE
  5
26C
100
AcDbEntity
  8
03__ASM_ALL_CURVES
100
AcDbLine
 62
40
  6
CONTINUOUS
 10
4.942338887
 20
5.1343274312
 11
4.924998887
 21
5.1227674319
  0
LINE
  5
26D
100
AcDbEntity
  8
03__ASM_ALL_CURVES
100
AcDbLine
 62
40
  6
CONTINUOUS
 10
4.721253887
 20
5.1632274326
 11
4.721253887
 21
5.0938674326
  0
LINE
  5
26E
100
AcDbEntity
  8
03__ASM_ALL_CURVES
100
AcDbLine
 62
40
  6
CONTINUOUS
 10
4.916328887
 20
5.1112074326
 11
4.911993887
 21
5.0938674326
  0
LINE
  5
26F
100
AcDbEntity
  8
03__ASM_ALL_CURVES
100
AcDbLine
 62
40
  6
CONTINUOUS
 10
5.007363887
 20
5.140107434
 11
5.016033887
 21
5.1632274326
  0
LINE
  5
270
100
AcDbEntity
  8
03__ASM_ALL_CURVES
100
AcDbLine
 62
40
  6
CONTINUOUS
 10
5.072388887
 20
5.1054274329
 11
5.063718887
 21
5.0938674326
  0
LINE
  5
271
100
AcDbEntity
  8
03__ASM_ALL_CURVES
100
AcDbLine
 62
40
  6
CONTINUOUS
 10
5.2309288862
 20
5.157447434
 11
5.2395988862
 21
5.1632274326
  0
LINE
  5
272
100
AcDbEntity
  8
03__ASM_ALL_CURVES
100
AcDbLine
 62
40
  6
CONTINUOUS
 10
5.3002888862
 20
5.157447434
 11
5.3089588862
 21
5.1632274326
  0
LINE
  5
273
100
AcDbEntity
  8
03__ASM_ALL_CURVES
100
AcDbLine
 62
40
  6
CONTINUOUS
 10
4.361448887
 20
5.1054274329
 11
4.357113887
 21
5.1169874333
  0
LINE
  5
274
100
AcDbEntity
  8
03__ASM_ALL_CURVES
100
AcDbLine
 62
40
  6
CONTINUOUS
 10
4.387458887
 20
5.1516674312
 11
4.391793887
 21
5.140107434
  0
LINE
  5
275
100
AcDbEntity
  8
0
100
AcDbLine
 62
7
  6
CONTINUOUS
 10
4.8213282611
 20
3.6232674326
 11
4.8213282611
 21
3.6238821231
  0
LINE
  5
276
100
AcDbEntity
  8
0
100
AcDbLine
 62
7
  6
CONTINUOUS
 10
4.8213282611
 20
3.9164027421
 11
4.8213282611
 21
3.9647468137
  0
LINE
  5
277
100
AcDbEntity
  8
0
100
AcDbLine
 62
7
  6
CONTINUOUS
 10
4.8213282611
 20
4.5497880515
 11
4.8213282611
 21
4.5981321231
  0
LINE
  5
278
100
AcDbEntity
  8
0
100
AcDbLine
 62
7
  6
CONTINUOUS
 10
4.8213282611
 20
4.8906527421
 11
4.8213282611
 21
4.8912674326
  0
LINE
  5
279
100
AcDbEntity
  8
03__ASM_ALL_CURVES
100
AcDbLine
 62
40
  6
CONTINUOUS
 10
4.855638887
 20
5.0938674326
 11
4.855638887
 21
5.0996474328
  0
LINE
  5
27A
100
AcDbEntity
  8
0
100
AcDbLine
 62
7
  6
CONTINUOUS
 10
4.876753887
 20
3.7192674326
 11
4.876753887
 21
4.7952674326
  0
LINE
  5
27B
100
AcDbEntity
  8
03__ASM_ALL_CURVES
100
AcDbLine
 62
40
  6
CONTINUOUS
 10
4.998693887
 20
5.0938674326
 11
5.003028887
 21
5.1227674319
  0
LINE
  5
27C
100
AcDbEntity
  8
03__ASM_ALL_CURVES
100
AcDbLine
 62
40
  6
CONTINUOUS
 10
5.003028887
 20
5.1227674319
 11
5.007363887
 21
5.140107434
  0
LINE
  5
27D
100
AcDbEntity
  8
03__ASM_ALL_CURVES
100
AcDbLine
 62
40
  6
CONTINUOUS
 10
5.076723887
 20
5.1227674319
 11
5.072388887
 21
5.1054274329
  0
LINE
  5
27E
100
AcDbEntity
  8
03__ASM_ALL_CURVES
100
AcDbLine
 62
40
  6
CONTINUOUS
 10
5.2222588862
 20
5.1458874326
 11
5.2309288862
 21
5.157447434
  0
LINE
  5
27F
100
AcDbEntity
  8
03__ASM_ALL_CURVES
100
AcDbLine
 62
40
  6
CONTINUOUS
 10
5.2656088862
 20
5.1112074326
 11
5.2569388862
 21
5.0996474328
  0
LINE
  5
280
100
AcDbEntity
  8
03__ASM_ALL_CURVES
100
AcDbLine
 62
40
  6
CONTINUOUS
 10
5.2916188862
 20
5.1458874326
 11
5.3002888862
 21
5.157447434
  0
LINE
  5
281
100
AcDbEntity
  8
03__ASM_ALL_CURVES
100
AcDbLine
 62
40
  6
CONTINUOUS
 10
5.2569388862
 20
5.0996474328
 11
5.2482688862
 21
5.0938674326
  0
LINE
  5
282
100
AcDbEntity
  8
03__ASM_ALL_CURVES
100
AcDbLine
 62
40
  6
CONTINUOUS
 10
5.3262988862
 20
5.0996474328
 11
5.3176288862
 21
5.0938674326
  0
LINE
  5
283
100
AcDbEntity
  8
03__ASM_ALL_CURVES
100
AcDbLine
 62
40
  6
CONTINUOUS
 10
4.500168887
 20
5.1054274329
 11
4.495833887
 21
5.1169874333
  0
LINE
  5
284
100
AcDbEntity
  8
03__ASM_ALL_CURVES
100
AcDbLine
 62
40
  6
CONTINUOUS
 10
4.526178887
 20
5.1285474326
 11
4.530513887
 21
5.1169874333
  0
LINE
  5
285
100
AcDbEntity
  8
03__ASM_ALL_CURVES
100
AcDbLine
 62
40
  6
CONTINUOUS
 10
4.643223887
 20
5.1227674319
 11
4.647558887
 21
5.1054274329
  0
LINE
  5
286
100
AcDbEntity
  8
03__ASM_ALL_CURVES
100
AcDbLine
 62
40
  6
CONTINUOUS
 10
4.946673887
 20
5.1516674312
 11
4.946673887
 21
5.140107434
  0
LINE
  5
287
100
AcDbEntity
  8
03__ASM_ALL_CURVES
100
AcDbLine
 62
40
  6
CONTINUOUS
 10
4.995393887
 20
5.0823074326
 11
4.995393887
 21
5.0591874326
  0
LINE
  5
288
100
AcDbEntity
  8
03__ASM_ALL_CURVES
100
AcDbLine
 62
40
  6
CONTINUOUS
 10
5.3306338862
 20
5.1054274329
 11
5.3262988862
 21
5.0996474328
  0
LINE
  5
289
100
AcDbEntity
  8
03__ASM_ALL_CURVES
100
AcDbLine
 62
40
  6
CONTINUOUS
 10
5.6470888862
 20
5.157447434
 11
5.6557588862
 21
5.1632274326
  0
LINE
  5
28A
100
AcDbEntity
  8
03__ASM_ALL_CURVES
100
AcDbLine
 62
40
  6
CONTINUOUS
 10
6.2156507545
 20
3.4111074326
 11
6.1896407545
 21
3.4111074326
  0
LINE
  5
28B
100
AcDbEntity
  8
03__ASM_ALL_CURVES
100
AcDbLine
 62
40
  6
CONTINUOUS
 10
6.1376207545
 20
3.4111074326
 11
6.1636307545
 21
3.4111074326
  0
LINE
  5
28C
100
AcDbEntity
  8
03__ASM_ALL_CURVES
100
AcDbLine
 62
40
  6
CONTINUOUS
 10
6.1896407545
 20
3.4371174326
 11
6.2058970045
 21
3.4371174326
  0
LINE
  5
28D
100
AcDbEntity
  8
03__ASM_ALL_CURVES
100
AcDbLine
 62
40
  6
CONTINUOUS
 10
6.1896407545
 20
3.4631274326
 11
6.2156507545
 21
3.4631274326
  0
LINE
  5
28E
100
AcDbEntity
  8
03__ASM_ALL_CURVES
100
AcDbLine
 62
40
  6
CONTINUOUS
 10
6.2384095045
 20
3.4631274326
 11
6.2709220045
 21
3.4631274326
  0
LINE
  5
28F
100
AcDbEntity
  8
03__ASM_ALL_CURVES
100
AcDbLine
 62
40
  6
CONTINUOUS
 10
6.1099851521
 20
3.4862474326
 11
6.1034826521
 21
3.4862474326
  0
LINE
  5
290
100
AcDbEntity
  8
03__ASM_ALL_CURVES
100
AcDbLine
 62
40
  6
CONTINUOUS
 10
6.2497889021
 20
3.4862474326
 11
6.2757989021
 21
3.4862474326
  0
LINE
  5
291
100
AcDbEntity
  8
03__ASM_ALL_CURVES
100
AcDbLine
 62
40
  6
CONTINUOUS
 10
6.1620051521
 20
3.5122574326
 11
6.1457489021
 21
3.5122574326
  0
LINE
  5
292
100
AcDbEntity
  8
03__ASM_ALL_CURVES
100
AcDbLine
 62
40
  6
CONTINUOUS
 10
6.0579651521
 20
3.5122574326
 11
6.0417089021
 21
3.5122574326
  0
LINE
  5
293
100
AcDbEntity
  8
0
100
AcDbLine
 62
7
  6
CONTINUOUS
 10
5.061753887
 20
4.7952674326
 11
5.061753887
 21
3.7192674326
  0
LINE
  5
294
100
AcDbEntity
  8
0
100
AcDbLine
 62
7
  6
CONTINUOUS
 10
5.064753887
 20
4.7922674326
 11
5.064753887
 21
3.7222674326
  0
LINE
  5
295
100
AcDbEntity
  8
03__ASM_ALL_CURVES
100
AcDbLine
 62
40
  6
CONTINUOUS
 10
5.064753887
 20
4.8068274326
 11
5.064753887
 21
5.0938674326
  0
LINE
  5
296
100
AcDbEntity
  8
0
100
AcDbLine
 62
7
  6
CONTINUOUS
 10
5.067253887
 20
3.7312108083
 11
5.067253887
 21
4.7833240569
  0
LINE
  5
297
100
AcDbEntity
  8
03__ASM_ALL_CURVES
100
AcDbLine
 62
40
  6
CONTINUOUS
 10
5.076723887
 20
5.1343274312
 11
5.076723887
 21
5.1227674319
  0
LINE
  5
298
100
AcDbEntity
  8
0
100
AcDbLine
 62
7
  6
CONTINUOUS
 10
5.0861102887
 20
4.7717674502
 11
5.0861102934
 21
4.7724373056
  0
LINE
  5
299
100
AcDbEntity
  8
0
100
AcDbLine
 62
7
  6
CONTINUOUS
 10
5.0861102934
 20
3.7420975596
 11
5.0861102887
 21
4.7717674502
  0
LINE
  5
29A
100
AcDbEntity
  8
0
100
AcDbLine
 62
7
  6
CONTINUOUS
 10
5.0886102934
 20
3.7427674326
 11
5.0886102934
 21
4.7717674326
  0
LINE
  5
29B
100
AcDbEntity
  8
THREAD
100
AcDbLine
 62
7
  6
CONTINUOUS
 10
5.111753887
 20
3.7427674326
 11
5.111753887
 21
4.7717674326
  0
LINE
  5
29C
100
AcDbEntity
  8
03__ASM_ALL_CURVES
100
AcDbLine
 62
40
  6
CONTINUOUS
 10
5.134113887
 20
5.0823074326
 11
5.134113887
 21
5.0591874326
  0
LINE
  5
29D
100
AcDbEntity
  8
03__ASM_ALL_CURVES
100
AcDbLine
 62
40
  6
CONTINUOUS
 10
5.2179238862
 20
5.1285474326
 11
5.2222588862
 21
5.1458874326
  0
LINE
  5
29E
100
AcDbEntity
  8
03__ASM_ALL_CURVES
100
AcDbLine
 62
40
  6
CONTINUOUS
 10
5.2699438862
 20
5.1285474326
 11
5.2656088862
 21
5.1112074326
  0
LINE
  5
29F
100
AcDbEntity
  8
03__ASM_ALL_CURVES
100
AcDbLine
 62
40
  6
CONTINUOUS
 10
5.2872838862
 20
5.1285474326
 11
5.2916188862
 21
5.1458874326
  0
LINE
  5
2A0
100
AcDbEntity
  8
03__ASM_ALL_CURVES
100
AcDbLine
 62
40
  6
CONTINUOUS
 10
5.3609788862
 20
5.0938674326
 11
5.3826538862
 21
5.1632274326
  0
LINE
  5
2A1
100
AcDbEntity
  8
THREAD
100
AcDbLine
 62
7
  6
CONTINUOUS
 10
5.2746931972
 20
4.7532674326
 11
5.2563623262
 21
4.7215174326
  0
LINE
  5
2A2
100
AcDbEntity
  8
03__ASM_ALL_CURVES
100
AcDbLine
 62
40
  6
CONTINUOUS
 10
5.6730988862
 20
5.0996474328
 11
5.6644288862
 21
5.0938674326
  0
LINE
  5
2A3
100
AcDbEntity
  8
03__ASM_ALL_CURVES
100
AcDbLine
 62
40
  6
CONTINUOUS
 10
5.7944788862
 20
5.1632274326
 11
5.7858088862
 21
5.157447434
  0
LINE
  5
2A4
100
AcDbEntity
  8
03__ASM_ALL_CURVES
100
AcDbLine
 62
40
  6
CONTINUOUS
 10
5.8118188862
 20
5.0996474328
 11
5.8031488862
 21
5.0938674326
  0
LINE
  5
2A5
100
AcDbEntity
  8
03__ASM_ALL_CURVES
100
AcDbLine
 62
40
  6
CONTINUOUS
 10
6.0417089021
 20
3.5382674326
 11
6.0579651521
 21
3.5382674326
  0
LINE
  5
2A6
100
AcDbEntity
  8
03__ASM_ALL_CURVES
100
AcDbLine
 62
40
  6
CONTINUOUS
 10
6.1034826521
 20
3.5382674326
 11
6.1099851521
 21
3.5382674326
  0
LINE
  5
2A7
100
AcDbEntity
  8
03__ASM_ALL_CURVES
100
AcDbLine
 62
40
  6
CONTINUOUS
 10
6.1457489021
 20
3.5382674326
 11
6.1620051521
 21
3.5382674326
  0
LINE
  5
2A8
100
AcDbEntity
  8
03__ASM_ALL_CURVES
100
AcDbLine
 62
40
  6
CONTINUOUS
 10
6.1945176521
 20
3.5382674326
 11
6.2270301521
 21
3.5382674326
  0
LINE
  5
2A9
100
AcDbEntity
  8
03__ASM_ALL_CURVES
100
AcDbLine
 62
40
  6
CONTINUOUS
 10
6.2595426521
 20
3.5382674326
 11
6.2660451521
 21
3.5382674326
  0
LINE
  5
2AA
100
AcDbEntity
  8
0
100
AcDbLine
 62
7
  6
CONTINUOUS
 10
4.8213282611
 20
3.6232674326
 11
4.4233645582
 21
3.6232674326
  0
LINE
  5
2AB
100
AcDbEntity
  8
0
100
AcDbLine
 62
7
  6
CONTINUOUS
 10
4.8213282611
 20
3.6238821231
 11
4.4233645582
 21
3.6238821231
  0
LINE
  5
2AC
100
AcDbEntity
  8
03__ASM_ALL_CURVES
100
AcDbLine
 62
40
  6
CONTINUOUS
 10
4.365783887
 20
5.0996474328
 11
4.361448887
 21
5.1054274329
  0
LINE
  5
2AD
100
AcDbEntity
  8
THREAD
100
AcDbLine
 62
7
  6
CONTINUOUS
 10
5.2746931972
 20
3.7612674326
 11
5.2563623262
 21
3.7930174326
  0
LINE
  5
2AE
100
AcDbEntity
  8
03__ASM_ALL_CURVES
100
AcDbLine
 62
40
  6
CONTINUOUS
 10
5.1572338862
 20
5.1632274326
 11
5.1572338862
 21
5.0938674326
  0
LINE
  5
2AF
100
AcDbEntity
  8
0
100
AcDbLine
 62
7
  6
CONTINUOUS
 10
5.181753887
 20
3.7452674326
 11
5.181753887
 21
4.7692674326
  0
LINE
  5
2B0
100
AcDbEntity
  8
0
100
AcDbLine
 62
7
  6
CONTINUOUS
 10
5.231753887
 20
3.7452674326
 11
5.231753887
 21
4.7692674326
  0
LINE
  5
2B1
100
AcDbEntity
  8
THREAD
100
AcDbLine
 62
7
  6
CONTINUOUS
 10
5.2455370086
 20
3.7992674326
 11
5.2455370086
 21
4.7152674326
  0
LINE
  5
2B2
100
AcDbEntity
  8
03__ASM_ALL_CURVES
100
AcDbLine
 62
40
  6
CONTINUOUS
 10
5.6384188862
 20
5.1458874326
 11
5.6470888862
 21
5.157447434
  0
LINE
  5
2B3
100
AcDbEntity
  8
03__ASM_ALL_CURVES
100
AcDbLine
 62
40
  6
CONTINUOUS
 10
5.6774338862
 20
5.1054274329
 11
5.6730988862
 21
5.0996474328
  0
LINE
  5
2B4
100
AcDbEntity
  8
03__ASM_ALL_CURVES
100
AcDbLine
 62
40
  6
CONTINUOUS
 10
5.9245288862
 20
5.157447434
 11
5.9331988862
 21
5.1632274326
  0
LINE
  5
2B5
100
AcDbEntity
  8
03__ASM_ALL_CURVES
100
AcDbLine
 62
40
  6
CONTINUOUS
 10
5.9505388862
 20
5.0996474328
 11
5.9418688862
 21
5.0938674326
  0
LINE
  5
2B6
100
AcDbEntity
  8
03__ASM_ALL_CURVES
100
AcDbLine
 62
40
  6
CONTINUOUS
 10
6.0198988862
 20
5.0996474328
 11
6.0112288862
 21
5.0938674326
  0
LINE
  5
2B7
100
AcDbEntity
  8
0
100
AcDbLine
 62
7
  6
CONTINUOUS
 10
5.061753887
 20
3.7192674326
 11
4.876753887
 21
3.7192674326
  0
LINE
  5
2B8
100
AcDbEntity
  8
03__ASM_ALL_CURVES
100
AcDbLine
 62
40
  6
CONTINUOUS
 10
4.383123887
 20
5.157447434
 11
4.387458887
 21
5.1516674312
  0
LINE
  5
2B9
100
AcDbEntity
  8
03__ASM_ALL_CURVES
100
AcDbLine
 62
40
  6
CONTINUOUS
 10
4.439478887
 20
5.0996474328
 11
4.443813887
 21
5.0938674326
  0
LINE
  5
2BA
100
AcDbEntity
  8
03__ASM_ALL_CURVES
100
AcDbLine
 62
40
  6
CONTINUOUS
 10
4.504503887
 20
5.0996474328
 11
4.500168887
 21
5.1054274329
  0
LINE
  5
2BB
100
AcDbEntity
  8
THREAD
100
AcDbLine
 62
7
  6
CONTINUOUS
 10
5.2563623262
 20
3.7930174326
 11
5.2563623262
 21
4.7215174326
  0
LINE
  5
2BC
100
AcDbEntity
  8
THREAD
100
AcDbLine
 62
7
  6
CONTINUOUS
 10
5.2746931972
 20
3.7612674326
 11
5.2746931972
 21
4.7532674326
  0
LINE
  5
2BD
100
AcDbEntity
  8
0
100
AcDbLine
 62
7
  6
CONTINUOUS
 10
4.876753887
 20
3.7192674326
 11
4.8215944299
 21
3.6237284505
  0
LINE
  5
2BE
100
AcDbEntity
  8
03__ASM_ALL_CURVES
100
AcDbLine
 62
40
  6
CONTINUOUS
 10
5.7858088862
 20
5.157447434
 11
5.7814738862
 21
5.1516674312
  0
LINE
  5
2BF
100
AcDbEntity
  8
03__ASM_ALL_CURVES
100
AcDbLine
 62
40
  6
CONTINUOUS
 10
5.8161538862
 20
5.1054274329
 11
5.8118188862
 21
5.0996474328
  0
LINE
  5
2C0
100
AcDbEntity
  8
03__ASM_ALL_CURVES
100
AcDbLine
 62
40
  6
CONTINUOUS
 10
6.1542838862
 20
5.0996474328
 11
6.1456138862
 21
5.0938674326
  0
LINE
  5
2C1
100
AcDbEntity
  8
THREAD
100
AcDbLine
 62
7
  6
CONTINUOUS
 10
5.111753887
 20
3.7427674326
 11
5.0886102934
 21
3.7427674326
  0
LINE
  5
2C2
100
AcDbEntity
  8
0
100
AcDbLine
 62
7
  6
CONTINUOUS
 10
5.181753887
 20
3.7452674326
 11
5.231753887
 21
3.7452674326
  0
LINE
  5
2C3
100
AcDbEntity
  8
THREAD
100
AcDbLine
 62
7
  6
CONTINUOUS
 10
5.583753887
 20
3.7612674326
 11
5.2746931972
 21
3.7612674326
  0
LINE
  5
2C4
100
AcDbEntity
  8
THREAD
100
AcDbLine
 62
7
  6
CONTINUOUS
 10
5.2455370086
 20
3.7992674326
 11
5.231753887
 21
3.7992674326
  0
LINE
  5
2C5
100
AcDbEntity
  8
THREAD
100
AcDbLine
 62
7
  6
CONTINUOUS
 10
5.923753887
 20
3.8052674326
 11
5.627753887
 21
3.8052674326
  0
LINE
  5
2C6
100
AcDbEntity
  8
0
100
AcDbLine
 62
7
  6
CONTINUOUS
 10
6.377753887
 20
3.8210174326
 11
6.435253887
 21
3.8210174326
  0
LINE
  5
2C7
100
AcDbEntity
  8
0
100
AcDbLine
 62
7
  6
CONTINUOUS
 10
6.632753887
 20
3.8210174326
 11
6.674753887
 21
3.8210174326
  0
LINE
  5
2C8
100
AcDbEntity
  8
0
100
AcDbLine
 62
7
  6
CONTINUOUS
 10
6.435253887
 20
3.8212674326
 11
6.485253887
 21
3.8212674326
  0
LINE
  5
2C9
100
AcDbEntity
  8
0
100
AcDbLine
 62
7
  6
CONTINUOUS
 10
6.555253887
 20
3.8212674326
 11
6.605253887
 21
3.8212674326
  0
LINE
  5
2CA
100
AcDbEntity
  8
0
100
AcDbLine
 62
7
  6
CONTINUOUS
 10
5.940753887
 20
3.8512674326
 11
6.032753887
 21
3.8512674326
  0
LINE
  5
2CB
100
AcDbEntity
  8
03__ASM_ALL_CURVES
100
AcDbLine
 62
40
  6
CONTINUOUS
 10
6.1034826521
 20
3.4862474326
 11
6.0969801521
 21
3.4905824327
  0
LINE
  5
2CC
100
AcDbEntity
  8
03__ASM_ALL_CURVES
100
AcDbLine
 62
40
  6
CONTINUOUS
 10
6.0579651521
 20
3.5382674326
 11
6.0644676521
 21
3.5339324336
  0
LINE
  5
2CD
100
AcDbEntity
  8
03__ASM_ALL_CURVES
100
AcDbLine
 62
40
  6
CONTINUOUS
 10
6.1099851521
 20
3.5382674326
 11
6.1164876521
 21
3.5339324336
  0
LINE
  5
2CE
100
AcDbEntity
  8
03__ASM_ALL_CURVES
100
AcDbLine
 62
40
  6
CONTINUOUS
 10
4.521843887
 20
5.157447434
 11
4.526178887
 21
5.1516674312
  0
LINE
  5
2CF
100
AcDbEntity
  8
03__ASM_ALL_CURVES
100
AcDbLine
 62
40
  6
CONTINUOUS
 10
4.569528887
 20
5.0996474328
 11
4.560858887
 21
5.1112074326
  0
LINE
  5
2D0
100
AcDbEntity
  8
03__ASM_ALL_CURVES
100
AcDbLine
 62
40
  6
CONTINUOUS
 10
4.569528887
 20
5.140107434
 11
4.565193887
 21
5.1458874326
  0
LINE
  5
2D1
100
AcDbEntity
  8
03__ASM_ALL_CURVES
100
AcDbLine
 62
40
  6
CONTINUOUS
 10
4.595538887
 20
5.1285474326
 11
4.604208887
 21
5.1169874333
  0
LINE
  5
2D2
100
AcDbEntity
  8
03__ASM_ALL_CURVES
100
AcDbLine
 62
40
  6
CONTINUOUS
 10
4.595538887
 20
5.157447434
 11
4.599873887
 21
5.1516674312
  0
LINE
  5
2D3
100
AcDbEntity
  8
0
100
AcDbLine
 62
7
  6
CONTINUOUS
 10
4.876753887
 20
4.7952674326
 11
4.8215944299
 21
4.8908064147
  0
LINE
  5
2D4
100
AcDbEntity
  8
03__ASM_ALL_CURVES
100
AcDbLine
 62
40
  6
CONTINUOUS
 10
5.072388887
 20
5.1516674312
 11
5.076723887
 21
5.1343274312
  0
LINE
  5
2D5
100
AcDbEntity
  8
03__ASM_ALL_CURVES
100
AcDbLine
 62
40
  6
CONTINUOUS
 10
5.4520138862
 20
5.1632274326
 11
5.4520138862
 21
5.0938674326
  0
LINE
  5
2D6
100
AcDbEntity
  8
03__ASM_ALL_CURVES
100
AcDbLine
 62
40
  6
CONTINUOUS
 10
5.6340838862
 20
5.1285474326
 11
5.6384188862
 21
5.1458874326
  0
LINE
  5
2D7
100
AcDbEntity
  8
03__ASM_ALL_CURVES
100
AcDbLine
 62
40
  6
CONTINUOUS
 10
5.9158588862
 20
5.1458874326
 11
5.9245288862
 21
5.157447434
  0
LINE
  5
2D8
100
AcDbEntity
  8
03__ASM_ALL_CURVES
100
AcDbLine
 62
40
  6
CONTINUOUS
 10
5.9592088862
 20
5.1112074326
 11
5.9505388862
 21
5.0996474328
  0
LINE
  5
2D9
100
AcDbEntity
  8
03__ASM_ALL_CURVES
100
AcDbLine
 62
40
  6
CONTINUOUS
 10
6.2973388862
 20
5.1343274312
 11
6.2886688862
 21
5.1285474326
  0
LINE
  5
2DA
100
AcDbEntity
  8
0
100
AcDbLine
 62
7
  6
CONTINUOUS
 10
6.632753887
 20
3.8752674326
 11
6.605253887
 21
3.8752674326
  0
LINE
  5
2DB
100
AcDbEntity
  8
0
100
AcDbLine
 62
7
  6
CONTINUOUS
 10
6.377753887
 20
3.8832674326
 11
6.270505429
 21
3.8832674326
  0
LINE
  5
2DC
100
AcDbEntity
  8
0
100
AcDbLine
 62
7
  6
CONTINUOUS
 10
6.1090023449
 20
3.8832674326
 11
6.064753887
 21
3.8832674326
  0
LINE
  5
2DD
100
AcDbEntity
  8
0
100
AcDbLine
 62
7
  6
CONTINUOUS
 10
5.940753887
 20
3.8832674326
 11
5.939753887
 21
3.8832674326
  0
LINE
  5
2DE
100
AcDbEntity
  8
0
100
AcDbLine
 62
7
  6
CONTINUOUS
 10
4.8213282611
 20
3.9164027421
 11
4.4233645582
 21
3.9164027421
  0
LINE
  5
2DF
100
AcDbEntity
  8
03__ASM_ALL_CURVES
100
AcDbLine
 62
40
  6
CONTINUOUS
 10
6.1620051521
 20
3.5382674326
 11
6.1685076521
 21
3.5339324336
  0
LINE
  5
2E0
100
AcDbEntity
  8
03__ASM_ALL_CURVES
100
AcDbLine
 62
40
  6
CONTINUOUS
 10
6.2660451521
 20
3.5382674326
 11
6.2725476521
 21
3.5339324336
  0
LINE
  5
2E1
100
AcDbEntity
  8
03__ASM_ALL_CURVES
100
AcDbLine
 62
40
  6
CONTINUOUS
 10
4.647558887
 20
5.1054274329
 11
4.656228887
 21
5.0938674326
  0
LINE
  5
2E2
100
AcDbEntity
  8
03__ASM_ALL_CURVES
100
AcDbLine
 62
40
  6
CONTINUOUS
 10
5.2222588862
 20
5.1112074326
 11
5.2179238862
 21
5.1285474326
  0
LINE
  5
2E3
100
AcDbEntity
  8
03__ASM_ALL_CURVES
100
AcDbLine
 62
40
  6
CONTINUOUS
 10
5.5213738862
 20
5.1632274326
 11
5.5213738862
 21
5.0938674326
  0
LINE
  5
2E4
100
AcDbEntity
  8
03__ASM_ALL_CURVES
100
AcDbLine
 62
40
  6
CONTINUOUS
 10
5.5733938862
 20
5.0938674326
 11
5.5733938862
 21
5.1632274326
  0
LINE
  5
2E5
100
AcDbEntity
  8
THREAD
100
AcDbLine
 62
7
  6
CONTINUOUS
 10
5.583753887
 20
3.7612674326
 11
5.583753887
 21
4.7532674326
  0
LINE
  5
2E6
100
AcDbEntity
  8
03__ASM_ALL_CURVES
100
AcDbLine
 62
40
  6
CONTINUOUS
 10
6.0242338862
 20
5.1054274329
 11
6.0198988862
 21
5.0996474328
  0
LINE
  5
2E7
100
AcDbEntity
  8
0
100
AcDbLine
 62
7
  6
CONTINUOUS
 10
4.8213282611
 20
3.9647468137
 11
4.4233645582
 21
3.9647468137
  0
LINE
  5
2E8
100
AcDbEntity
  8
03__ASM_ALL_CURVES
100
AcDbLine
 62
40
  6
CONTINUOUS
 10
4.855638887
 20
5.0996474328
 11
4.859973887
 21
5.0938674326
  0
LINE
  5
2E9
100
AcDbEntity
  8
03__ASM_ALL_CURVES
100
AcDbLine
 62
40
  6
CONTINUOUS
 10
6.0969801521
 20
3.4905824327
 11
6.0904776521
 21
3.4992524326
  0
LINE
  5
2EA
100
AcDbEntity
  8
03__ASM_ALL_CURVES
100
AcDbLine
 62
40
  6
CONTINUOUS
 10
6.0644676521
 20
3.5339324336
 11
6.0677189021
 21
3.5295974316
  0
LINE
  5
2EB
100
AcDbEntity
  8
03__ASM_ALL_CURVES
100
AcDbLine
 62
40
  6
CONTINUOUS
 10
5.2656088862
 20
5.1458874326
 11
5.2699438862
 21
5.1285474326
  0
LINE
  5
2EC
100
AcDbEntity
  8
03__ASM_ALL_CURVES
100
AcDbLine
 62
40
  6
CONTINUOUS
 10
5.2916188862
 20
5.1112074326
 11
5.2872838862
 21
5.1285474326
  0
LINE
  5
2ED
100
AcDbEntity
  8
03__ASM_ALL_CURVES
100
AcDbLine
 62
40
  6
CONTINUOUS
 10
5.6080738862
 20
5.0938674326
 11
5.6080738862
 21
5.1632274326
  0
LINE
  5
2EE
100
AcDbEntity
  8
THREAD
100
AcDbLine
 62
7
  6
CONTINUOUS
 10
5.627753887
 20
3.8052674326
 11
5.627753887
 21
4.7092674326
  0
LINE
  5
2EF
100
AcDbEntity
  8
03__ASM_ALL_CURVES
100
AcDbLine
 62
40
  6
CONTINUOUS
 10
5.6774338862
 20
5.1285474326
 11
5.6774338862
 21
5.1054274329
  0
LINE
  5
2F0
100
AcDbEntity
  8
03__ASM_ALL_CURVES
100
AcDbLine
 62
40
  6
CONTINUOUS
 10
6.1629538862
 20
5.1112074326
 11
6.1542838862
 21
5.0996474328
  0
LINE
  5
2F1
100
AcDbEntity
  8
03__ASM_ALL_CURVES
100
AcDbLine
 62
40
  6
CONTINUOUS
 10
6.3016738862
 20
5.140107434
 11
6.2973388862
 21
5.1343274312
  0
LINE
  5
2F2
100
AcDbEntity
  8
03__ASM_ALL_CURVES
100
AcDbLine
 62
40
  6
CONTINUOUS
 10
4.374453887
 20
5.0938674326
 11
4.365783887
 21
5.0996474328
  0
LINE
  5
2F3
100
AcDbEntity
  8
03__ASM_ALL_CURVES
100
AcDbLine
 62
40
  6
CONTINUOUS
 10
6.1164876521
 20
3.5339324336
 11
6.1229901521
 21
3.5252624326
  0
LINE
  5
2F4
100
AcDbEntity
  8
03__ASM_ALL_CURVES
100
AcDbLine
 62
40
  6
CONTINUOUS
 10
4.942338887
 20
5.157447434
 11
4.946673887
 21
5.1516674312
  0
LINE
  5
2F5
100
AcDbEntity
  8
03__ASM_ALL_CURVES
100
AcDbLine
 62
40
  6
CONTINUOUS
 10
6.1685076521
 20
3.5339324336
 11
6.1717589021
 21
3.5295974316
  0
LINE
  5
2F6
100
AcDbEntity
  8
03__ASM_ALL_CURVES
100
AcDbLine
 62
40
  6
CONTINUOUS
 10
6.0856007545
 20
3.4631274326
 11
6.1116107545
 21
3.4111074326
  0
LINE
  5
2F7
100
AcDbEntity
  8
03__ASM_ALL_CURVES
100
AcDbLine
 62
40
  6
CONTINUOUS
 10
5.3826538862
 20
5.1632274326
 11
5.4043288862
 21
5.0938674326
  0
LINE
  5
2F8
100
AcDbEntity
  8
03__ASM_ALL_CURVES
100
AcDbLine
 62
40
  6
CONTINUOUS
 10
5.7814738862
 20
5.1516674312
 11
5.7814738862
 21
5.1458874326
  0
LINE
  5
2F9
100
AcDbEntity
  8
03__ASM_ALL_CURVES
100
AcDbLine
 62
40
  6
CONTINUOUS
 10
5.8161538862
 20
5.1169874333
 11
5.8161538862
 21
5.1054274329
  0
LINE
  5
2FA
100
AcDbEntity
  8
03__ASM_ALL_CURVES
100
AcDbLine
 62
40
  6
CONTINUOUS
 10
5.9115238862
 20
5.1285474326
 11
5.9158588862
 21
5.1458874326
  0
LINE
  5
2FB
100
AcDbEntity
  8
03__ASM_ALL_CURVES
100
AcDbLine
 62
40
  6
CONTINUOUS
 10
5.9635438862
 20
5.1285474326
 11
5.9592088862
 21
5.1112074326
  0
LINE
  5
2FC
100
AcDbEntity
  8
03__ASM_ALL_CURVES
100
AcDbLine
 62
40
  6
CONTINUOUS
 10
7.1903463872
 20
4.1936874326
 11
7.1643363872
 21
4.1936874326
  0
LINE
  5
2FD
100
AcDbEntity
  8
03__ASM_ALL_CURVES
100
AcDbLine
 62
40
  6
CONTINUOUS
 10
7.0245326372
 20
4.1936874326
 11
7.0180301372
 21
4.1936874326
  0
LINE
  5
2FE
100
AcDbEntity
  8
03__ASM_ALL_CURVES
100
AcDbLine
 62
40
  6
CONTINUOUS
 10
6.9725126372
 20
4.1936874326
 11
6.9660101372
 21
4.1936874326
  0
LINE
  5
2FF
100
AcDbEntity
  8
03__ASM_ALL_CURVES
100
AcDbLine
 62
40
  6
CONTINUOUS
 10
7.1123163872
 20
4.1936874326
 11
7.1383263872
 21
4.1936874326
  0
LINE
  5
300
100
AcDbEntity
  8
03__ASM_ALL_CURVES
100
AcDbLine
 62
40
  6
CONTINUOUS
 10
7.1643363872
 20
4.2196974326
 11
7.1805926372
 21
4.2196974326
  0
LINE
  5
301
100
AcDbEntity
  8
03__ASM_ALL_CURVES
100
AcDbLine
 62
40
  6
CONTINUOUS
 10
6.9660101372
 20
4.2457074326
 11
6.9725126372
 21
4.2457074326
  0
LINE
  5
302
100
AcDbEntity
  8
03__ASM_ALL_CURVES
100
AcDbLine
 62
40
  6
CONTINUOUS
 10
7.0570451372
 20
4.2457074326
 11
7.0895576372
 21
4.2457074326
  0
LINE
  5
303
100
AcDbEntity
  8
03__ASM_ALL_CURVES
100
AcDbLine
 62
40
  6
CONTINUOUS
 10
7.1643363872
 20
4.2457074326
 11
7.1903463872
 21
4.2457074326
  0
LINE
  5
304
100
AcDbEntity
  8
03__ASM_ALL_CURVES
100
AcDbLine
 62
40
  6
CONTINUOUS
 10
7.2131051372
 20
4.2457074326
 11
7.2456176372
 21
4.2457074326
  0
LINE
  5
305
100
AcDbEntity
  8
03__ASM_ALL_CURVES
100
AcDbLine
 62
40
  6
CONTINUOUS
 10
7.0180301374
 20
4.2688274326
 11
7.0115276374
 21
4.2688274326
  0
LINE
  5
306
100
AcDbEntity
  8
03__ASM_ALL_CURVES
100
AcDbLine
 62
40
  6
CONTINUOUS
 10
7.0700501374
 20
4.2948374326
 11
7.0537938874
 21
4.2948374326
  0
LINE
  5
307
100
AcDbEntity
  8
03__ASM_ALL_CURVES
100
AcDbLine
 62
40
  6
CONTINUOUS
 10
6.9660101374
 20
4.2948374326
 11
6.9497538874
 21
4.2948374326
  0
LINE
  5
308
100
AcDbEntity
  8
03__ASM_ALL_CURVES
100
AcDbLine
 62
40
  6
CONTINUOUS
 10
4.374453887
 20
5.1632274326
 11
4.383123887
 21
5.157447434
  0
LINE
  5
309
100
AcDbEntity
  8
03__ASM_ALL_CURVES
100
AcDbLine
 62
40
  6
CONTINUOUS
 10
4.513173887
 20
5.0938674326
 11
4.504503887
 21
5.0996474328
  0
LINE
  5
30A
100
AcDbEntity
  8
03__ASM_ALL_CURVES
100
AcDbLine
 62
40
  6
CONTINUOUS
 10
4.578198887
 20
5.0938674326
 11
4.569528887
 21
5.0996474328
  0
LINE
  5
30B
100
AcDbEntity
  8
03__ASM_ALL_CURVES
100
AcDbLine
 62
40
  6
CONTINUOUS
 10
4.513173887
 20
5.1632274326
 11
4.521843887
 21
5.157447434
  0
LINE
  5
30C
100
AcDbEntity
  8
03__ASM_ALL_CURVES
100
AcDbLine
 62
40
  6
CONTINUOUS
 10
6.2725476521
 20
3.5339324336
 11
6.2757989021
 21
3.5295974316
  0
LINE
  5
30D
100
AcDbEntity
  8
03__ASM_ALL_CURVES
100
AcDbLine
 62
40
  6
CONTINUOUS
 10
5.063718887
 20
5.1632274326
 11
5.072388887
 21
5.1516674312
  0
LINE
  5
30E
100
AcDbEntity
  8
03__ASM_ALL_CURVES
100
AcDbLine
 62
40
  6
CONTINUOUS
 10
5.8508338862
 20
5.1632274326
 11
5.8508338862
 21
5.0938674326
  0
LINE
  5
30F
100
AcDbEntity
  8
03__ASM_ALL_CURVES
100
AcDbLine
 62
40
  6
CONTINUOUS
 10
5.8855138862
 20
5.1632274326
 11
5.8855138862
 21
5.0938674326
  0
LINE
  5
310
100
AcDbEntity
  8
0
100
AcDbLine
 62
7
  6
CONTINUOUS
 10
5.923753887
 20
3.8052674326
 11
5.923753887
 21
4.7092674326
  0
LINE
  5
311
100
AcDbEntity
  8
THREAD
100
AcDbLine
 62
7
  6
CONTINUOUS
 10
5.0861102934
 20
3.7420975596
 11
5.067253887
 21
3.7312108083
  0
LINE
  5
312
100
AcDbEntity
  8
03__ASM_ALL_CURVES
100
AcDbLine
 62
40
  6
CONTINUOUS
 10
6.9497538874
 20
4.3208474326
 11
6.9660101374
 21
4.3208474326
  0
LINE
  5
313
100
AcDbEntity
  8
03__ASM_ALL_CURVES
100
AcDbLine
 62
40
  6
CONTINUOUS
 10
7.0115276374
 20
4.3208474326
 11
7.0180301374
 21
4.3208474326
  0
LINE
  5
314
100
AcDbEntity
  8
03__ASM_ALL_CURVES
100
AcDbLine
 62
40
  6
CONTINUOUS
 10
7.0537938874
 20
4.3208474326
 11
7.0700501374
 21
4.3208474326
  0
LINE
  5
315
100
AcDbEntity
  8
03__ASM_ALL_CURVES
100
AcDbLine
 62
40
  6
CONTINUOUS
 10
7.1025626374
 20
4.3208474326
 11
7.1350751374
 21
4.3208474326
  0
LINE
  5
316
100
AcDbEntity
  8
THREAD
100
AcDbLine
 62
7
  6
CONTINUOUS
 10
5.0861102934
 20
4.7724373056
 11
5.067253887
 21
4.7833240569
  0
LINE
  5
317
100
AcDbEntity
  8
03__ASM_ALL_CURVES
100
AcDbLine
 62
40
  6
CONTINUOUS
 10
4.578198887
 20
5.1343274312
 11
4.569528887
 21
5.140107434
  0
LINE
  5
318
100
AcDbEntity
  8
03__ASM_ALL_CURVES
100
AcDbLine
 62
40
  6
CONTINUOUS
 10
4.586868887
 20
5.1343274312
 11
4.595538887
 21
5.1285474326
  0
LINE
  5
319
100
AcDbEntity
  8
03__ASM_ALL_CURVES
100
AcDbLine
 62
40
  6
CONTINUOUS
 10
4.586868887
 20
5.1632274326
 11
4.595538887
 21
5.157447434
  0
LINE
  5
31A
100
AcDbEntity
  8
03__ASM_ALL_CURVES
100
AcDbLine
 62
40
  6
CONTINUOUS
 10
5.2309288862
 20
5.0996474328
 11
5.2222588862
 21
5.1112074326
  0
LINE
  5
31B
100
AcDbEntity
  8
03__ASM_ALL_CURVES
100
AcDbLine
 62
40
  6
CONTINUOUS
 10
5.3002888862
 20
5.0996474328
 11
5.2916188862
 21
5.1112074326
  0
LINE
  5
31C
100
AcDbEntity
  8
03__ASM_ALL_CURVES
100
AcDbLine
 62
40
  6
CONTINUOUS
 10
5.2569388862
 20
5.157447434
 11
5.2656088862
 21
5.1458874326
  0
LINE
  5
31D
100
AcDbEntity
  8
03__ASM_ALL_CURVES
100
AcDbLine
 62
40
  6
CONTINUOUS
 10
6.1620051521
 20
3.5122574326
 11
6.1717589021
 21
3.4862474326
  0
LINE
  5
31E
100
AcDbEntity
  8
03__ASM_ALL_CURVES
100
AcDbLine
 62
40
  6
CONTINUOUS
 10
5.6384188862
 20
5.1112074326
 11
5.6340838862
 21
5.1285474326
  0
LINE
  5
31F
100
AcDbEntity
  8
03__ASM_ALL_CURVES
100
AcDbLine
 62
40
  6
CONTINUOUS
 10
6.0904776521
 20
3.4992524326
 11
6.0872264021
 21
3.5122574326
  0
LINE
  5
320
100
AcDbEntity
  8
03__ASM_ALL_CURVES
100
AcDbLine
 62
40
  6
CONTINUOUS
 10
6.1229901521
 20
3.5252624326
 11
6.1262414021
 21
3.5122574326
  0
LINE
  5
321
100
AcDbEntity
  8
0
100
AcDbLine
 62
7
  6
CONTINUOUS
 10
5.939753887
 20
3.8212674326
 11
5.939753887
 21
4.6932674326
  0
LINE
  5
322
100
AcDbEntity
  8
0
100
AcDbLine
 62
7
  6
CONTINUOUS
 10
5.940753887
 20
3.8512674326
 11
5.940753887
 21
4.6632674326
  0
LINE
  5
323
100
AcDbEntity
  8
03__ASM_ALL_CURVES
100
AcDbLine
 62
40
  6
CONTINUOUS
 10
5.9895538862
 20
5.1054274329
 11
5.9895538862
 21
5.1632274326
  0
LINE
  5
324
100
AcDbEntity
  8
03__ASM_ALL_CURVES
100
AcDbLine
 62
40
  6
CONTINUOUS
 10
6.0242338862
 20
5.1632274326
 11
6.0242338862
 21
5.1054274329
  0
LINE
  5
325
100
AcDbEntity
  8
0
100
AcDbLine
 62
7
  6
CONTINUOUS
 10
6.032753887
 20
3.8512674326
 11
6.032753887
 21
4.6632674326
  0
LINE
  5
326
100
AcDbEntity
  8
03__ASM_ALL_CURVES
100
AcDbLine
 62
40
  6
CONTINUOUS
 10
6.1672888862
 20
5.1285474326
 11
6.1629538862
 21
5.1112074326
  0
LINE
  5
327
100
AcDbEntity
  8
THREAD
100
AcDbLine
 62
7
  6
CONTINUOUS
 10
5.627753887
 20
3.8052674326
 11
5.583753887
 21
3.7612674326
  0
LINE
  5
328
100
AcDbEntity
  8
THREAD
100
AcDbLine
 62
7
  6
CONTINUOUS
 10
5.627753887
 20
4.7092674326
 11
5.583753887
 21
4.7532674326
  0
LINE
  5
329
100
AcDbEntity
  8
03__ASM_ALL_CURVES
100
AcDbLine
 62
40
  6
CONTINUOUS
 10
5.3262988862
 20
5.157447434
 11
5.3306338862
 21
5.1516674312
  0
LINE
  5
32A
100
AcDbEntity
  8
03__ASM_ALL_CURVES
100
AcDbLine
 62
40
  6
CONTINUOUS
 10
5.5733938862
 20
5.1632274326
 11
5.6080738862
 21
5.0938674326
  0
LINE
  5
32B
100
AcDbEntity
  8
03__ASM_ALL_CURVES
100
AcDbLine
 62
40
  6
CONTINUOUS
 10
6.0417089021
 20
3.4862474326
 11
6.0417089021
 21
3.5382674326
  0
LINE
  5
32C
100
AcDbEntity
  8
03__ASM_ALL_CURVES
100
AcDbLine
 62
40
  6
CONTINUOUS
 10
6.0465857545
 20
3.4631274326
 11
6.0465857545
 21
3.4111074326
  0
LINE
  5
32D
100
AcDbEntity
  8
03__ASM_ALL_CURVES
100
AcDbLine
 62
40
  6
CONTINUOUS
 10
6.0589138862
 20
5.1632274326
 11
6.0589138862
 21
5.0938674326
  0
LINE
  5
32E
100
AcDbEntity
  8
0
100
AcDbLine
 62
7
  6
CONTINUOUS
 10
6.064753887
 20
3.8832674326
 11
6.064753887
 21
4.6312674326
  0
LINE
  5
32F
100
AcDbEntity
  8
03__ASM_ALL_CURVES
100
AcDbLine
 62
40
  6
CONTINUOUS
 10
6.0677189021
 20
3.5295974316
 11
6.0677189021
 21
3.5209274336
  0
LINE
  5
330
100
AcDbEntity
  8
03__ASM_ALL_CURVES
100
AcDbLine
 62
40
  6
CONTINUOUS
 10
6.0856007545
 20
3.4111074326
 11
6.0856007545
 21
3.4631274326
  0
LINE
  5
331
100
AcDbEntity
  8
03__ASM_ALL_CURVES
100
AcDbLine
 62
40
  6
CONTINUOUS
 10
6.1116107545
 20
3.4111074326
 11
6.1116107545
 21
3.4631274326
  0
LINE
  5
332
100
AcDbEntity
  8
03__ASM_ALL_CURVES
100
AcDbLine
 62
40
  6
CONTINUOUS
 10
6.1282738862
 20
5.0938674326
 11
6.1282738862
 21
5.1632274326
  0
LINE
  5
333
100
AcDbEntity
  8
03__ASM_ALL_CURVES
100
AcDbLine
 62
40
  6
CONTINUOUS
 10
6.1376207545
 20
3.4631274326
 11
6.1376207545
 21
3.4111074326
  0
LINE
  5
334
100
AcDbEntity
  8
03__ASM_ALL_CURVES
100
AcDbLine
 62
40
  6
CONTINUOUS
 10
6.1457489021
 20
3.4862474326
 11
6.1457489021
 21
3.5382674326
  0
LINE
  5
335
100
AcDbEntity
  8
0
100
AcDbLine
 62
7
  6
CONTINUOUS
 10
4.8213282611
 20
4.5497880515
 11
4.4233645582
 21
4.5497880515
  0
LINE
  5
336
100
AcDbEntity
  8
0
100
AcDbLine
 62
7
  6
CONTINUOUS
 10
4.8213282611
 20
4.5981321231
 11
4.4233645582
 21
4.5981321231
  0
LINE
  5
337
100
AcDbEntity
  8
0
100
AcDbLine
 62
7
  6
CONTINUOUS
 10
6.377753887
 20
4.6312674326
 11
6.270505429
 21
4.6312674326
  0
LINE
  5
338
100
AcDbEntity
  8
0
100
AcDbLine
 62
7
  6
CONTINUOUS
 10
6.1090023449
 20
4.6312674326
 11
6.064753887
 21
4.6312674326
  0
LINE
  5
339
100
AcDbEntity
  8
0
100
AcDbLine
 62
7
  6
CONTINUOUS
 10
5.940753887
 20
4.6312674326
 11
5.939753887
 21
4.6312674326
  0
LINE
  5
33A
100
AcDbEntity
  8
0
100
AcDbLine
 62
7
  6
CONTINUOUS
 10
6.632753887
 20
4.6392674326
 11
6.605253887
 21
4.6392674326
  0
LINE
  5
33B
100
AcDbEntity
  8
03__ASM_ALL_CURVES
100
AcDbLine
 62
40
  6
CONTINUOUS
 10
4.513173887
 20
5.1343274312
 11
4.526178887
 21
5.1285474326
  0
LINE
  5
33C
100
AcDbEntity
  8
03__ASM_ALL_CURVES
100
AcDbLine
 62
40
  6
CONTINUOUS
 10
4.933668887
 20
5.1632274326
 11
4.942338887
 21
5.157447434
  0
LINE
  5
33D
100
AcDbEntity
  8
03__ASM_ALL_CURVES
100
AcDbLine
 62
40
  6
CONTINUOUS
 10
5.9158588862
 20
5.1112074326
 11
5.9115238862
 21
5.1285474326
  0
LINE
  5
33E
100
AcDbEntity
  8
03__ASM_ALL_CURVES
100
AcDbLine
 62
40
  6
CONTINUOUS
 10
6.1717589021
 20
3.5295974316
 11
6.1717589021
 21
3.5209274336
  0
LINE
  5
33F
100
AcDbEntity
  8
03__ASM_ALL_CURVES
100
AcDbLine
 62
40
  6
CONTINUOUS
 10
6.1896407545
 20
3.4111074326
 11
6.1896407545
 21
3.4631274326
  0
LINE
  5
340
100
AcDbEntity
  8
03__ASM_ALL_CURVES
100
AcDbLine
 62
40
  6
CONTINUOUS
 10
6.1976338862
 20
5.0938674326
 11
6.1976338862
 21
5.1632274326
  0
LINE
  5
341
100
AcDbEntity
  8
03__ASM_ALL_CURVES
100
AcDbLine
 62
40
  6
CONTINUOUS
 10
6.2107739021
 20
3.5382674326
 11
6.2107739021
 21
3.4862474326
  0
LINE
  5
342
100
AcDbEntity
  8
03__ASM_ALL_CURVES
100
AcDbLine
 62
40
  6
CONTINUOUS
 10
6.2546657545
 20
3.4631274326
 11
6.2546657545
 21
3.4111074326
  0
LINE
  5
343
100
AcDbEntity
  8
03__ASM_ALL_CURVES
100
AcDbLine
 62
40
  6
CONTINUOUS
 10
6.0872264021
 20
3.5122574326
 11
6.0904776521
 21
3.5252624326
  0
LINE
  5
344
100
AcDbEntity
  8
0
100
AcDbLine
 62
7
  6
CONTINUOUS
 10
5.939753887
 20
3.8212674326
 11
5.923753887
 21
3.8052674326
  0
LINE
  5
345
100
AcDbEntity
  8
0
100
AcDbLine
 62
7
  6
CONTINUOUS
 10
5.940753887
 20
4.6632674326
 11
6.032753887
 21
4.6632674326
  0
LINE
  5
346
100
AcDbEntity
  8
0
100
AcDbLine
 62
7
  6
CONTINUOUS
 10
6.435253887
 20
4.6932674326
 11
6.485253887
 21
4.6932674326
  0
LINE
  5
347
100
AcDbEntity
  8
0
100
AcDbLine
 62
7
  6
CONTINUOUS
 10
6.555253887
 20
4.6932674326
 11
6.605253887
 21
4.6932674326
  0
LINE
  5
348
100
AcDbEntity
  8
0
100
AcDbLine
 62
7
  6
CONTINUOUS
 10
6.377753887
 20
4.6935174326
 11
6.435253887
 21
4.6935174326
  0
LINE
  5
349
100
AcDbEntity
  8
0
100
AcDbLine
 62
7
  6
CONTINUOUS
 10
6.632753887
 20
4.6935174326
 11
6.674753887
 21
4.6935174326
  0
LINE
  5
34A
100
AcDbEntity
  8
THREAD
100
AcDbLine
 62
7
  6
CONTINUOUS
 10
5.923753887
 20
4.7092674326
 11
5.627753887
 21
4.7092674326
  0
LINE
  5
34B
100
AcDbEntity
  8
THREAD
100
AcDbLine
 62
7
  6
CONTINUOUS
 10
5.2455370086
 20
4.7152674326
 11
5.231753887
 21
4.7152674326
  0
LINE
  5
34C
100
AcDbEntity
  8
03__ASM_ALL_CURVES
100
AcDbLine
 62
40
  6
CONTINUOUS
 10
5.2395988862
 20
5.0938674326
 11
5.2309288862
 21
5.0996474328
  0
LINE
  5
34D
100
AcDbEntity
  8
03__ASM_ALL_CURVES
100
AcDbLine
 62
40
  6
CONTINUOUS
 10
5.3089588862
 20
5.0938674326
 11
5.3002888862
 21
5.0996474328
  0
LINE
  5
34E
100
AcDbEntity
  8
03__ASM_ALL_CURVES
100
AcDbLine
 62
40
  6
CONTINUOUS
 10
5.2482688862
 20
5.1632274326
 11
5.2569388862
 21
5.157447434
  0
LINE
  5
34F
100
AcDbEntity
  8
03__ASM_ALL_CURVES
100
AcDbLine
 62
40
  6
CONTINUOUS
 10
5.3176288862
 20
5.1632274326
 11
5.3262988862
 21
5.157447434
  0
LINE
  5
350
100
AcDbEntity
  8
0
100
AcDbLine
 62
7
  6
CONTINUOUS
 10
5.939753887
 20
4.6932674326
 11
5.923753887
 21
4.7092674326
  0
LINE
  5
351
100
AcDbEntity
  8
0
100
AcDbLine
 62
7
  6
CONTINUOUS
 10
6.032753887
 20
4.6632674326
 11
6.064753887
 21
4.6312674326
  0
LINE
  5
352
100
AcDbEntity
  8
03__ASM_ALL_CURVES
100
AcDbLine
 62
40
  6
CONTINUOUS
 10
5.6470888862
 20
5.0996474328
 11
5.6384188862
 21
5.1112074326
  0
LINE
  5
353
100
AcDbEntity
  8
03__ASM_ALL_CURVES
100
AcDbLine
 62
40
  6
CONTINUOUS
 10
5.6730988862
 20
5.157447434
 11
5.6774338862
 21
5.1516674312
  0
LINE
  5
354
100
AcDbEntity
  8
03__ASM_ALL_CURVES
100
AcDbLine
 62
40
  6
CONTINUOUS
 10
5.9592088862
 20
5.1458874326
 11
5.9635438862
 21
5.1285474326
  0
LINE
  5
355
100
AcDbEntity
  8
03__ASM_ALL_CURVES
100
AcDbLine
 62
40
  6
CONTINUOUS
 10
6.2669938862
 20
5.0938674326
 11
6.2669938862
 21
5.1632274326
  0
LINE
  5
356
100
AcDbEntity
  8
03__ASM_ALL_CURVES
100
AcDbLine
 62
40
  6
CONTINUOUS
 10
6.2757989021
 20
3.5295974316
 11
6.2757989021
 21
3.5209274336
  0
LINE
  5
357
100
AcDbEntity
  8
03__ASM_ALL_CURVES
100
AcDbLine
 62
40
  6
CONTINUOUS
 10
6.3016738862
 20
5.1516674312
 11
6.3016738862
 21
5.140107434
  0
LINE
  5
358
100
AcDbEntity
  8
0
100
AcDbLine
 62
7
  6
CONTINUOUS
 10
6.377753887
 20
4.6935174326
 11
6.377753887
 21
3.8210174326
  0
LINE
  5
359
100
AcDbEntity
  8
03__ASM_ALL_CURVES
100
AcDbLine
 62
40
  6
CONTINUOUS
 10
6.1262414021
 20
3.5122574326
 11
6.1229901521
 21
3.4992524326
  0
LINE
  5
35A
100
AcDbEntity
  8
0
100
AcDbLine
 62
7
  6
CONTINUOUS
 10
6.032753887
 20
3.8512674326
 11
6.064753887
 21
3.8832674326
  0
LINE
  5
35B
100
AcDbEntity
  8
THREAD
100
AcDbLine
 62
7
  6
CONTINUOUS
 10
5.583753887
 20
4.7532674326
 11
5.2746931972
 21
4.7532674326
  0
LINE
  5
35C
100
AcDbEntity
  8
0
100
AcDbLine
 62
7
  6
CONTINUOUS
 10
5.181753887
 20
4.7692674326
 11
5.231753887
 21
4.7692674326
  0
LINE
  5
35D
100
AcDbEntity
  8
THREAD
100
AcDbLine
 62
7
  6
CONTINUOUS
 10
5.111753887
 20
4.7717674326
 11
5.0886102934
 21
4.7717674326
  0
LINE
  5
35E
100
AcDbEntity
  8
0
100
AcDbLine
 62
7
  6
CONTINUOUS
 10
5.061753887
 20
4.7952674326
 11
4.876753887
 21
4.7952674326
  0
LINE
  5
35F
100
AcDbEntity
  8
03__ASM_ALL_CURVES
100
AcDbLine
 62
40
  6
CONTINUOUS
 10
4.447113887
 20
5.0591874326
 11
4.377753887
 21
5.0707474326
  0
LINE
  5
360
100
AcDbEntity
  8
03__ASM_ALL_CURVES
100
AcDbLine
 62
40
  6
CONTINUOUS
 10
6.9660101372
 20
4.1936874326
 11
6.9595076372
 21
4.1980224327
  0
LINE
  5
361
100
AcDbEntity
  8
03__ASM_ALL_CURVES
100
AcDbLine
 62
40
  6
CONTINUOUS
 10
5.7858088862
 20
5.0996474328
 11
5.7771388862
 21
5.1112074326
  0
LINE
  5
362
100
AcDbEntity
  8
03__ASM_ALL_CURVES
100
AcDbLine
 62
40
  6
CONTINUOUS
 10
5.7814738862
 20
5.1458874326
 11
5.7858088862
 21
5.140107434
  0
LINE
  5
363
100
AcDbEntity
  8
03__ASM_ALL_CURVES
100
AcDbLine
 62
40
  6
CONTINUOUS
 10
5.8118188862
 20
5.1227674319
 11
5.8161538862
 21
5.1169874333
  0
LINE
  5
364
100
AcDbEntity
  8
03__ASM_ALL_CURVES
100
AcDbLine
 62
40
  6
CONTINUOUS
 10
5.8161538862
 20
5.1516674312
 11
5.8118188862
 21
5.157447434
  0
LINE
  5
365
100
AcDbEntity
  8
03__ASM_ALL_CURVES
100
AcDbLine
 62
40
  6
CONTINUOUS
 10
6.1629538862
 20
5.1458874326
 11
6.1672888862
 21
5.1285474326
  0
LINE
  5
366
100
AcDbEntity
  8
0
100
AcDbLine
 62
7
  6
CONTINUOUS
 10
6.435253887
 20
4.6935174326
 11
6.435253887
 21
3.8210174326
  0
LINE
  5
367
100
AcDbEntity
  8
0
100
AcDbLine
 62
7
  6
CONTINUOUS
 10
6.485253887
 20
3.8212680955
 11
6.485253887
 21
4.6932667697
  0
LINE
  5
368
100
AcDbEntity
  8
03__ASM_ALL_CURVES
100
AcDbLine
 62
40
  6
CONTINUOUS
 10
6.2530401521
 20
3.4992524326
 11
6.2497889021
 21
3.4862474326
  0
LINE
  5
369
100
AcDbEntity
  8
03__ASM_ALL_CURVES
100
AcDbLine
 62
40
  6
CONTINUOUS
 10
6.0677189021
 20
3.5209274336
 11
6.0644676521
 21
3.5165924316
  0
LINE
  5
36A
100
AcDbEntity
  8
03__ASM_ALL_CURVES
100
AcDbLine
 62
40
  6
CONTINUOUS
 10
6.0904776521
 20
3.5252624326
 11
6.0969801521
 21
3.5339324336
  0
LINE
  5
36B
100
AcDbEntity
  8
03__ASM_ALL_CURVES
100
AcDbLine
 62
40
  6
CONTINUOUS
 10
6.9725126374
 20
4.2991724316
 11
6.9660101374
 21
4.2948374326
  0
LINE
  5
36C
100
AcDbEntity
  8
03__ASM_ALL_CURVES
100
AcDbLine
 62
40
  6
CONTINUOUS
 10
7.0050251374
 20
4.3165124336
 11
7.0115276374
 21
4.3208474326
  0
LINE
  5
36D
100
AcDbEntity
  8
03__ASM_ALL_CURVES
100
AcDbLine
 62
40
  6
CONTINUOUS
 10
6.9595076372
 20
4.2413724336
 11
6.9660101372
 21
4.2457074326
  0
LINE
  5
36E
100
AcDbEntity
  8
03__ASM_ALL_CURVES
100
AcDbLine
 62
40
  6
CONTINUOUS
 10
7.0245326374
 20
4.2731624327
 11
7.0180301374
 21
4.2688274326
  0
LINE
  5
36F
100
AcDbEntity
  8
0
100
AcDbLine
 62
7
  6
CONTINUOUS
 10
4.8213282611
 20
4.8906527421
 11
4.4233645582
 21
4.8906527421
  0
LINE
  5
370
100
AcDbEntity
  8
0
100
AcDbLine
 62
7
  6
CONTINUOUS
 10
4.8213282611
 20
4.8912674326
 11
4.4233645582
 21
4.8912674326
  0
LINE
  5
371
100
AcDbEntity
  8
03__ASM_ALL_CURVES
100
AcDbLine
 62
40
  6
CONTINUOUS
 10
4.447113887
 20
5.0649674326
 11
4.377753887
 21
5.0707474326
  0
LINE
  5
372
100
AcDbEntity
  8
03__ASM_ALL_CURVES
100
AcDbLine
 62
40
  6
CONTINUOUS
 10
4.447113887
 20
5.0630407659
 11
4.377753887
 21
5.0707474326
  0
LINE
  5
373
100
AcDbEntity
  8
03__ASM_ALL_CURVES
100
AcDbLine
 62
40
  6
CONTINUOUS
 10
4.447113887
 20
5.0611140993
 11
4.377753887
 21
5.0707474326
  0
LINE
  5
374
100
AcDbEntity
  8
03__ASM_ALL_CURVES
100
AcDbLine
 62
40
  6
CONTINUOUS
 10
4.995393887
 20
5.0803807659
 11
5.134113887
 21
5.0611140993
  0
LINE
  5
375
100
AcDbEntity
  8
03__ASM_ALL_CURVES
100
AcDbLine
 62
40
  6
CONTINUOUS
 10
5.134113887
 20
5.0591874326
 11
4.995393887
 21
5.0823074326
  0
LINE
  5
376
100
AcDbEntity
  8
03__ASM_ALL_CURVES
100
AcDbLine
 62
40
  6
CONTINUOUS
 10
5.6557588862
 20
5.0938674326
 11
5.6470888862
 21
5.0996474328
  0
LINE
  5
377
100
AcDbEntity
  8
03__ASM_ALL_CURVES
100
AcDbLine
 62
40
  6
CONTINUOUS
 10
7.0180301372
 20
4.1936874326
 11
7.0115276372
 21
4.1980224327
  0
LINE
  5
378
100
AcDbEntity
  8
03__ASM_ALL_CURVES
100
AcDbLine
 62
40
  6
CONTINUOUS
 10
6.9725126372
 20
4.2457074326
 11
6.9790151372
 21
4.2413724336
  0
LINE
  5
379
100
AcDbEntity
  8
03__ASM_ALL_CURVES
100
AcDbLine
 62
40
  6
CONTINUOUS
 10
5.6644288862
 20
5.1632274326
 11
5.6730988862
 21
5.157447434
  0
LINE
  5
37A
100
AcDbEntity
  8
03__ASM_ALL_CURVES
100
AcDbLine
 62
40
  6
CONTINUOUS
 10
7.0115276374
 20
4.2688274326
 11
7.0050251374
 21
4.2731624327
  0
LINE
  5
37B
100
AcDbEntity
  8
03__ASM_ALL_CURVES
100
AcDbLine
 62
40
  6
CONTINUOUS
 10
5.7944788862
 20
5.0938674326
 11
5.7858088862
 21
5.0996474328
  0
LINE
  5
37C
100
AcDbEntity
  8
03__ASM_ALL_CURVES
100
AcDbLine
 62
40
  6
CONTINUOUS
 10
6.9660101374
 20
4.3208474326
 11
6.9725126374
 21
4.3165124336
  0
LINE
  5
37D
100
AcDbEntity
  8
03__ASM_ALL_CURVES
100
AcDbLine
 62
40
  6
CONTINUOUS
 10
5.9245288862
 20
5.0996474328
 11
5.9158588862
 21
5.1112074326
  0
LINE
  5
37E
100
AcDbEntity
  8
03__ASM_ALL_CURVES
100
AcDbLine
 62
40
  6
CONTINUOUS
 10
5.9938888862
 20
5.0996474328
 11
5.9895538862
 21
5.1054274329
  0
LINE
  5
37F
100
AcDbEntity
  8
03__ASM_ALL_CURVES
100
AcDbLine
 62
40
  6
CONTINUOUS
 10
5.9505388862
 20
5.157447434
 11
5.9592088862
 21
5.1458874326
  0
LINE
  5
380
100
AcDbEntity
  8
0
100
AcDbLine
 62
7
  6
CONTINUOUS
 10
6.555253887
 20
3.8212680955
 11
6.555253887
 21
4.6932667697
  0
LINE
  5
381
100
AcDbEntity
  8
03__ASM_ALL_CURVES
100
AcDbLine
 62
40
  6
CONTINUOUS
 10
6.1229901521
 20
3.4992524326
 11
6.1164876521
 21
3.4905824327
  0
LINE
  5
382
100
AcDbEntity
  8
03__ASM_ALL_CURVES
100
AcDbLine
 62
40
  6
CONTINUOUS
 10
6.1717589021
 20
3.5209274336
 11
6.1685076521
 21
3.5165924316
  0
LINE
  5
383
100
AcDbEntity
  8
03__ASM_ALL_CURVES
100
AcDbLine
 62
40
  6
CONTINUOUS
 10
7.0765526374
 20
4.2991724316
 11
7.0700501374
 21
4.2948374326
  0
LINE
  5
384
100
AcDbEntity
  8
03__ASM_ALL_CURVES
100
AcDbLine
 62
40
  6
CONTINUOUS
 10
6.9790151372
 20
4.1980224327
 11
6.9725126372
 21
4.1936874326
  0
LINE
  5
385
100
AcDbEntity
  8
03__ASM_ALL_CURVES
100
AcDbLine
 62
40
  6
CONTINUOUS
 10
7.0310351372
 20
4.1980224327
 11
7.0245326372
 21
4.1936874326
  0
LINE
  5
386
100
AcDbEntity
  8
03__ASM_ALL_CURVES
100
AcDbLine
 62
40
  6
CONTINUOUS
 10
6.0644676521
 20
3.5165924316
 11
6.0579651521
 21
3.5122574326
  0
LINE
  5
387
100
AcDbEntity
  8
03__ASM_ALL_CURVES
100
AcDbLine
 62
40
  6
CONTINUOUS
 10
6.0969801521
 20
3.5339324336
 11
6.1034826521
 21
3.5382674326
  0
LINE
  5
388
100
AcDbEntity
  8
03__ASM_ALL_CURVES
100
AcDbLine
 62
40
  6
CONTINUOUS
 10
4.377753887
 20
5.0707474326
 11
6.382593887
 21
5.0707474326
  0
LINE
  5
389
100
AcDbEntity
  8
03__ASM_ALL_CURVES
100
AcDbLine
 62
40
  6
CONTINUOUS
 10
4.447113887
 20
5.0688207659
 11
4.377753887
 21
5.0707474326
  0
LINE
  5
38A
100
AcDbEntity
  8
03__ASM_ALL_CURVES
100
AcDbLine
 62
40
  6
CONTINUOUS
 10
4.995393887
 20
5.0726740993
 11
5.134113887
 21
5.0688207659
  0
LINE
  5
38B
100
AcDbEntity
  8
03__ASM_ALL_CURVES
100
AcDbLine
 62
40
  6
CONTINUOUS
 10
4.447113887
 20
5.0668940993
 11
4.377753887
 21
5.0707474326
  0
LINE
  5
38C
100
AcDbEntity
  8
03__ASM_ALL_CURVES
100
AcDbLine
 62
40
  6
CONTINUOUS
 10
4.995393887
 20
5.0746007659
 11
5.134113887
 21
5.0668940993
  0
LINE
  5
38D
100
AcDbEntity
  8
03__ASM_ALL_CURVES
100
AcDbLine
 62
40
  6
CONTINUOUS
 10
4.995393887
 20
5.0765274326
 11
5.134113887
 21
5.0649674326
  0
LINE
  5
38E
100
AcDbEntity
  8
03__ASM_ALL_CURVES
100
AcDbLine
 62
40
  6
CONTINUOUS
 10
4.995393887
 20
5.0784540993
 11
5.134113887
 21
5.0630407659
  0
LINE
  5
38F
100
AcDbEntity
  8
03__ASM_ALL_CURVES
100
AcDbLine
 62
40
  6
CONTINUOUS
 10
5.7858088862
 20
5.140107434
 11
5.8118188862
 21
5.1227674319
  0
LINE
  5
390
100
AcDbEntity
  8
03__ASM_ALL_CURVES
100
AcDbLine
 62
40
  6
CONTINUOUS
 10
7.0180301374
 20
4.3208474326
 11
7.0245326374
 21
4.3165124336
  0
LINE
  5
391
100
AcDbEntity
  8
03__ASM_ALL_CURVES
100
AcDbLine
 62
40
  6
CONTINUOUS
 10
5.8118188862
 20
5.157447434
 11
5.8031488862
 21
5.1632274326
  0
LINE
  5
392
100
AcDbEntity
  8
03__ASM_ALL_CURVES
100
AcDbLine
 62
40
  6
CONTINUOUS
 10
7.0700501374
 20
4.3208474326
 11
7.0765526374
 21
4.3165124336
  0
LINE
  5
393
100
AcDbEntity
  8
03__ASM_ALL_CURVES
100
AcDbLine
 62
40
  6
CONTINUOUS
 10
5.9331988862
 20
5.0938674326
 11
5.9245288862
 21
5.0996474328
  0
LINE
  5
394
100
AcDbEntity
  8
03__ASM_ALL_CURVES
100
AcDbLine
 62
40
  6
CONTINUOUS
 10
6.0025588862
 20
5.0938674326
 11
5.9938888862
 21
5.0996474328
  0
LINE
  5
395
100
AcDbEntity
  8
03__ASM_ALL_CURVES
100
AcDbLine
 62
40
  6
CONTINUOUS
 10
6.2886688862
 20
5.1285474326
 11
6.3016738862
 21
5.0938674326
  0
LINE
  5
396
100
AcDbEntity
  8
0
100
AcDbLine
 62
7
  6
CONTINUOUS
 10
6.605253887
 20
3.8212680955
 11
6.605253887
 21
4.6932667697
  0
LINE
  5
397
100
AcDbEntity
  8
0
100
AcDbLine
 62
7
  6
CONTINUOUS
 10
6.632753887
 20
4.6935174326
 11
6.632753887
 21
3.8210174326
  0
LINE
  5
398
100
AcDbEntity
  8
0
100
AcDbLine
 62
7
  6
CONTINUOUS
 10
6.674753887
 20
3.8210174326
 11
6.674753887
 21
4.6935174326
  0
LINE
  5
399
100
AcDbEntity
  8
0
100
AcDbLine
 62
7
  6
CONTINUOUS
 10
6.689753887
 20
3.8360174326
 11
6.689753887
 21
4.6785174326
  0
LINE
  5
39A
100
AcDbEntity
  8
03__ASM_ALL_CURVES
100
AcDbLine
 62
40
  6
CONTINUOUS
 10
6.2497889021
 20
3.5295974316
 11
6.2530401521
 21
3.5339324336
  0
LINE
  5
39B
100
AcDbEntity
  8
03__ASM_ALL_CURVES
100
AcDbLine
 62
40
  6
CONTINUOUS
 10
6.2595426521
 20
3.5079224321
 11
6.2530401521
 21
3.4992524326
  0
LINE
  5
39C
100
AcDbEntity
  8
03__ASM_ALL_CURVES
100
AcDbLine
 62
40
  6
CONTINUOUS
 10
6.2757989021
 20
3.5209274336
 11
6.2725476521
 21
3.5165924316
  0
LINE
  5
39D
100
AcDbEntity
  8
03__ASM_ALL_CURVES
100
AcDbLine
 62
40
  6
CONTINUOUS
 10
6.1164876521
 20
3.4905824327
 11
6.1099851521
 21
3.4862474326
  0
LINE
  5
39E
100
AcDbEntity
  8
03__ASM_ALL_CURVES
100
AcDbLine
 62
40
  6
CONTINUOUS
 10
6.1685076521
 20
3.5165924316
 11
6.1620051521
 21
3.5122574326
  0
LINE
  5
39F
100
AcDbEntity
  8
03__ASM_ALL_CURVES
100
AcDbLine
 62
40
  6
CONTINUOUS
 10
6.2530401521
 20
3.5339324336
 11
6.2595426521
 21
3.5382674326
  0
LINE
  5
3A0
100
AcDbEntity
  8
03__ASM_ALL_CURVES
100
AcDbLine
 62
40
  6
CONTINUOUS
 10
6.2725476521
 20
3.5165924316
 11
6.2595426521
 21
3.5079224321
  0
LINE
  5
3A1
100
AcDbEntity
  8
03__ASM_ALL_CURVES
100
AcDbLine
 62
40
  6
CONTINUOUS
 10
4.995393887
 20
5.0591874326
 11
5.134113887
 21
5.0823074326
  0
LINE
  5
3A2
100
AcDbEntity
  8
03__ASM_ALL_CURVES
100
AcDbLine
 62
40
  6
CONTINUOUS
 10
4.995393887
 20
5.0611140993
 11
5.134113887
 21
5.0803807659
  0
LINE
  5
3A3
100
AcDbEntity
  8
03__ASM_ALL_CURVES
100
AcDbLine
 62
40
  6
CONTINUOUS
 10
4.995393887
 20
5.0630407659
 11
5.134113887
 21
5.0784540993
  0
LINE
  5
3A4
100
AcDbEntity
  8
03__ASM_ALL_CURVES
100
AcDbLine
 62
40
  6
CONTINUOUS
 10
4.995393887
 20
5.0649674326
 11
5.134113887
 21
5.0765274326
  0
LINE
  5
3A5
100
AcDbEntity
  8
03__ASM_ALL_CURVES
100
AcDbLine
 62
40
  6
CONTINUOUS
 10
4.447113887
 20
5.0765274326
 11
4.377753887
 21
5.0707474326
  0
LINE
  5
3A6
100
AcDbEntity
  8
03__ASM_ALL_CURVES
100
AcDbLine
 62
40
  6
CONTINUOUS
 10
4.995393887
 20
5.0668940993
 11
5.134113887
 21
5.0746007659
  0
LINE
  5
3A7
100
AcDbEntity
  8
03__ASM_ALL_CURVES
100
AcDbLine
 62
40
  6
CONTINUOUS
 10
4.447113887
 20
5.0746007659
 11
4.377753887
 21
5.0707474326
  0
LINE
  5
3A8
100
AcDbEntity
  8
03__ASM_ALL_CURVES
100
AcDbLine
 62
40
  6
CONTINUOUS
 10
4.995393887
 20
5.0688207659
 11
5.134113887
 21
5.0726740993
  0
LINE
  5
3A9
100
AcDbEntity
  8
03__ASM_ALL_CURVES
100
AcDbLine
 62
40
  6
CONTINUOUS
 10
4.447113887
 20
5.0726740993
 11
4.377753887
 21
5.0707474326
  0
LINE
  5
3AA
100
AcDbEntity
  8
03__ASM_ALL_CURVES
100
AcDbLine
 62
40
  6
CONTINUOUS
 10
6.2323138862
 20
5.0938674326
 11
6.1976338862
 21
5.0938674326
  0
LINE
  5
3AB
100
AcDbEntity
  8
03__ASM_ALL_CURVES
100
AcDbLine
 62
40
  6
CONTINUOUS
 10
6.1456138862
 20
5.0938674326
 11
6.1282738862
 21
5.0938674326
  0
LINE
  5
3AC
100
AcDbEntity
  8
03__ASM_ALL_CURVES
100
AcDbLine
 62
40
  6
CONTINUOUS
 10
6.0112288862
 20
5.0938674326
 11
6.0025588862
 21
5.0938674326
  0
LINE
  5
3AD
100
AcDbEntity
  8
03__ASM_ALL_CURVES
100
AcDbLine
 62
40
  6
CONTINUOUS
 10
5.9418688862
 20
5.0938674326
 11
5.9331988862
 21
5.0938674326
  0
LINE
  5
3AE
100
AcDbEntity
  8
03__ASM_ALL_CURVES
100
AcDbLine
 62
40
  6
CONTINUOUS
 10
5.8031488862
 20
5.0938674326
 11
5.7944788862
 21
5.0938674326
  0
LINE
  5
3AF
100
AcDbEntity
  8
03__ASM_ALL_CURVES
100
AcDbLine
 62
40
  6
CONTINUOUS
 10
5.6644288862
 20
5.0938674326
 11
5.6557588862
 21
5.0938674326
  0
LINE
  5
3B0
100
AcDbEntity
  8
03__ASM_ALL_CURVES
100
AcDbLine
 62
40
  6
CONTINUOUS
 10
5.3176288862
 20
5.0938674326
 11
5.3089588862
 21
5.0938674326
  0
LINE
  5
3B1
100
AcDbEntity
  8
03__ASM_ALL_CURVES
100
AcDbLine
 62
40
  6
CONTINUOUS
 10
5.2482688862
 20
5.0938674326
 11
5.2395988862
 21
5.0938674326
  0
LINE
  5
3B2
100
AcDbEntity
  8
03__ASM_ALL_CURVES
100
AcDbLine
 62
40
  6
CONTINUOUS
 10
4.859973887
 20
5.0938674326
 11
4.855638887
 21
5.0938674326
  0
LINE
  5
3B3
100
AcDbEntity
  8
03__ASM_ALL_CURVES
100
AcDbLine
 62
40
  6
CONTINUOUS
 10
4.586868887
 20
5.0938674326
 11
4.578198887
 21
5.0938674326
  0
LINE
  5
3B4
100
AcDbEntity
  8
03__ASM_ALL_CURVES
100
AcDbLine
 62
40
  6
CONTINUOUS
 10
4.443813887
 20
5.0938674326
 11
4.439478887
 21
5.0938674326
  0
LINE
  5
3B5
100
AcDbEntity
  8
03__ASM_ALL_CURVES
100
AcDbLine
 62
40
  6
CONTINUOUS
 10
4.911993887
 20
5.0938674326
 11
4.946673887
 21
5.0938674326
  0
LINE
  5
3B6
100
AcDbEntity
  8
03__ASM_ALL_CURVES
100
AcDbLine
 62
40
  6
CONTINUOUS
 10
5.1572338862
 20
5.0938674326
 11
5.1919138862
 21
5.0938674326
  0
LINE
  5
3B7
100
AcDbEntity
  8
03__ASM_ALL_CURVES
100
AcDbLine
 62
40
  6
CONTINUOUS
 10
6.0589138862
 20
5.0938674326
 11
6.0935938862
 21
5.0938674326
  0
LINE
  5
3B8
100
AcDbEntity
  8
03__ASM_ALL_CURVES
100
AcDbLine
 62
40
  6
CONTINUOUS
 10
5.3696488862
 20
5.1169874333
 11
5.3956588862
 21
5.1169874333
  0
LINE
  5
3B9
100
AcDbEntity
  8
03__ASM_ALL_CURVES
100
AcDbLine
 62
40
  6
CONTINUOUS
 10
6.2886688862
 20
5.1285474326
 11
6.2669938862
 21
5.1285474326
  0
LINE
  5
3BA
100
AcDbEntity
  8
03__ASM_ALL_CURVES
100
AcDbLine
 62
40
  6
CONTINUOUS
 10
5.6600938862
 20
5.1285474326
 11
5.6774338862
 21
5.1285474326
  0
LINE
  5
3BB
100
AcDbEntity
  8
03__ASM_ALL_CURVES
100
AcDbLine
 62
40
  6
CONTINUOUS
 10
5.8508338862
 20
5.1285474326
 11
5.8855138862
 21
5.1285474326
  0
LINE
  5
3BC
100
AcDbEntity
  8
03__ASM_ALL_CURVES
100
AcDbLine
 62
40
  6
CONTINUOUS
 10
6.1976338862
 20
5.1285474326
 11
6.2193088862
 21
5.1285474326
  0
LINE
  5
3BD
100
AcDbEntity
  8
03__ASM_ALL_CURVES
100
AcDbLine
 62
40
  6
CONTINUOUS
 10
4.578198887
 20
5.1343274312
 11
4.586868887
 21
5.1343274312
  0
LINE
  5
3BE
100
AcDbEntity
  8
03__ASM_ALL_CURVES
100
AcDbLine
 62
40
  6
CONTINUOUS
 10
5.8031488862
 20
5.1632274326
 11
5.7944788862
 21
5.1632274326
  0
LINE
  5
3BF
100
AcDbEntity
  8
03__ASM_ALL_CURVES
100
AcDbLine
 62
40
  6
CONTINUOUS
 10
5.016033887
 20
5.1632274326
 11
4.981353887
 21
5.1632274326
  0
LINE
  5
3C0
100
AcDbEntity
  8
03__ASM_ALL_CURVES
100
AcDbLine
 62
40
  6
CONTINUOUS
 10
4.807953887
 20
5.1632274326
 11
4.773273887
 21
5.1632274326
  0
LINE
  5
3C1
100
AcDbEntity
  8
03__ASM_ALL_CURVES
100
AcDbLine
 62
40
  6
CONTINUOUS
 10
4.578198887
 20
5.1632274326
 11
4.586868887
 21
5.1632274326
  0
LINE
  5
3C2
100
AcDbEntity
  8
03__ASM_ALL_CURVES
100
AcDbLine
 62
40
  6
CONTINUOUS
 10
4.924998887
 20
5.1632274326
 11
4.933668887
 21
5.1632274326
  0
LINE
  5
3C3
100
AcDbEntity
  8
03__ASM_ALL_CURVES
100
AcDbLine
 62
40
  6
CONTINUOUS
 10
5.2395988862
 20
5.1632274326
 11
5.2482688862
 21
5.1632274326
  0
LINE
  5
3C4
100
AcDbEntity
  8
03__ASM_ALL_CURVES
100
AcDbLine
 62
40
  6
CONTINUOUS
 10
5.3089588862
 20
5.1632274326
 11
5.3176288862
 21
5.1632274326
  0
LINE
  5
3C5
100
AcDbEntity
  8
03__ASM_ALL_CURVES
100
AcDbLine
 62
40
  6
CONTINUOUS
 10
5.4303388862
 20
5.1632274326
 11
5.4736888862
 21
5.1632274326
  0
LINE
  5
3C6
100
AcDbEntity
  8
03__ASM_ALL_CURVES
100
AcDbLine
 62
40
  6
CONTINUOUS
 10
5.6557588862
 20
5.1632274326
 11
5.6644288862
 21
5.1632274326
  0
LINE
  5
3C7
100
AcDbEntity
  8
03__ASM_ALL_CURVES
100
AcDbLine
 62
40
  6
CONTINUOUS
 10
5.9331988862
 20
5.1632274326
 11
5.9418688862
 21
5.1632274326
  0
LINE
  5
3C8
100
AcDbEntity
  8
03__ASM_ALL_CURVES
100
AcDbLine
 62
40
  6
CONTINUOUS
 10
6.1282738862
 20
5.1632274326
 11
6.1456138862
 21
5.1632274326
  0
LINE
  5
3C9
100
AcDbEntity
  8
03__ASM_ALL_CURVES
100
AcDbLine
 62
40
  6
CONTINUOUS
 10
6.1976338862
 20
5.1632274326
 11
6.2323138862
 21
5.1632274326
  0
LINE
  5
3CA
100
AcDbEntity
  8
03__ASM_ALL_CURVES
100
AcDbLine
 62
40
  6
CONTINUOUS
 10
6.2669938862
 20
5.1632274326
 11
6.2886688862
 21
5.1632274326
  0
LINE
  5
3CB
100
AcDbEntity
  8
03__ASM_ALL_CURVES
100
AcDbLine
 62
40
  6
CONTINUOUS
 10
5.9418688862
 20
5.1632274326
 11
5.9505388862
 21
5.157447434
  0
LINE
  5
3CC
100
AcDbEntity
  8
0
100
AcDbLine
 62
7
  6
CONTINUOUS
 10
6.674753887
 20
4.6935174326
 11
6.689753887
 21
4.6785174326
  0
LINE
  5
3CD
100
AcDbEntity
  8
03__ASM_ALL_CURVES
100
AcDbLine
 62
40
  6
CONTINUOUS
 10
6.1542838862
 20
5.157447434
 11
6.1629538862
 21
5.1458874326
  0
LINE
  5
3CE
100
AcDbEntity
  8
03__ASM_ALL_CURVES
100
AcDbLine
 62
40
  6
CONTINUOUS
 10
6.9595076372
 20
4.1980224327
 11
6.9530051372
 21
4.2066924326
  0
LINE
  5
3CF
100
AcDbEntity
  8
03__ASM_ALL_CURVES
100
AcDbLine
 62
40
  6
CONTINUOUS
 10
7.0115276372
 20
4.1980224327
 11
7.0082763872
 21
4.2023574329
  0
LINE
  5
3D0
100
AcDbEntity
  8
03__ASM_ALL_CURVES
100
AcDbLine
 62
40
  6
CONTINUOUS
 10
6.9790151372
 20
4.2413724336
 11
6.9855176372
 21
4.2327024326
  0
LINE
  5
3D1
100
AcDbEntity
  8
03__ASM_ALL_CURVES
100
AcDbLine
 62
40
  6
CONTINUOUS
 10
6.9757638874
 20
4.3035074336
 11
6.9725126374
 21
4.2991724316
  0
LINE
  5
3D2
100
AcDbEntity
  8
03__ASM_ALL_CURVES
100
AcDbLine
 62
40
  6
CONTINUOUS
 10
6.9985226374
 20
4.3078424326
 11
7.0050251374
 21
4.3165124336
  0
LINE
  5
3D3
100
AcDbEntity
  8
03__ASM_ALL_CURVES
100
AcDbLine
 62
40
  6
CONTINUOUS
 10
6.9530051372
 20
4.2327024326
 11
6.9595076372
 21
4.2413724336
  0
LINE
  5
3D4
100
AcDbEntity
  8
03__ASM_ALL_CURVES
100
AcDbLine
 62
40
  6
CONTINUOUS
 10
7.0310351374
 20
4.2818324326
 11
7.0245326374
 21
4.2731624327
  0
LINE
  5
3D5
100
AcDbEntity
  8
03__ASM_ALL_CURVES
100
AcDbLine
 62
40
  6
CONTINUOUS
 10
6.9855176372
 20
4.2066924326
 11
6.9790151372
 21
4.1980224327
  0
LINE
  5
3D6
100
AcDbEntity
  8
03__ASM_ALL_CURVES
100
AcDbLine
 62
40
  6
CONTINUOUS
 10
7.0798038874
 20
4.3035074336
 11
7.0765526374
 21
4.2991724316
  0
LINE
  5
3D7
100
AcDbEntity
  8
0
100
AcDbLine
 62
7
  6
CONTINUOUS
 10
6.674753887
 20
3.8210174326
 11
6.689753887
 21
3.8360174326
  0
LINE
  5
3D8
100
AcDbEntity
  8
03__ASM_ALL_CURVES
100
AcDbLine
 62
40
  6
CONTINUOUS
 10
4.377753887
 20
5.0707474326
 11
4.447113887
 21
5.0823074326
  0
LINE
  5
3D9
100
AcDbEntity
  8
03__ASM_ALL_CURVES
100
AcDbLine
 62
40
  6
CONTINUOUS
 10
4.447113887
 20
5.0803807659
 11
4.377753887
 21
5.0707474326
  0
LINE
  5
3DA
100
AcDbEntity
  8
03__ASM_ALL_CURVES
100
AcDbLine
 62
40
  6
CONTINUOUS
 10
4.447113887
 20
5.0784540993
 11
4.377753887
 21
5.0707474326
  0
LINE
  5
3DB
100
AcDbEntity
  8
03__ASM_ALL_CURVES
100
AcDbLine
 62
40
  6
CONTINUOUS
 10
6.1456138862
 20
5.1632274326
 11
6.1542838862
 21
5.157447434
  0
LINE
  5
3DC
100
AcDbEntity
  8
03__ASM_ALL_CURVES
100
AcDbLine
 62
40
  6
CONTINUOUS
 10
6.2886688862
 20
5.1632274326
 11
6.2973388862
 21
5.157447434
  0
LINE
  5
3DD
100
AcDbEntity
  8
03__ASM_ALL_CURVES
100
AcDbLine
 62
40
  6
CONTINUOUS
 10
6.2973388862
 20
5.157447434
 11
6.3016738862
 21
5.1516674312
  0
LINE
  5
3DE
100
AcDbEntity
  8
03__ASM_ALL_CURVES
100
AcDbLine
 62
40
  6
CONTINUOUS
 10
7.0050251374
 20
4.2731624327
 11
6.9985226374
 21
4.2818324326
  0
LINE
  5
3DF
100
AcDbEntity
  8
03__ASM_ALL_CURVES
100
AcDbLine
 62
40
  6
CONTINUOUS
 10
6.9725126374
 20
4.3165124336
 11
6.9757638874
 21
4.3121774316
  0
LINE
  5
3E0
100
AcDbEntity
  8
03__ASM_ALL_CURVES
100
AcDbLine
 62
40
  6
CONTINUOUS
 10
7.0245326374
 20
4.3165124336
 11
7.0310351374
 21
4.3078424326
  0
LINE
  5
3E1
100
AcDbEntity
  8
03__ASM_ALL_CURVES
100
AcDbLine
 62
40
  6
CONTINUOUS
 10
6.9497538872
 20
4.2196974326
 11
6.9530051372
 21
4.2327024326
  0
LINE
  5
3E2
100
AcDbEntity
  8
03__ASM_ALL_CURVES
100
AcDbLine
 62
40
  6
CONTINUOUS
 10
7.0342863872
 20
4.2023574329
 11
7.0310351372
 21
4.1980224327
  0
LINE
  5
3E3
100
AcDbEntity
  8
03__ASM_ALL_CURVES
100
AcDbLine
 62
40
  6
CONTINUOUS
 10
7.0765526374
 20
4.3165124336
 11
7.0798038874
 21
4.3121774316
  0
LINE
  5
3E4
100
AcDbEntity
  8
03__ASM_ALL_CURVES
100
AcDbLine
 62
40
  6
CONTINUOUS
 10
6.9530051372
 20
4.2066924326
 11
6.9497538872
 21
4.2196974326
  0
LINE
  5
3E5
100
AcDbEntity
  8
03__ASM_ALL_CURVES
100
AcDbLine
 62
40
  6
CONTINUOUS
 10
6.9855176372
 20
4.2327024326
 11
6.9887688872
 21
4.2196974326
  0
LINE
  5
3E6
100
AcDbEntity
  8
03__ASM_ALL_CURVES
100
AcDbLine
 62
40
  6
CONTINUOUS
 10
6.9497538874
 20
4.2688274326
 11
6.9497538874
 21
4.3208474326
  0
LINE
  5
3E7
100
AcDbEntity
  8
03__ASM_ALL_CURVES
100
AcDbLine
 62
40
  6
CONTINUOUS
 10
6.9757638874
 20
4.3121774316
 11
6.9757638874
 21
4.3035074336
  0
LINE
  5
3E8
100
AcDbEntity
  8
03__ASM_ALL_CURVES
100
AcDbLine
 62
40
  6
CONTINUOUS
 10
7.0082763872
 20
4.2023574329
 11
7.0082763872
 21
4.2457074326
  0
LINE
  5
3E9
100
AcDbEntity
  8
03__ASM_ALL_CURVES
100
AcDbLine
 62
40
  6
CONTINUOUS
 10
7.0342863872
 20
4.2457074326
 11
7.0342863872
 21
4.2023574329
  0
LINE
  5
3EA
100
AcDbEntity
  8
03__ASM_ALL_CURVES
100
AcDbLine
 62
40
  6
CONTINUOUS
 10
7.0537938874
 20
4.2688274326
 11
7.0537938874
 21
4.3208474326
  0
LINE
  5
3EB
100
AcDbEntity
  8
03__ASM_ALL_CURVES
100
AcDbLine
 62
40
  6
CONTINUOUS
 10
6.9952713874
 20
4.2948374326
 11
6.9985226374
 21
4.3078424326
  0
LINE
  5
3EC
100
AcDbEntity
  8
03__ASM_ALL_CURVES
100
AcDbLine
 62
40
  6
CONTINUOUS
 10
6.9887688872
 20
4.2196974326
 11
6.9855176372
 21
4.2066924326
  0
LINE
  5
3ED
100
AcDbEntity
  8
03__ASM_ALL_CURVES
100
AcDbLine
 62
40
  6
CONTINUOUS
 10
7.0342863874
 20
4.2948374326
 11
7.0310351374
 21
4.2818324326
  0
LINE
  5
3EE
100
AcDbEntity
  8
03__ASM_ALL_CURVES
100
AcDbLine
 62
40
  6
CONTINUOUS
 10
7.0700501374
 20
4.2948374326
 11
7.0798038874
 21
4.2688274326
  0
LINE
  5
3EF
100
AcDbEntity
  8
03__ASM_ALL_CURVES
100
AcDbLine
 62
40
  6
CONTINUOUS
 10
6.9985226374
 20
4.2818324326
 11
6.9952713874
 21
4.2948374326
  0
LINE
  5
3F0
100
AcDbEntity
  8
03__ASM_ALL_CURVES
100
AcDbLine
 62
40
  6
CONTINUOUS
 10
7.0310351374
 20
4.3078424326
 11
7.0342863874
 21
4.2948374326
  0
LINE
  5
3F1
100
AcDbEntity
  8
03__ASM_ALL_CURVES
100
AcDbLine
 62
40
  6
CONTINUOUS
 10
7.0733013872
 20
4.2457074326
 11
7.0733013872
 21
4.1936874326
  0
LINE
  5
3F2
100
AcDbEntity
  8
03__ASM_ALL_CURVES
100
AcDbLine
 62
40
  6
CONTINUOUS
 10
7.0798038874
 20
4.3121774316
 11
7.0798038874
 21
4.3035074336
  0
LINE
  5
3F3
100
AcDbEntity
  8
03__ASM_ALL_CURVES
100
AcDbLine
 62
40
  6
CONTINUOUS
 10
7.1123163872
 20
4.2457074326
 11
7.1123163872
 21
4.1936874326
  0
LINE
  5
3F4
100
AcDbEntity
  8
03__ASM_ALL_CURVES
100
AcDbLine
 62
40
  6
CONTINUOUS
 10
7.1188188874
 20
4.3208474326
 11
7.1188188874
 21
4.2688274326
  0
LINE
  5
3F5
100
AcDbEntity
  8
03__ASM_ALL_CURVES
100
AcDbLine
 62
40
  6
CONTINUOUS
 10
7.1643363872
 20
4.1936874326
 11
7.1643363872
 21
4.2457074326
  0
LINE
  5
3F6
100
AcDbEntity
  8
03__ASM_ALL_CURVES
100
AcDbLine
 62
40
  6
CONTINUOUS
 10
7.1708388874
 20
4.3208474326
 11
7.1708388874
 21
4.2688274326
  0
LINE
  5
3F7
100
AcDbEntity
  8
03__ASM_ALL_CURVES
100
AcDbLine
 62
40
  6
CONTINUOUS
 10
7.2293613872
 20
4.2457074326
 11
7.2293613872
 21
4.1936874326
  0
ARC
  5
3F8
100
AcDbEntity
  8
THREAD
100
AcDbCircle
 62
7
  6
CONTINUOUS
 10
5.2455370086
 20
3.7867674326
 40
0.0125
100
AcDbArc
 50
29.9999999999
 51
90.0
  0
ARC
  5
3F9
100
AcDbEntity
  8
THREAD
100
AcDbCircle
 62
7
  6
CONTINUOUS
 10
5.2455370086
 20
4.7277674326
 40
0.0125
100
AcDbArc
 50
270.0
 51
330.000000004
  0
ARC
  5
3FA
100
AcDbEntity
  8
0
100
AcDbCircle
 62
7
  6
CONTINUOUS
 10
5.069753887
 20
3.7268806812
 40
0.005
100
AcDbArc
 50
120.0000000096
 51
179.9999999998
  0
ARC
  5
3FB
100
AcDbEntity
  8
0
100
AcDbCircle
 62
7
  6
CONTINUOUS
 10
5.069753887
 20
4.7876541839
 40
0.005
100
AcDbArc
 50
180.0000000002
 51
239.9999999876
  0
ARC
  5
3FC
100
AcDbEntity
  8
0
100
AcDbCircle
 62
7
  6
CONTINUOUS
 10
5.0886102934
 20
3.7377674326
 40
0.005
100
AcDbArc
 50
90.0
 51
120.0000000145
  0
ARC
  5
3FD
100
AcDbEntity
  8
0
100
AcDbCircle
 62
7
  6
CONTINUOUS
 10
5.0886102934
 20
4.7767674326
 40
0.005
100
AcDbArc
 50
239.9999999845
 51
270.0
  0
ARC
  5
3FE
100
AcDbEntity
  8
0
100
AcDbCircle
 62
7
  6
CONTINUOUS
 10
5.061753887
 20
3.7222674326
 40
0.003
100
AcDbArc
 50
270.0
 51
360.0
  0
ARC
  5
3FF
100
AcDbEntity
  8
0
100
AcDbCircle
 62
7
  6
CONTINUOUS
 10
5.061753887
 20
4.7922674326
 40
0.003
100
AcDbArc
 50
0.0
 51
90.0
  0
SPLINE
  5
400
100
AcDbEntity
  8
0
100
AcDbSpline
 62
7
  6
CONTINUOUS
 70
0
 71
3
 72
15
 73
11
 74
9
 42
0.0000001
 43
0.0000001
 44
0.0000000001
 12
0.0
 22
0.1099409465
 32
0.0
 13
0.0
 23
-0.1099409465
 33
0.0
 40
0.0
 40
0.0
 40
0.0
 40
0.0
 40
0.125
 40
0.25
 40
0.375
 40
0.5
 40
0.625
 40
0.75
 40
0.875
 40
1.0
 40
1.0
 40
1.0
 40
1.0
 10
6.555253887
 20
4.6742674326
 30
0.0
 10
6.555253887
 20
4.6788483054
 30
0.0
 10
6.5534315025
 20
4.6880100509
 30
0.0
 10
6.5456469345
 20
4.6996604802
 30
0.0
 10
6.5339965053
 20
4.7074450481
 30
0.0
 10
6.520253887
 20
4.7101786248
 30
0.0
 10
6.5065112687
 20
4.7074450481
 30
0.0
 10
6.4948608394
 20
4.6996604802
 30
0.0
 10
6.4870762715
 20
4.6880100509
 30
0.0
 10
6.485253887
 20
4.6788483054
 30
0.0
 10
6.485253887
 20
4.6742674326
 30
0.0
 11
6.555253887
 21
4.6742674326
 31
0.0
 11
6.5525896706
 21
4.6876613527
 31
0.0
 11
6.5450026243
 21
4.6990161699
 31
0.0
 11
6.5336478071
 21
4.7066032162
 31
0.0
 11
6.520253887
 21
4.7092674326
 31
0.0
 11
6.5068599668
 21
4.7066032162
 31
0.0
 11
6.4955051496
 21
4.6990161699
 31
0.0
 11
6.4879181033
 21
4.6876613527
 31
0.0
 11
6.485253887
 21
4.6742674326
 31
0.0
  0
SPLINE
  5
401
100
AcDbEntity
  8
0
100
AcDbSpline
 62
7
  6
CONTINUOUS
 70
0
 71
3
 72
15
 73
11
 74
9
 42
0.0000001
 43
0.0000001
 44
0.0000000001
 12
0.0
 22
-0.1099409465
 32
0.0
 13
0.0
 23
0.1099409465
 33
0.0
 40
0.0
 40
0.0
 40
0.0
 40
0.0
 40
0.125
 40
0.25
 40
0.375
 40
0.5
 40
0.625
 40
0.75
 40
0.875
 40
1.0
 40
1.0
 40
1.0
 40
1.0
 10
6.555253887
 20
3.8402674326
 30
0.0
 10
6.555253887
 20
3.8356865598
 30
0.0
 10
6.5534315025
 20
3.8265248143
 30
0.0
 10
6.5456469345
 20
3.814874385
 30
0.0
 10
6.5339965053
 20
3.8070898171
 30
0.0
 10
6.520253887
 20
3.8043562403
 30
0.0
 10
6.5065112687
 20
3.8070898171
 30
0.0
 10
6.4948608394
 20
3.814874385
 30
0.0
 10
6.4870762715
 20
3.8265248143
 30
0.0
 10
6.485253887
 20
3.8356865598
 30
0.0
 10
6.485253887
 20
3.8402674326
 30
0.0
 11
6.555253887
 21
3.8402674326
 31
0.0
 11
6.5525896706
 21
3.8268735125
 31
0.0
 11
6.5450026243
 21
3.8155186953
 31
0.0
 11
6.5336478071
 21
3.807931649
 31
0.0
 11
6.520253887
 21
3.8052674326
 31
0.0
 11
6.5068599668
 21
3.807931649
 31
0.0
 11
6.4955051496
 21
3.8155186953
 31
0.0
 11
6.4879181033
 21
3.8268735125
 31
0.0
 11
6.485253887
 21
3.8402674326
 31
0.0
  0
SPLINE
  5
402
100
AcDbEntity
  8
0
100
AcDbSpline
 62
7
  6
CONTINUOUS
 70
0
 71
3
 72
15
 73
11
 74
9
 42
0.0000001
 43
0.0000001
 44
0.0000000001
 12
0.0
 22
0.1099409465
 32
0.0
 13
0.0
 23
-0.1099409465
 33
0.0
 40
0.0
 40
0.0
 40
0.0
 40
0.0
 40
0.125
 40
0.25
 40
0.375
 40
0.5
 40
0.625
 40
0.75
 40
0.875
 40
1.0
 40
1.0
 40
1.0
 40
1.0
 10
5.181753887
 20
4.7502674326
 30
0.0
 10
5.181753887
 20
4.7548483054
 30
0.0
 10
5.1799315025
 20
4.7640100509
 30
0.0
 10
5.1721469345
 20
4.7756604802
 30
0.0
 10
5.1604965053
 20
4.7834450481
 30
0.0
 10
5.146753887
 20
4.7861786248
 30
0.0
 10
5.1330112687
 20
4.7834450481
 30
0.0
 10
5.1213608394
 20
4.7756604802
 30
0.0
 10
5.1135762715
 20
4.7640100509
 30
0.0
 10
5.111753887
 20
4.7548483054
 30
0.0
 10
5.111753887
 20
4.7502674326
 30
0.0
 11
5.181753887
 21
4.7502674326
 31
0.0
 11
5.1790896706
 21
4.7636613527
 31
0.0
 11
5.1715026243
 21
4.7750161699
 31
0.0
 11
5.1601478071
 21
4.7826032162
 31
0.0
 11
5.146753887
 21
4.7852674326
 31
0.0
 11
5.1333599668
 21
4.7826032162
 31
0.0
 11
5.1220051496
 21
4.7750161699
 31
0.0
 11
5.1144181033
 21
4.7636613527
 31
0.0
 11
5.111753887
 21
4.7502674326
 31
0.0
  0
SPLINE
  5
403
100
AcDbEntity
  8
0
100
AcDbSpline
 62
7
  6
CONTINUOUS
 70
0
 71
3
 72
15
 73
11
 74
9
 42
0.0000001
 43
0.0000001
 44
0.0000000001
 12
0.0
 22
-0.1099409465
 32
0.0
 13
0.0
 23
0.1099409465
 33
0.0
 40
0.0
 40
0.0
 40
0.0
 40
0.0
 40
0.125
 40
0.25
 40
0.375
 40
0.5
 40
0.625
 40
0.75
 40
0.875
 40
1.0
 40
1.0
 40
1.0
 40
1.0
 10
5.181753887
 20
3.7642674326
 30
0.0
 10
5.181753887
 20
3.7596865598
 30
0.0
 10
5.1799315025
 20
3.7505248143
 30
0.0
 10
5.1721469345
 20
3.738874385
 30
0.0
 10
5.1604965053
 20
3.7310898171
 30
0.0
 10
5.146753887
 20
3.7283562403
 30
0.0
 10
5.1330112687
 20
3.7310898171
 30
0.0
 10
5.1213608394
 20
3.738874385
 30
0.0
 10
5.1135762715
 20
3.7505248143
 30
0.0
 10
5.111753887
 20
3.7596865598
 30
0.0
 10
5.111753887
 20
3.7642674326
 30
0.0
 11
5.181753887
 21
3.7642674326
 31
0.0
 11
5.1790896706
 21
3.7508735125
 31
0.0
 11
5.1715026243
 21
3.7395186953
 31
0.0
 11
5.1601478071
 21
3.731931649
 31
0.0
 11
5.146753887
 21
3.7292674326
 31
0.0
 11
5.1333599668
 21
3.731931649
 31
0.0
 11
5.1220051496
 21
3.7395186953
 31
0.0
 11
5.1144181033
 21
3.7508735125
 31
0.0
 11
5.111753887
 21
3.7642674326
 31
0.0
  0
SPLINE
  5
404
100
AcDbEntity
  8
0
100
AcDbSpline
 62
7
  6
CONTINUOUS
 70
0
 71
3
 72
9
 73
5
 74
3
 42
0.0000001
 43
0.0000001
 44
0.0000000001
 12
0.0
 22
-0.0280203434
 32
0.0
 13
-0.0132814075
 23
-0.0247474284
 33
0.0
 40
0.0
 40
0.0
 40
0.0
 40
0.0
 40
0.5480794744
 40
1.0
 40
1.0
 40
1.0
 40
1.0
 10
6.270505429
 20
4.0702674326
 30
0.0
 10
6.270505429
 20
4.0651483076
 30
0.0
 10
6.2692852513
 20
4.0557534191
 30
0.0
 10
6.2657839064
 20
4.0470038032
 30
0.0
 10
6.2637831929
 20
4.0432758462
 30
0.0
 11
6.270505429
 21
4.0702674326
 31
0.0
 11
6.268482678
 21
4.0550438507
 31
0.0
 11
6.2637831929
 21
4.0432758462
 31
0.0
  0
SPLINE
  5
405
100
AcDbEntity
  8
0
100
AcDbSpline
 62
7
  6
CONTINUOUS
 70
0
 71
3
 72
9
 73
5
 74
3
 42
0.0000001
 43
0.0000001
 44
0.0000000001
 12
0.013281658
 22
-0.0247475827
 32
0.0
 13
0.0
 23
-0.0280205383
 33
0.0
 40
0.0
 40
0.0
 40
0.0
 40
0.0
 40
0.4513097657
 40
1.0
 40
1.0
 40
1.0
 40
1.0
 10
6.2637830312
 20
4.4712593131
 30
0.0
 10
6.2657810785
 20
4.4675363712
 30
0.0
 10
6.2692838073
 20
4.4587874051
 30
0.0
 10
6.270505429
 20
4.4493922978
 30
0.0
 10
6.270505429
 20
4.4442674326
 30
0.0
 11
6.2637830312
 21
4.4712593131
 31
0.0
 11
6.2684780929
 21
4.4595077771
 31
0.0
 11
6.270505429
 21
4.4442674326
 31
0.0
  0
SPLINE
  5
406
100
AcDbEntity
  8
0
100
AcDbSpline
 62
7
  6
CONTINUOUS
 70
0
 71
3
 72
13
 73
9
 74
7
 42
0.0000001
 43
0.0000001
 44
0.0000000001
 12
-0.0682699855
 22
-0.0024137474
 32
0.0
 13
-0.0519149343
 23
-0.0444514205
 33
0.0
 40
0.0
 40
0.0
 40
0.0
 40
0.0
 40
0.0466280455
 40
0.2770461223
 40
0.498674906
 40
0.7035503481
 40
0.8786240593
 40
1.0
 40
1.0
 40
1.0
 40
1.0
 10
6.2476070836
 20
4.3942913026
 30
0.0
 10
6.2465459849
 20
4.3942537865
 30
0.0
 10
6.2402437065
 20
4.3939618886
 30
0.0
 10
6.2289411052
 20
4.39271083
 30
0.0
 10
6.2143232948
 20
4.3894085723
 30
0.0
 10
6.2014179822
 20
4.3847067094
 30
0.0
 10
6.1913353642
 20
4.379271748
 30
0.0
 10
6.1858999803
 20
4.3752378156
 30
0.0
 10
6.1837995723
 20
4.3734393713
 30
0.0
 11
6.2476070836
 21
4.3942913026
 31
0.0
 11
6.2444252344
 21
4.3941441115
 31
0.0
 11
6.2287904361
 21
4.3923930317
 31
0.0
 11
6.2140425792
 21
4.3890031517
 31
0.0
 11
6.200926751
 21
4.3841395691
 31
0.0
 11
6.1904391278
 21
4.3784035856
 31
0.0
 11
6.1837995723
 21
4.3734393713
 31
0.0
  0
SPLINE
  5
407
100
AcDbEntity
  8
0
100
AcDbSpline
 62
7
  6
CONTINUOUS
 70
0
 71
3
 72
21
 73
17
 74
15
 42
0.0000001
 43
0.0000001
 44
0.0000000001
 12
0.0
 22
-0.2087126244
 32
0.0
 13
-0.0987438048
 23
0.184238508
 33
0.0
 40
0.0
 40
0.0
 40
0.0
 40
0.0
 40
0.0647924618
 40
0.1317219532
 40
0.2007075374
 40
0.2714562969
 40
0.3436814032
 40
0.4168110143
 40
0.49070683
 40
0.565862211
 40
0.6426610315
 40
0.7201537855
 40
0.7971154624
 40
0.8716833634
 40
0.9427629199
 40
1.0
 40
1.0
 40
1.0
 40
1.0
 10
6.270505429
 20
4.4442674326
 30
0.0
 10
6.270505429
 20
4.4397597643
 30
0.0
 10
6.2694590274
 20
4.4305684427
 30
0.0
 10
6.2649494969
 20
4.4172527692
 30
0.0
 10
6.2576427251
 20
4.4047580462
 30
0.0
 10
6.2477979155
 20
4.3936553188
 30
0.0
 10
6.2357780224
 20
4.3844704067
 30
0.0
 10
6.2220360665
 20
4.3776400699
 30
0.0
 10
6.2070593623
 20
4.3734621565
 30
0.0
 10
6.1913136507
 20
4.3721180184
 30
0.0
 10
6.1753401122
 20
4.3737104416
 30
0.0
 10
6.1597984606
 20
4.3781955668
 30
0.0
 10
6.1454433111
 20
4.3853024629
 30
0.0
 10
6.1329309924
 20
4.3945684282
 30
0.0
 10
6.1232233426
 20
4.4049233664
 30
0.0
 10
6.1183177437
 20
4.4124369299
 30
0.0
 10
6.116433808
 20
4.4159520213
 30
0.0
 11
6.270505429
 21
4.4442674326
 31
0.0
 11
6.2690131101
 21
4.4308270218
 31
0.0
 11
6.2645709355
 21
4.4175831222
 31
0.0
 11
6.2573273369
 21
4.4051397561
 31
0.0
 11
6.2475453014
 21
4.3940785066
 31
0.0
 11
6.2355751092
 21
4.3849161509
 31
0.0
 11
6.2219120114
 21
4.3781131252
 31
0.0
 11
6.2070596447
 21
4.3739567071
 31
0.0
 11
6.1914319441
 21
4.3726070013
 31
0.0
 11
6.1754806009
 21
4.3741817237
 31
0.0
 11
6.1599387407
 21
4.378658293
 31
0.0
 11
6.1455462731
 21
4.385790809
 31
0.0
 11
6.133054058
 21
4.3950730337
 31
0.0
 11
6.1229396915
 21
4.4059258109
 31
0.0
 11
6.116433808
 21
4.4159520213
 31
0.0
  0
SPLINE
  5
408
100
AcDbEntity
  8
0
100
AcDbSpline
 62
7
  6
CONTINUOUS
 70
0
 71
3
 72
21
 73
17
 74
15
 42
0.0000001
 43
0.0000001
 44
0.0000000001
 12
0.0987399367
 22
0.1842408331
 32
0.0
 13
0.0
 23
-0.2087137825
 33
0.0
 40
0.0
 40
0.0
 40
0.0
 40
0.0
 40
0.0567510487
 40
0.1278715138
 40
0.2025314353
 40
0.2795629599
 40
0.3570699655
 40
0.4338512899
 40
0.5089926641
 40
0.5829249543
 40
0.6561217648
 40
0.7284042178
 40
0.7991841395
 40
0.8681964531
 40
0.9351449044
 40
1.0
 40
1.0
 40
1.0
 40
1.0
 10
6.1164331121
 20
4.0985815432
 30
0.0
 10
6.1183009771
 20
4.10206683
 30
0.0
 10
6.1231837213
 20
4.1095576596
 30
0.0
 10
6.1328621142
 20
4.1199065454
 30
0.0
 10
6.1453771488
 20
4.1291932426
 30
0.0
 10
6.1597382414
 20
4.1363164626
 30
0.0
 10
6.1752815413
 20
4.140813057
 30
0.0
 10
6.1912528292
 20
4.1424161096
 30
0.0
 10
6.206999893
 20
4.1410834999
 30
0.0
 10
6.2219858341
 20
4.1369147589
 30
0.0
 10
6.2357422608
 20
4.1300876609
 30
0.0
 10
6.2477751672
 20
4.1209014569
 30
0.0
 10
6.2576292649
 20
4.109795988
 30
0.0
 10
6.264942307
 20
4.097298526
 30
0.0
 10
6.2694573354
 20
4.0839766063
 30
0.0
 10
6.270505429
 20
4.0747794834
 30
0.0
 10
6.270505429
 20
4.0702674326
 30
0.0
 11
6.1164331121
 21
4.0985815432
 31
0.0
 11
6.1228768814
 21
4.108527407
 31
0.0
 11
6.1329837852
 21
4.1193989076
 31
0.0
 11
6.1454823967
 21
4.1287048583
 31
0.0
 11
6.1598826217
 21
4.1358547423
 31
0.0
 11
6.1754244891
 21
4.1403423452
 31
0.0
 11
6.1913712216
 21
4.1419274713
 31
0.0
 11
6.2069970826
 21
4.1405894786
 31
0.0
 11
6.2218598767
 21
4.1364417707
 31
0.0
 11
6.235539735
 21
4.1296407559
 31
0.0
 11
6.2475236581
 21
4.1204765118
 31
0.0
 11
6.2573138809
 21
4.1094137121
 31
0.0
 11
6.2645637902
 21
4.0969674727
 31
0.0
 11
6.2690102452
 21
4.0837207536
 31
0.0
 11
6.270505429
 21
4.0702674326
 31
0.0
  0
SPLINE
  5
409
100
AcDbEntity
  8
0
100
AcDbSpline
 62
7
  6
CONTINUOUS
 70
0
 71
3
 72
23
 73
19
 74
17
 42
0.0000001
 43
0.0000001
 44
0.0000000001
 12
-0.1590370706
 22
-0.0338660515
 32
0.0
 13
-0.1597118091
 23
0.030526159
 33
0.0
 40
0.0
 40
0.0
 40
0.0
 40
0.0
 40
0.009379459
 40
0.0372530388
 40
0.0825654767
 40
0.1435115543
 40
0.2177675608
 40
0.3021898556
 40
0.3936886824
 40
0.489815167
 40
0.5879376258
 40
0.6836921536
 40
0.7726089882
 40
0.8500458751
 40
0.9129556832
 40
0.9598984246
 40
0.9896184354
 40
1.0
 40
1.0
 40
1.0
 40
1.0
 10
6.270505429
 20
4.6312674326
 30
0.0
 10
6.2700082018
 20
4.6311615508
 30
0.0
 10
6.2680324818
 20
4.6307449844
 30
0.0
 10
6.2636462696
 20
4.6298567797
 30
0.0
 10
6.2564984325
 20
4.628526555
 30
0.0
 10
6.2468396142
 20
4.6269588206
 30
0.0
 10
6.2350362631
 20
4.6253990711
 30
0.0
 10
6.2215367333
 20
4.6240892726
 30
0.0
 10
6.2068129523
 20
4.623225774
 30
0.0
 10
6.1913235726
 20
4.6229378085
 30
0.0
 10
6.1756045841
 20
4.623278684
 30
0.0
 10
6.160301236
 20
4.6242039076
 30
0.0
 10
6.1461570128
 20
4.6255605173
 30
0.0
 10
6.1338274372
 20
4.6271205325
 30
0.0
 10
6.1237897013
 20
4.6286396976
 30
0.0
 10
6.1163315845
 20
4.6299084751
 30
0.0
 10
6.1116905969
 20
4.6307572267
 30
0.0
 10
6.109555031
 20
4.6311617962
 30
0.0
 10
6.1090023449
 20
4.6312674326
 30
0.0
 11
6.270505429
 21
4.6312674326
 31
0.0
 11
6.2690131101
 21
4.6309527896
 31
0.0
 11
6.2645709355
 21
4.6300533002
 31
0.0
 11
6.2573273369
 21
4.6287054128
 31
0.0
 11
6.2475453014
 21
4.6271179024
 31
0.0
 11
6.2355751092
 21
4.6255361274
 31
0.0
 11
6.2219120114
 21
4.6242098361
 31
0.0
 11
6.2070596447
 21
4.6233371256
 31
0.0
 11
6.1914319441
 21
4.6230436725
 31
0.0
 11
6.1754806009
 21
4.6233855708
 31
0.0
 11
6.1599387407
 21
4.624320814
 31
0.0
 11
6.1455462731
 21
4.6256973412
 31
0.0
 11
6.133054058
 21
4.6272752185
 31
0.0
 11
6.1229396915
 21
4.6288044866
 31
0.0
 11
6.1154146693
 21
4.6300840188
 31
0.0
 11
6.1106609199
 21
4.6309532328
 31
0.0
 11
6.1090023449
 21
4.6312674326
 31
0.0
  0
SPLINE
  5
40A
100
AcDbEntity
  8
0
100
AcDbSpline
 62
7
  6
CONTINUOUS
 70
0
 71
3
 72
13
 73
9
 74
7
 42
0.0000001
 43
0.0000001
 44
0.0000000001
 12
0.051869248
 22
-0.0443607939
 32
0.0
 13
0.0681764207
 23
-0.0024347736
 33
0.0
 40
0.0
 40
0.0
 40
0.0
 40
0.0
 40
0.1035712623
 40
0.2707817535
 40
0.4692764007
 40
0.686927768
 40
0.9157176106
 40
1.0
 40
1.0
 40
1.0
 40
1.0
 10
6.1838246336
 20
4.1410740636
 30
0.0
 10
6.1856153548
 20
4.1395425625
 30
0.0
 10
6.1905346645
 20
4.1358165317
 30
0.0
 10
6.1998598552
 20
4.1305569773
 30
0.0
 10
6.2122650652
 20
4.1257558002
 30
0.0
 10
6.2265347947
 20
4.1222501818
 30
0.0
 10
6.2385227972
 20
4.1207091005
 30
0.0
 10
6.2456325931
 20
4.1203137936
 30
0.0
 10
6.2475479503
 20
4.1202453908
 30
0.0
 11
6.1838246336
 21
4.1410740636
 31
0.0
 11
6.1894460446
 21
4.1367933411
 31
0.0
 11
6.1993447554
 21
4.1311352459
 31
0.0
 11
6.2119391719
 21
4.126178059
 31
0.0
 11
6.2263373935
 21
4.1225793845
 31
0.0
 11
6.2418072891
 21
4.1205638706
 31
0.0
 11
6.2475479503
 21
4.1202453908
 31
0.0
  0
SPLINE
  5
40B
100
AcDbEntity
  8
0
100
AcDbSpline
 62
7
  6
CONTINUOUS
 70
0
 71
3
 72
23
 73
19
 74
17
 42
0.0000001
 43
0.0000001
 44
0.0000000001
 12
0.1597118055
 22
0.0305261583
 32
0.0
 13
0.1590370654
 23
-0.0338660506
 33
0.0
 40
0.0
 40
0.0
 40
0.0
 40
0.0
 40
0.0103078188
 40
0.0398605896
 40
0.0866530018
 40
0.1495177343
 40
0.2269957195
 40
0.3159616576
 40
0.4117170113
 40
0.5098114194
 40
0.6059263052
 40
0.6974885575
 40
0.7820134517
 40
0.8563538803
 40
0.9173504987
 40
0.9627021796
 40
0.9906025425
 40
1.0
 40
1.0
 40
1.0
 40
1.0
 10
6.1090023449
 20
3.8832674326
 30
0.0
 10
6.109551105
 20
3.8833723186
 30
0.0
 10
6.1116738326
 20
3.8837744815
 30
0.0
 10
6.1162939131
 20
3.8846196483
 30
0.0
 10
6.1237325187
 20
3.8858858973
 30
0.0
 10
6.1337617693
 20
3.8874052205
 30
0.0
 10
6.1460935413
 20
3.888967367
 30
0.0
 10
6.1602424903
 20
3.8903264063
 30
0.0
 10
6.1755468956
 20
3.8912537692
 30
0.0
 10
6.1912637255
 20
3.8915968987
 30
0.0
 10
6.206754437
 20
3.8913113822
 30
0.0
 10
6.2214867117
 20
3.8904496363
 30
0.0
 10
6.2349999171
 20
3.8891401189
 30
0.0
 10
6.2468161606
 20
3.887579595
 30
0.0
 10
6.2564843765
 20
3.8860108078
 30
0.0
 10
6.2636384631
 20
3.8846796264
 30
0.0
 10
6.2680291511
 20
3.883790577
 30
0.0
 10
6.2700072477
 20
3.8833735175
 30
0.0
 10
6.270505429
 20
3.8832674326
 30
0.0
 11
6.1090023449
 21
3.8832674326
 31
0.0
 11
6.1106491345
 21
3.8835794196
 31
0.0
 11
6.11537609
 21
3.8844439805
 31
0.0
 11
6.1228768814
 21
3.8857201939
 31
0.0
 11
6.1329837852
 21
3.887249789
 31
0.0
 11
6.1454823967
 21
3.8888303492
 31
0.0
 11
6.1598826217
 21
3.8902096243
 31
0.0
 11
6.1754244891
 21
3.8911469734
 31
0.0
 11
6.1913712216
 21
3.8914911067
 31
0.0
 11
6.2069970826
 21
3.8912001805
 31
0.0
 11
6.2218598767
 21
3.8903291222
 31
0.0
 11
6.235539735
 21
3.889002828
 31
0.0
 11
6.2475236581
 21
3.8874201801
 31
0.0
 11
6.2573138809
 21
3.8858318195
 31
0.0
 11
6.2645637902
 21
3.8844829671
 31
0.0
 11
6.2690102452
 21
3.8835826736
 31
0.0
 11
6.270505429
 21
3.8832674326
 31
0.0
  0
SPLINE
  5
40C
100
AcDbEntity
  8
0
100
AcDbSpline
 62
7
  6
CONTINUOUS
 70
0
 71
3
 72
21
 73
17
 74
15
 42
0.0000001
 43
0.0000001
 44
0.0000000001
 12
0.0
 22
0.2000196149
 32
0.0
 13
0.0948087467
 23
-0.1766562055
 33
0.0
 40
0.0
 40
0.0
 40
0.0
 40
0.0
 40
0.0728361158
 40
0.1434954434
 40
0.2140008092
 40
0.2884046989
 40
0.3682558746
 40
0.450670021
 40
0.5339500518
 40
0.6157981788
 40
0.6960823884
 40
0.7739576737
 40
0.8495445936
 40
0.9212542083
 40
0.9911310943
 40
1.0
 40
1.0
 40
1.0
 40
1.0
 10
6.1090023449
 20
4.4442674326
 30
0.0
 10
6.1090023449
 20
4.4491236499
 30
0.0
 10
6.1103319346
 20
4.4587500634
 30
0.0
 10
6.1161706522
 20
4.4719477627
 30
0.0
 10
6.1251723902
 20
4.4833243763
 30
0.0
 10
6.1369172606
 20
4.4928039909
 30
0.0
 10
6.1509702512
 20
4.5001769744
 30
0.0
 10
6.1666277247
 20
4.5052010668
 30
0.0
 10
6.1829976909
 20
4.507751842
 30
0.0
 10
6.1994189011
 20
4.507857978
 30
0.0
 10
6.215319755
 20
4.5055603956
 30
0.0
 10
6.2302562495
 20
4.5008561527
 30
0.0
 10
6.243607873
 20
4.4937850042
 30
0.0
 10
6.2548301692
 20
4.4844558668
 30
0.0
 10
6.260941253
 20
4.4763791316
 30
0.0
 10
6.2635027479
 20
4.4717815622
 30
0.0
 10
6.2637830312
 20
4.4712593131
 30
0.0
 11
6.1090023449
 21
4.4442674326
 31
0.0
 11
6.111018235
 21
4.4586959392
 31
0.0
 11
6.1166867895
 21
4.4716426101
 31
0.0
 11
6.1253696853
 21
4.4827550621
 31
0.0
 11
6.1368882488
 21
4.4921786327
 31
0.0
 11
6.1509904898
 21
4.4996769817
 31
0.0
 11
6.1666694092
 21
4.5047670152
 31
0.0
 11
6.183125259
 21
4.5073519654
 31
0.0
 11
6.1994962241
 21
4.5074452416
 31
0.0
 11
6.2153835369
 21
4.5051072855
 31
0.0
 11
6.2302204894
 21
4.500364414
 31
0.0
 11
6.2435421765
 21
4.4932150939
 31
0.0
 11
6.2545232919
 21
4.4839876237
 31
0.0
 11
6.2629176812
 21
4.4728124857
 31
0.0
 11
6.2637830312
 21
4.4712593131
 31
0.0
  0
SPLINE
  5
40D
100
AcDbEntity
  8
0
100
AcDbSpline
 62
7
  6
CONTINUOUS
 70
0
 71
3
 72
10
 73
6
 74
4
 42
0.0000001
 43
0.0000001
 44
0.0000000001
 12
0.0
 22
0.0295077086
 32
0.0
 13
0.0139597359
 23
0.0260477519
 33
0.0
 40
0.0
 40
0.0
 40
0.0
 40
0.0
 40
0.4569607317
 40
0.9218110346
 40
1.0
 40
1.0
 40
1.0
 40
1.0
 10
6.1090023449
 20
4.0702674326
 30
0.0
 10
6.1090023449
 20
4.074762054
 30
0.0
 10
6.1101589828
 20
4.0838611353
 30
0.0
 10
6.1136212167
 20
4.0931453153
 30
0.0
 10
6.1160692797
 20
4.0979026609
 30
0.0
 10
6.1164331121
 20
4.0985815432
 30
0.0
 11
6.1090023449
 21
4.0702674326
 31
0.0
 11
6.1106491345
 21
4.0836503574
 31
0.0
 11
6.11537609
 21
4.0965268031
 31
0.0
 11
6.1164331121
 21
4.0985815432
 31
0.0
  0
SPLINE
  5
40E
100
AcDbEntity
  8
0
100
AcDbSpline
 62
7
  6
CONTINUOUS
 70
0
 71
3
 72
10
 73
6
 74
4
 42
0.0000001
 43
0.0000001
 44
0.0000000001
 12
-0.0139608631
 22
0.026048506
 32
0.0
 13
0.0
 23
0.0295087716
 33
0.0
 40
0.0
 40
0.0
 40
0.0
 40
0.0
 40
0.0752880388
 40
0.5413954749
 40
1.0
 40
1.0
 40
1.0
 40
1.0
 10
6.116433808
 20
4.4159520213
 30
0.0
 10
6.116083446
 20
4.416605735
 30
0.0
 10
6.1136396691
 20
4.4213472669
 30
0.0
 10
6.1101669957
 20
4.4306282321
 30
0.0
 10
6.1090023449
 20
4.4397564805
 30
0.0
 10
6.1090023449
 20
4.4442674326
 30
0.0
 11
6.116433808
 21
4.4159520213
 31
0.0
 11
6.1154146693
 21
4.4179299531
 31
0.0
 11
6.1106609199
 21
4.4308365977
 31
0.0
 11
6.1090023449
 21
4.4442674326
 31
0.0
  0
SPLINE
  5
40F
100
AcDbEntity
  8
0
100
AcDbSpline
 62
7
  6
CONTINUOUS
 70
0
 71
3
 72
21
 73
17
 74
15
 42
0.0000001
 43
0.0000001
 44
0.0000000001
 12
-0.094807709
 22
-0.1766565021
 32
0.0
 13
0.0
 23
0.2000198072
 33
0.0
 40
0.0
 40
0.0
 40
0.0
 40
0.0
 40
0.0087617283
 40
0.0785935384
 40
0.1503045605
 40
0.2258318263
 40
0.3036419995
 40
0.3839313016
 40
0.4658598131
 40
0.5492386975
 40
0.6316786518
 40
0.7114638826
 40
0.7857823718
 40
0.8563153359
 40
0.9270665918
 40
1.0
 40
1.0
 40
1.0
 40
1.0
 10
6.2637831929
 20
4.0432758462
 30
0.0
 10
6.2635062997
 20
4.0427599075
 30
0.0
 10
6.2609506589
 20
4.0381707468
 30
0.0
 10
6.2548494243
 20
4.0300994227
 30
0.0
 10
6.2436367121
 20
4.020769429
 30
0.0
 10
6.2302958351
 20
4.0136958517
 30
0.0
 10
6.2153695696
 20
4.0089859565
 30
0.0
 10
6.1994685098
 20
4.0066797674
 30
0.0
 10
6.1830347778
 20
4.0067791468
 30
0.0
 10
6.1666504293
 20
4.0093278031
 30
0.0
 10
6.1509883615
 20
4.0143506226
 30
0.0
 10
6.1369413312
 20
4.021716501
 30
0.0
 10
6.1251986935
 20
4.0311850531
 30
0.0
 10
6.1161877099
 20
4.0425572591
 30
0.0
 10
6.1103355567
 20
4.0557654443
 30
0.0
 10
6.1090023449
 20
4.0654047238
 30
0.0
 10
6.1090023449
 20
4.0702674326
 30
0.0
 11
6.2637831929
 21
4.0432758462
 31
0.0
 11
6.2629285985
 21
4.0417412764
 31
0.0
 11
6.2545445833
 21
4.0305696071
 31
0.0
 11
6.2435675196
 21
4.0213368586
 31
0.0
 11
6.2302596915
 21
4.0141869198
 31
0.0
 11
6.215437686
 21
4.0094400213
 31
0.0
 11
6.1995506041
 21
4.0070934094
 31
0.0
 11
6.183163507
 21
4.0071798444
 31
0.0
 11
6.1666874348
 21
4.0097635745
 31
0.0
 11
6.1510027812
 21
4.0148527133
 31
0.0
 11
6.1369104146
 21
4.0223415692
 31
0.0
 11
6.1254003972
 21
4.0317486291
 31
0.0
 11
6.1167065501
 21
4.0428595427
 31
0.0
 11
6.1110236544
 21
4.0558200198
 31
0.0
 11
6.1090023449
 21
4.0702674326
 31
0.0
  0
SPLINE
  5
410
100
AcDbEntity
  8
0
100
AcDbSpline
 62
7
  6
CONTINUOUS
 70
0
 71
3
 72
15
 73
11
 74
9
 42
0.0000001
 43
0.0000001
 44
0.0000000001
 12
0.144303637
 22
0.2708573861
 32
0.0
 13
-0.144303637
 23
0.2708573861
 33
0.0
 40
0.0
 40
0.0
 40
0.0
 40
0.0
 40
0.1355060615
 40
0.2616268072
 40
0.3821382325
 40
0.5000411188
 40
0.6179405518
 40
0.7384429083
 40
0.8645194725
 40
1.0
 40
1.0
 40
1.0
 40
1.0
 10
4.8213282611
 20
3.6238821231
 30
0.0
 10
4.827846267
 20
3.6361163957
 30
0.0
 10
4.8394795319
 20
3.6602713765
 30
0.0
 10
4.8526875143
 20
3.6971538053
 30
0.0
 10
4.8607839842
 20
3.7336729418
 30
0.0
 10
4.8635263794
 20
3.7701547743
 30
0.0
 10
4.8607803497
 20
3.806635379
 30
0.0
 10
4.8526821202
 20
3.8431481251
 30
0.0
 10
4.8394753789
 20
3.8800223308
 30
0.0
 10
4.8278450387
 20
3.9041707749
 30
0.0
 10
4.8213282611
 20
3.9164027421
 30
0.0
 11
4.8213282611
 21
3.6238821231
 31
0.0
 11
4.8392019114
 21
3.661431944
 31
0.0
 11
4.852084692
 21
3.6979315091
 31
0.0
 11
4.8599578114
 21
3.7340686916
 31
0.0
 11
4.8626183315
 21
3.7701550784
 31
0.0
 11
4.859954289
 21
3.8062401426
 31
0.0
 11
4.8520787759
 21
3.8423739549
 31
0.0
 11
4.8391988958
 21
3.8788601646
 31
0.0
 11
4.8213282611
 21
3.9164027421
 31
0.0
  0
SPLINE
  5
411
100
AcDbEntity
  8
0
100
AcDbSpline
 62
7
  6
CONTINUOUS
 70
0
 71
3
 72
15
 73
11
 74
9
 42
0.0000001
 43
0.0000001
 44
0.0000000001
 12
-0.1524995809
 22
0.5724822844
 32
0.0
 13
0.1524995809
 23
0.5724822844
 33
0.0
 40
0.0
 40
0.0
 40
0.0
 40
0.0
 40
0.1303027146
 40
0.2554233163
 40
0.3781382012
 40
0.500042666
 40
0.6219428883
 40
0.7446469008
 40
0.8697222521
 40
1.0
 40
1.0
 40
1.0
 40
1.0
 10
4.4233645582
 20
3.9647468137
 30
0.0
 10
4.4167408551
 20
3.9896121456
 30
0.0
 10
4.4049690633
 20
4.0386912702
 30
0.0
 10
4.3918688253
 20
4.1122568902
 30
0.0
 10
4.3838747457
 20
4.18489498
 30
0.0
 10
4.381176436
 20
4.2572919103
 30
0.0
 10
4.3838783292
 20
4.3296865478
 30
0.0
 10
4.3918742197
 20
4.4023124188
 30
0.0
 10
4.4049733378
 20
4.4758619168
 30
0.0
 10
4.4167421242
 20
4.524927484
 30
0.0
 10
4.4233645582
 20
4.5497880515
 30
0.0
 11
4.4233645582
 21
3.9647468137
 31
0.0
 11
4.4054909079
 21
4.0398464554
 31
0.0
 11
4.3926081274
 21
4.1128455856
 31
0.0
 11
4.384735008
 21
4.1851199505
 31
0.0
 11
4.3820744879
 21
4.2572927241
 31
0.0
 11
4.3847385303
 21
4.3294628526
 31
0.0
 11
4.3926140434
 21
4.4017304773
 31
0.0
 11
4.4054939236
 21
4.4747028966
 31
0.0
 11
4.4233645582
 21
4.5497880515
 31
0.0
  0
SPLINE
  5
412
100
AcDbEntity
  8
0
100
AcDbSpline
 62
7
  6
CONTINUOUS
 70
0
 71
3
 72
15
 73
11
 74
9
 42
0.0000001
 43
0.0000001
 44
0.0000000001
 12
0.1524995809
 22
0.5724822844
 32
0.0
 13
-0.1524995809
 23
0.5724822844
 33
0.0
 40
0.0
 40
0.0
 40
0.0
 40
0.0
 40
0.1303027146
 40
0.2554233163
 40
0.3781382012
 40
0.500042666
 40
0.6219428883
 40
0.7446469008
 40
0.8697222521
 40
1.0
 40
1.0
 40
1.0
 40
1.0
 10
4.8213282611
 20
3.9647468137
 30
0.0
 10
4.8279519642
 20
3.9896121456
 30
0.0
 10
4.839723756
 20
4.0386912702
 30
0.0
 10
4.8528239941
 20
4.1122568902
 30
0.0
 10
4.8608180736
 20
4.18489498
 30
0.0
 10
4.8635163833
 20
4.2572919103
 30
0.0
 10
4.8608144902
 20
4.3296865478
 30
0.0
 10
4.8528185997
 20
4.4023124188
 30
0.0
 10
4.8397194816
 20
4.4758619168
 30
0.0
 10
4.8279506951
 20
4.524927484
 30
0.0
 10
4.8213282611
 20
4.5497880515
 30
0.0
 11
4.8213282611
 21
3.9647468137
 31
0.0
 11
4.8392019114
 21
4.0398464554
 31
0.0
 11
4.852084692
 21
4.1128455856
 31
0.0
 11
4.8599578114
 21
4.1851199505
 31
0.0
 11
4.8626183315
 21
4.2572927241
 31
0.0
 11
4.859954289
 21
4.3294628526
 31
0.0
 11
4.8520787759
 21
4.4017304773
 31
0.0
 11
4.8391988958
 21
4.4747028966
 31
0.0
 11
4.8213282611
 21
4.5497880515
 31
0.0
  0
SPLINE
  5
413
100
AcDbEntity
  8
0
100
AcDbSpline
 62
7
  6
CONTINUOUS
 70
0
 71
3
 72
15
 73
11
 74
9
 42
0.0000001
 43
0.0000001
 44
0.0000000001
 12
-0.144303637
 22
0.2708573861
 32
0.0
 13
0.144303637
 23
0.2708573861
 33
0.0
 40
0.0
 40
0.0
 40
0.0
 40
0.0
 40
0.1355060615
 40
0.2616268072
 40
0.3821382325
 40
0.5000411188
 40
0.6179405518
 40
0.7384429083
 40
0.8645194725
 40
1.0
 40
1.0
 40
1.0
 40
1.0
 10
4.4233645582
 20
4.5981321231
 30
0.0
 10
4.4168465524
 20
4.6103663957
 30
0.0
 10
4.4052132874
 20
4.6345213765
 30
0.0
 10
4.3920053051
 20
4.6714038053
 30
0.0
 10
4.3839088352
 20
4.7079229418
 30
0.0
 10
4.38116644
 20
4.7444047743
 30
0.0
 10
4.3839124697
 20
4.780885379
 30
0.0
 10
4.3920106992
 20
4.8173981251
 30
0.0
 10
4.4052174405
 20
4.8542723308
 30
0.0
 10
4.4168477806
 20
4.8784207749
 30
0.0
 10
4.4233645582
 20
4.8906527421
 30
0.0
 11
4.4233645582
 21
4.5981321231
 31
0.0
 11
4.4054909079
 21
4.635681944
 31
0.0
 11
4.3926081274
 21
4.6721815091
 31
0.0
 11
4.384735008
 21
4.7083186916
 31
0.0
 11
4.3820744879
 21
4.7444050784
 31
0.0
 11
4.3847385303
 21
4.7804901426
 31
0.0
 11
4.3926140434
 21
4.8166239549
 31
0.0
 11
4.4054939236
 21
4.8531101646
 31
0.0
 11
4.4233645582
 21
4.8906527421
 31
0.0
  0
SPLINE
  5
414
100
AcDbEntity
  8
0
100
AcDbSpline
 62
7
  6
CONTINUOUS
 70
0
 71
3
 72
15
 73
11
 74
9
 42
0.0000001
 43
0.0000001
 44
0.0000000001
 12
0.144303637
 22
0.2708573861
 32
0.0
 13
-0.144303637
 23
0.2708573861
 33
0.0
 40
0.0
 40
0.0
 40
0.0
 40
0.0
 40
0.1355060615
 40
0.2616268072
 40
0.3821382325
 40
0.5000411188
 40
0.6179405518
 40
0.7384429083
 40
0.8645194725
 40
1.0
 40
1.0
 40
1.0
 40
1.0
 10
4.8213282611
 20
4.5981321231
 30
0.0
 10
4.827846267
 20
4.6103663957
 30
0.0
 10
4.8394795319
 20
4.6345213765
 30
0.0
 10
4.8526875143
 20
4.6714038053
 30
0.0
 10
4.8607839842
 20
4.7079229418
 30
0.0
 10
4.8635263794
 20
4.7444047743
 30
0.0
 10
4.8607803497
 20
4.780885379
 30
0.0
 10
4.8526821202
 20
4.8173981251
 30
0.0
 10
4.8394753789
 20
4.8542723308
 30
0.0
 10
4.8278450387
 20
4.8784207749
 30
0.0
 10
4.8213282611
 20
4.8906527421
 30
0.0
 11
4.8213282611
 21
4.5981321231
 31
0.0
 11
4.8392019114
 21
4.635681944
 31
0.0
 11
4.852084692
 21
4.6721815091
 31
0.0
 11
4.8599578114
 21
4.7083186916
 31
0.0
 11
4.8626183315
 21
4.7444050784
 31
0.0
 11
4.859954289
 21
4.7804901426
 31
0.0
 11
4.8520787759
 21
4.8166239549
 31
0.0
 11
4.8391988958
 21
4.8531101646
 31
0.0
 11
4.8213282611
 21
4.8906527421
 31
0.0
  0
SPLINE
  5
415
100
AcDbEntity
  8
0
100
AcDbSpline
 62
7
  6
CONTINUOUS
 70
0
 71
3
 72
15
 73
11
 74
9
 42
0.0000001
 43
0.0000001
 44
0.0000000001
 12
-0.144303637
 22
0.2708573861
 32
0.0
 13
0.144303637
 23
0.2708573861
 33
0.0
 40
0.0
 40
0.0
 40
0.0
 40
0.0
 40
0.1355060615
 40
0.2616268072
 40
0.3821382325
 40
0.5000411188
 40
0.6179405518
 40
0.7384429083
 40
0.8645194725
 40
1.0
 40
1.0
 40
1.0
 40
1.0
 10
4.4233645582
 20
3.6238821231
 30
0.0
 10
4.4168465524
 20
3.6361163957
 30
0.0
 10
4.4052132874
 20
3.6602713765
 30
0.0
 10
4.3920053051
 20
3.6971538053
 30
0.0
 10
4.3839088352
 20
3.7336729418
 30
0.0
 10
4.38116644
 20
3.7701547743
 30
0.0
 10
4.3839124697
 20
3.806635379
 30
0.0
 10
4.3920106992
 20
3.8431481251
 30
0.0
 10
4.4052174405
 20
3.8800223308
 30
0.0
 10
4.4168477806
 20
3.9041707749
 30
0.0
 10
4.4233645582
 20
3.9164027421
 30
0.0
 11
4.4233645582
 21
3.6238821231
 31
0.0
 11
4.4054909079
 21
3.661431944
 31
0.0
 11
4.3926081274
 21
3.6979315091
 31
0.0
 11
4.384735008
 21
3.7340686916
 31
0.0
 11
4.3820744879
 21
3.7701550784
 31
0.0
 11
4.3847385303
 21
3.8062401426
 31
0.0
 11
4.3926140434
 21
3.8423739549
 31
0.0
 11
4.4054939236
 21
3.8788601646
 31
0.0
 11
4.4233645582
 21
3.9164027421
 31
0.0
  0
ENDSEC
  0
SECTION
  2
OBJECTS
  0
DICTIONARY
  5
C
100
AcDbDictionary
280
0
281
1
  3
ACAD_GROUP
350
D
  3
ACAD_MLINESTYLE
350
17
  3
ACAD_LAYOUT
350
1A
  3
ACAD_PLOTSETTINGS
350
19
  3
ACAD_PLOTSTYLENAME
350
E
  0
DICTIONARY
  5
D
102
{ACAD_REACTORS
330
C
102
}
100
AcDbDictionary
280
0
281
1
  0
ACDBDICTIONARYWDFLT
  5
E
102
{ACAD_REACTORS
330
C
102
}
100
AcDbDictionary
281
1
  3
Normal
350
F
100
AcDbDictionaryWithDefault
340
F
  0
DICTIONARY
  5
17
102
{ACAD_REACTORS
330
C
102
}
100
AcDbDictionary
280
0
281
1
  3
Standard
350
18
  0
DICTIONARY
  5
19
102
{ACAD_REACTORS
330
C
102
}
100
AcDbDictionary
281
1
  0
DICTIONARY
  5
1A
102
{ACAD_REACTORS
330
C
102
}
100
AcDbDictionary
281
1
  3
Layout1
350
1E
  3
Model
350
22
  0
ACDBPLACEHOLDER
  5
F
102
{ACAD_REACTORS
330
E
102
}
  0
MLINESTYLE
  5
18
102
{ACAD_REACTORS
330
17
102
}
100
AcDbMlineStyle
  2
STANDARD
 70
0
  3

 62
256
 51
90.0
 52
90.0
 71
2
 49
0.5
 62
256
  6
BYLAYER
 49
-0.5
 62
256
  6
BYLAYER
  0
LAYOUT
  5
1E
102
{ACAD_REACTORS
330
1A
102
}
100
AcDbPlotSettings
  1

  2

  4

  6

 40
0.0
 41
0.0
 42
0.0
 43
0.0
 44
0.0
 45
0.0
 46
0.0
 47
0.0
 48
0.0
 49
0.0
140
0.0
141
0.0
142
1.0
143
1.0
 70
0
 72
0
 73
0
 74
0
  7

 75
0
147
1.0
148
0.0
149
0.0
100
AcDbLayout
  1
Layout1
 70
0
 71
0
 10
0.0
 20
0.0
 11
0.0
 21
0.0
 12
0.0
 22
0.0
 32
0.0
 14
0.0
 24
0.0
 34
0.0
 15
0.0
 25
0.0
 35
0.0
146
0.0
 13
0.0
 23
0.0
 33
0.0
 16
0.0
 26
0.0
 36
0.0
 17
0.0
 27
0.0
 37
0.0
 76
0
330
1B
331
0
345
0
346
0
  0
LAYOUT
  5
22
102
{ACAD_REACTORS
330
1A
102
}
100
AcDbPlotSettings
  1

  2

  4

  6

 40
0.0
 41
0.0
 42
0.0
 43
0.0
 44
0.0
 45
0.0
 46
0.0
 47
0.0
 48
0.0
 49
0.0
140
0.0
141
0.0
142
1.0
143
1.0
 70
0
 72
0
 73
0
 74
0
  7

 75
0
147
1.0
148
0.0
149
0.0
100
AcDbLayout
  1
Model
 70
0
 71
0
 10
0.0
 20
0.0
 11
0.0
 21
0.0
 12
0.0
 22
0.0
 32
0.0
 14
0.0
 24
0.0
 34
0.0
 15
0.0
 25
0.0
 35
0.0
146
0.0
 13
0.0
 23
0.0
 33
0.0
 16
0.0
 26
0.0
 36
0.0
 17
0.0
 27
0.0
 37
0.0
 76
0
330
1F
331
0
345
0
346
0
  0
ENDSEC
  0
EOF
