999
DXF file: CXDC-XAN.dxf
999
Pro/ENGINEER 2006240 by Parametric Technology Corporation
  0
SECTION
  2
HEADER
  9
$ACADVER
  1
AC1015
  9
$DWGCODEPAGE
  3
ANSI_1252
  9
$EXTMAX
 10
11.6929133858
 20
8.2677165354
 30
0.0
  9
$EXTMIN
 10
0.0
 20
0.0
 30
0.0
  9
$LIMMIN
 10
0.0
 20
0.0
  9
$LIMMAX
 10
11.6929133858
 20
8.2677165354
  9
$VIEWCTR
 10
5.8464566929
 20
4.1338582677
  9
$VIEWSIZE
 40
8.2677165354
  9
$CLAYER
  8
0
  9
$LTSCALE
 40
0.6431102362
  9
$CELTYPE
  6
BYLAYER
  9
$DIMSCALE
 40
1.0
  9
$DIMASZ
 40
0.1875
  9
$DIMEXO
 40
0.0730807087
  9
$DIMDLI
 40
0.4443307087
  9
$DIMEXE
 40
0.2104724409
  9
$DIMCEN
 40
0.1052362205
  9
$DIMLFAC
 40
1.0
  9
$DIMBLK
  1
_CLOSED
  9
$DIMTXT
 40
0.15625
  9
$DIMTOL
 70
0
  9
$DIMLIM
 70
0
  9
$DIMTFAC
 40
1.0
  9
$PDMODE
 70
3
  9
$PDSIZE
 40
0.3125
  9
$HANDSEED
  5
430
  9
$MEASUREMENT
 70
0
  9
$INSUNITS
 70
1
  0
ENDSEC
  0
SECTION
  2
CLASSES
  0
CLASS
  1
ACDBDICTIONARYWDFLT
  2
AcDbDictionaryWithDefault
  3
AutoCAD 2000
 90
0
280
0
281
0
  0
CLASS
  1
ACDBPLACEHOLDER
  2
AcDbPlaceHolder
  3
AutoCAD 2000
 90
0
280
0
281
0
  0
CLASS
  1
LAYOUT
  2
AcDbLayout
  3
AutoCAD 2000
 90
0
280
0
281
0
  0
ENDSEC
  0
SECTION
  2
TABLES
  0
TABLE
  2
VPORT
  5
8
100
AcDbSymbolTable
 70
2
  0
VPORT
  5
1F4
100
AcDbSymbolTableRecord
100
AcDbViewportTableRecord
  2
*ACTIVE
 70
0
 10
0.0
 20
0.0
 11
1.0
 21
1.0
 12
5.8464566929
 22
4.1338582677
 13
0.0
 23
0.0
 14
1.0
 24
1.0
 15
0.0
 25
0.0
 16
0.0
 26
0.0
 36
1.0
 17
0.0
 27
0.0
 37
0.0
 40
8.2677165354
 41
1.4142857143
 42
50.0
 43
0.0
 44
0.0
 50
0.0
 51
0.0
 71
0
 72
100
 73
1
 74
1
 75
0
 76
0
 77
0
 78
0
  0
ENDTAB
  0
TABLE
  2
LTYPE
  5
5
100
AcDbSymbolTable
 70
6
  0
LTYPE
  5
14
100
AcDbSymbolTableRecord
100
AcDbLinetypeTableRecord
  2
BYBLOCK
 70
0
  3

 72
65
 73
0
 40
0.0
  0
LTYPE
  5
15
100
AcDbSymbolTableRecord
100
AcDbLinetypeTableRecord
  2
BYLAYER
 70
0
  3

 72
65
 73
0
 40
0.0
  0
LTYPE
  5
16
100
AcDbSymbolTableRecord
100
AcDbLinetypeTableRecord
  2
CONTINUOUS
 70
64
  3
Solid line
 72
65
 73
0
 40
0.0
  0
LTYPE
  5
1F5
100
AcDbSymbolTableRecord
100
AcDbLinetypeTableRecord
  2
CENTER
 70
64
  3
____ _ ____ _ ____ _ ____ _ ____ _ ____ _ ____
 72
65
 73
4
 40
0.6
 49
0.375
 74
0
 49
-0.075
 74
0
 49
0.075
 74
0
 49
-0.075
 74
0
  0
LTYPE
  5
1F6
100
AcDbSymbolTableRecord
100
AcDbLinetypeTableRecord
  2
HIDDEN
 70
64
  3
- - - - - - - - - - - - - - - - - - - -
 72
65
 73
2
 40
0.2
 49
0.1
 74
0
 49
-0.1
 74
0
  0
LTYPE
  5
1F7
100
AcDbSymbolTableRecord
100
AcDbLinetypeTableRecord
  2
PHANTOM
 70
64
  3
_____ _ _ _____ _ _ _____ _ _ _____
 72
65
 73
6
 40
0.8
 49
0.45
 74
0
 49
-0.05
 74
0
 49
0.1
 74
0
 49
-0.05
 74
0
 49
0.1
 74
0
 49
-0.05
 74
0
  0
LTYPE
  5
1F8
100
AcDbSymbolTableRecord
100
AcDbLinetypeTableRecord
  2
DOT
 70
64
  3
. . . . . . . . . . . . . . . . . . . .
 72
65
 73
2
 40
0.2
 49
0.1
 74
0
 49
-0.1
 74
0
  0
LTYPE
  5
1F9
100
AcDbSymbolTableRecord
100
AcDbLinetypeTableRecord
  2
DASHED
 70
64
  3
- - - - - - - - - - - - - - - - - - - -
 72
65
 73
2
 40
0.2
 49
0.1
 74
0
 49
-0.1
 74
0
  0
ENDTAB
  0
TABLE
  2
LAYER
  5
2
100
AcDbSymbolTable
 70
36
  0
LAYER
  5
10
100
AcDbSymbolTableRecord
100
AcDbLayerTableRecord
  2
0
 70
0
 62
7
  6
CONTINUOUS
370
-3
390
F
  0
LAYER
  5
1FA
100
AcDbSymbolTableRecord
100
AcDbLayerTableRecord
  2
DEFAULT_1
 70
0
 62
7
  6
CENTER
370
-3
390
F
  0
LAYER
  5
1FB
100
AcDbSymbolTableRecord
100
AcDbLayerTableRecord
  2
DEFAULT_2
 70
0
 62
8
  6
HIDDEN
370
-3
390
F
  0
LAYER
  5
1FC
100
AcDbSymbolTableRecord
100
AcDbLayerTableRecord
  2
DEFAULT_3
 70
0
 62
7
  6
PHANTOM
370
-3
390
F
  0
LAYER
  5
1FD
100
AcDbSymbolTableRecord
100
AcDbLayerTableRecord
  2
_BLACK_HOLE
 70
0
 62
7
  6
CONTINUOUS
370
-3
390
F
  0
LAYER
  5
1FE
100
AcDbSymbolTableRecord
100
AcDbLayerTableRecord
  2
01_ALL_DTM_PLN
 70
0
 62
7
  6
CONTINUOUS
370
-3
390
F
  0
LAYER
  5
1FF
100
AcDbSymbolTableRecord
100
AcDbLayerTableRecord
  2
01__ASM_ALL_DTM_PLN
 70
0
 62
7
  6
CONTINUOUS
370
-3
390
F
  0
LAYER
  5
200
100
AcDbSymbolTableRecord
100
AcDbLayerTableRecord
  2
01__ASM_DEF_DTM_PLN
 70
0
 62
7
  6
CONTINUOUS
370
-3
390
F
  0
LAYER
  5
201
100
AcDbSymbolTableRecord
100
AcDbLayerTableRecord
  2
01___PRT_ALL_DTM_PLN
 70
0
 62
7
  6
CONTINUOUS
370
-3
390
F
  0
LAYER
  5
202
100
AcDbSymbolTableRecord
100
AcDbLayerTableRecord
  2
01___PRT_DEF_DTM_PLN
 70
0
 62
7
  6
CONTINUOUS
370
-3
390
F
  0
LAYER
  5
203
100
AcDbSymbolTableRecord
100
AcDbLayerTableRecord
  2
02_ALL_AXES
 70
0
 62
7
  6
CONTINUOUS
370
-3
390
F
  0
LAYER
  5
204
100
AcDbSymbolTableRecord
100
AcDbLayerTableRecord
  2
02__ASM_ALL_AXES
 70
0
 62
7
  6
CONTINUOUS
370
-3
390
F
  0
LAYER
  5
205
100
AcDbSymbolTableRecord
100
AcDbLayerTableRecord
  2
02___PRT_ALL_AXES
 70
0
 62
7
  6
CONTINUOUS
370
-3
390
F
  0
LAYER
  5
206
100
AcDbSymbolTableRecord
100
AcDbLayerTableRecord
  2
03_ALL_CURVES
 70
0
 62
7
  6
CONTINUOUS
370
-3
390
F
  0
LAYER
  5
207
100
AcDbSymbolTableRecord
100
AcDbLayerTableRecord
  2
03__ASM_ALL_CURVES
 70
0
 62
7
  6
CONTINUOUS
370
-3
390
F
  0
LAYER
  5
208
100
AcDbSymbolTableRecord
100
AcDbLayerTableRecord
  2
03___PRT_ALL_CURVES
 70
0
 62
7
  6
CONTINUOUS
370
-3
390
F
  0
LAYER
  5
209
100
AcDbSymbolTableRecord
100
AcDbLayerTableRecord
  2
04_ALL_DTM_PNT
 70
0
 62
7
  6
CONTINUOUS
370
-3
390
F
  0
LAYER
  5
20A
100
AcDbSymbolTableRecord
100
AcDbLayerTableRecord
  2
04__ASM_ALL_DTM_PNT
 70
0
 62
7
  6
CONTINUOUS
370
-3
390
F
  0
LAYER
  5
20B
100
AcDbSymbolTableRecord
100
AcDbLayerTableRecord
  2
04___PRT_ALL_DTM_PNT
 70
0
 62
7
  6
CONTINUOUS
370
-3
390
F
  0
LAYER
  5
20C
100
AcDbSymbolTableRecord
100
AcDbLayerTableRecord
  2
05_ALL_DTM_CSYS
 70
0
 62
7
  6
CONTINUOUS
370
-3
390
F
  0
LAYER
  5
20D
100
AcDbSymbolTableRecord
100
AcDbLayerTableRecord
  2
05__ASM_ALL_DTM_CSYS
 70
0
 62
7
  6
CONTINUOUS
370
-3
390
F
  0
LAYER
  5
20E
100
AcDbSymbolTableRecord
100
AcDbLayerTableRecord
  2
05__ASM_DEF_DTM_CSYS
 70
0
 62
7
  6
CONTINUOUS
370
-3
390
F
  0
LAYER
  5
20F
100
AcDbSymbolTableRecord
100
AcDbLayerTableRecord
  2
05___PRT_ALL_DTM_CSYS
 70
0
 62
7
  6
CONTINUOUS
370
-3
390
F
  0
LAYER
  5
210
100
AcDbSymbolTableRecord
100
AcDbLayerTableRecord
  2
05___PRT_DEF_DTM_CSYS
 70
0
 62
7
  6
CONTINUOUS
370
-3
390
F
  0
LAYER
  5
211
100
AcDbSymbolTableRecord
100
AcDbLayerTableRecord
  2
06_ALL_SURFS
 70
0
 62
7
  6
CONTINUOUS
370
-3
390
F
  0
LAYER
  5
212
100
AcDbSymbolTableRecord
100
AcDbLayerTableRecord
  2
06__ASM_ALL_SURFS
 70
0
 62
7
  6
CONTINUOUS
370
-3
390
F
  0
LAYER
  5
213
100
AcDbSymbolTableRecord
100
AcDbLayerTableRecord
  2
06___PRT_ALL_SURFS
 70
0
 62
7
  6
CONTINUOUS
370
-3
390
F
  0
LAYER
  5
214
100
AcDbSymbolTableRecord
100
AcDbLayerTableRecord
  2
07__ASM_ALL_SKELETONS
 70
0
 62
7
  6
CONTINUOUS
370
-3
390
F
  0
LAYER
  5
215
100
AcDbSymbolTableRecord
100
AcDbLayerTableRecord
  2
126-300_HEX_FEATURES
 70
0
 62
7
  6
CONTINUOUS
370
-3
390
F
  0
LAYER
  5
216
100
AcDbSymbolTableRecord
100
AcDbLayerTableRecord
  2
126-300_REF_GEOMETRY
 70
0
 62
7
  6
CONTINUOUS
370
-3
390
F
  0
LAYER
  5
217
100
AcDbSymbolTableRecord
100
AcDbLayerTableRecord
  2
126-301_HEX_FEATURES
 70
0
 62
7
  6
CONTINUOUS
370
-3
390
F
  0
LAYER
  5
218
100
AcDbSymbolTableRecord
100
AcDbLayerTableRecord
  2
126-301_REF_GEOMETRY
 70
0
 62
7
  6
CONTINUOUS
370
-3
390
F
  0
LAYER
  5
219
100
AcDbSymbolTableRecord
100
AcDbLayerTableRecord
  2
126-302_HEX_FEATURES
 70
0
 62
7
  6
CONTINUOUS
370
-3
390
F
  0
LAYER
  5
21A
100
AcDbSymbolTableRecord
100
AcDbLayerTableRecord
  2
126-302_REF_GEOMETRY
 70
0
 62
7
  6
CONTINUOUS
370
-3
390
F
  0
LAYER
  5
21B
100
AcDbSymbolTableRecord
100
AcDbLayerTableRecord
  2
126-303_HEX_FEATURES
 70
0
 62
7
  6
CONTINUOUS
370
-3
390
F
  0
LAYER
  5
21C
100
AcDbSymbolTableRecord
100
AcDbLayerTableRecord
  2
126-303_REF_GEOMETRY
 70
0
 62
7
  6
CONTINUOUS
370
-3
390
F
  0
LAYER
  5
21D
100
AcDbSymbolTableRecord
100
AcDbLayerTableRecord
  2
BSPP_PORT_PER_S-186
 70
0
 62
7
  6
CONTINUOUS
370
-3
390
F
  0
LAYER
  5
21E
100
AcDbSymbolTableRecord
100
AcDbLayerTableRecord
  2
COPY_GEO_FET
 70
0
 62
7
  6
CONTINUOUS
370
-3
390
F
  0
LAYER
  5
21F
100
AcDbSymbolTableRecord
100
AcDbLayerTableRecord
  2
COSMETIC
 70
0
 62
7
  6
CONTINUOUS
370
-3
390
F
  0
LAYER
  5
220
100
AcDbSymbolTableRecord
100
AcDbLayerTableRecord
  2
COSMETICS
 70
0
 62
7
  6
CONTINUOUS
370
-3
390
F
  0
LAYER
  5
221
100
AcDbSymbolTableRecord
100
AcDbLayerTableRecord
  2
CUT_REF_SURF
 70
0
 62
7
  6
CONTINUOUS
370
-3
390
F
  0
LAYER
  5
222
100
AcDbSymbolTableRecord
100
AcDbLayerTableRecord
  2
DATUM
 70
0
 62
7
  6
CONTINUOUS
370
-3
390
F
  0
LAYER
  5
223
100
AcDbSymbolTableRecord
100
AcDbLayerTableRecord
  2
DATUMCURVES
 70
0
 62
7
  6
CONTINUOUS
370
-3
390
F
  0
LAYER
  5
224
100
AcDbSymbolTableRecord
100
AcDbLayerTableRecord
  2
DIMENSIONS
 70
0
 62
7
  6
CONTINUOUS
370
-3
390
F
  0
LAYER
  5
225
100
AcDbSymbolTableRecord
100
AcDbLayerTableRecord
  2
DTM230
 70
0
 62
7
  6
CONTINUOUS
370
-3
390
F
  0
LAYER
  5
226
100
AcDbSymbolTableRecord
100
AcDbLayerTableRecord
  2
DTM_500002
 70
0
 62
7
  6
CONTINUOUS
370
-3
390
F
  0
LAYER
  5
227
100
AcDbSymbolTableRecord
100
AcDbLayerTableRecord
  2
DTM_515002
 70
0
 62
7
  6
CONTINUOUS
370
-3
390
F
  0
LAYER
  5
228
100
AcDbSymbolTableRecord
100
AcDbLayerTableRecord
  2
DTM_SPRING_RH
 70
0
 62
7
  6
CONTINUOUS
370
-3
390
F
  0
LAYER
  5
229
100
AcDbSymbolTableRecord
100
AcDbLayerTableRecord
  2
DTM_SP_RH_CONSTR
 70
0
 62
7
  6
CONTINUOUS
370
-3
390
F
  0
LAYER
  5
22A
100
AcDbSymbolTableRecord
100
AcDbLayerTableRecord
  2
GEOMETRICTOLERANCES
 70
0
 62
7
  6
CONTINUOUS
370
-3
390
F
  0
LAYER
  5
22B
100
AcDbSymbolTableRecord
100
AcDbLayerTableRecord
  2
LAY0001
 70
0
 62
7
  6
CONTINUOUS
370
-3
390
F
  0
LAYER
  5
22C
100
AcDbSymbolTableRecord
100
AcDbLayerTableRecord
  2
NPTF_PORT_PER_S-164
 70
0
 62
7
  6
CONTINUOUS
370
-3
390
F
  0
LAYER
  5
22D
100
AcDbSymbolTableRecord
100
AcDbLayerTableRecord
  2
PARAMETERDIMENSIONS
 70
0
 62
7
  6
CONTINUOUS
370
-3
390
F
  0
LAYER
  5
22E
100
AcDbSymbolTableRecord
100
AcDbLayerTableRecord
  2
PLANE
 70
0
 62
7
  6
CONTINUOUS
370
-3
390
F
  0
LAYER
  5
22F
100
AcDbSymbolTableRecord
100
AcDbLayerTableRecord
  2
STD_SAE-4_PORT
 70
0
 62
7
  6
CONTINUOUS
370
-3
390
F
  0
LAYER
  5
230
100
AcDbSymbolTableRecord
100
AcDbLayerTableRecord
  2
T-8A_CAVITY
 70
0
 62
7
  6
CONTINUOUS
370
-3
390
F
  0
LAYER
  5
231
100
AcDbSymbolTableRecord
100
AcDbLayerTableRecord
  2
T-8A_CAVITY_REF_GEOMETRY
 70
0
 62
7
  6
CONTINUOUS
370
-3
390
F
  0
LAYER
  5
232
100
AcDbSymbolTableRecord
100
AcDbLayerTableRecord
  2
TEXT
 70
0
 62
7
  6
CONTINUOUS
370
-3
390
F
  0
LAYER
  5
233
100
AcDbSymbolTableRecord
100
AcDbLayerTableRecord
  2
THREAD
 70
0
 62
7
  6
CONTINUOUS
370
-3
390
F
  0
ENDTAB
  0
TABLE
  2
STYLE
  5
3
100
AcDbSymbolTable
 70
1
  0
STYLE
  5
11
100
AcDbSymbolTableRecord
100
AcDbTextStyleTableRecord
  2
STANDARD
 70
0
 40
0.0
 41
0.8
 50
0.0
 71
0
 42
0.2
  3
txt
  4

  0
ENDTAB
  0
TABLE
  2
VIEW
  5
6
100
AcDbSymbolTable
 70
0
  0
ENDTAB
  0
TABLE
  2
UCS
  5
7
100
AcDbSymbolTable
 70
0
  0
ENDTAB
  0
TABLE
  2
APPID
  5
9
100
AcDbSymbolTable
 70
1
  0
APPID
  5
234
100
AcDbSymbolTableRecord
100
AcDbRegAppTableRecord
  2
ACAD
 70
0
  0
ENDTAB
  0
TABLE
  2
BLOCK_RECORD
  5
1
100
AcDbSymbolTable
 70
0
  0
BLOCK_RECORD
  5
1F
100
AcDbSymbolTableRecord
100
AcDbBlockTableRecord
  2
*MODEL_SPACE
  0
BLOCK_RECORD
  5
1B
100
AcDbSymbolTableRecord
100
AcDbBlockTableRecord
  2
*PAPER_SPACE
  0
ENDTAB
  0
TABLE
  2
DIMSTYLE
  5
A
100
AcDbSymbolTable
 70
1
100
AcDbDimStyleTable
 71
0
  0
DIMSTYLE
105
235
100
AcDbSymbolTableRecord
100
AcDbDimStyleTableRecord
  2
STANDARD
 70
0
  3

  4

 40
1.0
 41
0.1875
 42
0.0625
 43
0.38
 44
0.18
 45
0.0
 46
0.0
 47
0.01
 48
0.01
140
0.15625
141
0.09
142
0.0
143
25.4
144
1.0
145
0.0
146
1.0
147
0.09
 71
0.0
 72
0.0
 73
1
 74
1
 75
0
 76
0
 77
0
 78
4
170
0
171
2
172
0
173
0
174
0
175
0
176
0
177
0
178
0
270
2
271
2
272
2
273
2
274
2
275
0
280
0
281
0
282
0
283
1
284
4
285
0
286
0
287
3
288
0
340
11
  0
ENDTAB
  0
ENDSEC
  0
SECTION
  2
BLOCKS
  0
BLOCK
  5
20
100
AcDbEntity
  8
0
100
AcDbBlockBegin
  2
*MODEL_SPACE
 70
0
 10
0.0
 20
0.0
 30
0.0
  3
*MODEL_SPACE
  1

  0
ENDBLK
  5
21
100
AcDbEntity
  8
0
100
AcDbBlockEnd
  0
BLOCK
  5
1C
100
AcDbEntity
  8
0
100
AcDbBlockBegin
  2
*PAPER_SPACE
 70
0
 10
0.0
 20
0.0
 30
0.0
  3
*PAPER_SPACE
  1

  0
ENDBLK
  5
1D
100
AcDbEntity
  8
0
100
AcDbBlockEnd
  0
ENDSEC
  0
SECTION
  2
ENTITIES
  0
LINE
  5
236
100
AcDbEntity
  8
0
100
AcDbLine
 62
7
  6
CONTINUOUS
 10
4.3343923497
 20
3.6162663282
 11
4.3007173247
 21
3.6745931826
  0
LINE
  5
237
100
AcDbEntity
  8
0
100
AcDbLine
 62
7
  6
CONTINUOUS
 10
4.3007173247
 20
3.6745931826
 11
4.3007173247
 21
4.5345931826
  0
LINE
  5
238
100
AcDbEntity
  8
03__ASM_ALL_CURVES
100
AcDbLine
 62
40
  6
CONTINUOUS
 10
4.3007173247
 20
4.5345931826
 11
4.3007173247
 21
5.0496791826
  0
LINE
  5
239
100
AcDbEntity
  8
0
100
AcDbLine
 62
7
  6
CONTINUOUS
 10
4.3347809905
 20
3.6155931826
 11
4.3347809905
 21
3.6164907101
  0
LINE
  5
23A
100
AcDbEntity
  8
0
100
AcDbLine
 62
7
  6
CONTINUOUS
 10
4.3347809905
 20
3.8348956551
 11
4.3347809905
 21
3.8861882376
  0
LINE
  5
23B
100
AcDbEntity
  8
0
100
AcDbLine
 62
7
  6
CONTINUOUS
 10
4.3347809905
 20
4.3229981276
 11
4.3347809905
 21
4.3742907101
  0
LINE
  5
23C
100
AcDbEntity
  8
0
100
AcDbLine
 62
7
  6
CONTINUOUS
 10
4.3347809905
 20
4.5926956551
 11
4.3347809905
 21
4.5935931826
  0
LINE
  5
23D
100
AcDbEntity
  8
03__ASM_ALL_CURVES
100
AcDbLine
 62
40
  6
CONTINUOUS
 10
4.3569673247
 20
5.0403041826
 11
4.3569673247
 21
5.0215541826
  0
LINE
  5
23E
100
AcDbEntity
  8
0
100
AcDbLine
 62
7
  6
CONTINUOUS
 10
4.3343923497
 20
4.592920037
 11
4.3007173247
 21
4.5345931826
  0
LINE
  5
23F
100
AcDbEntity
  8
03__ASM_ALL_CURVES
100
AcDbLine
 62
40
  6
CONTINUOUS
 10
4.7676548247
 20
5.0965541815
 11
4.7711704497
 21
5.1012416837
  0
LINE
  5
240
100
AcDbEntity
  8
03__ASM_ALL_CURVES
100
AcDbLine
 62
40
  6
CONTINUOUS
 10
4.7641391997
 20
5.0684291832
 11
4.7711704497
 21
5.0778041826
  0
LINE
  5
241
100
AcDbEntity
  8
03__ASM_ALL_CURVES
100
AcDbLine
 62
40
  6
CONTINUOUS
 10
4.7957798247
 20
5.0918666826
 11
4.7922641997
 21
5.0871791837
  0
LINE
  5
242
100
AcDbEntity
  8
03__ASM_ALL_CURVES
100
AcDbLine
 62
40
  6
CONTINUOUS
 10
4.7992954497
 20
5.0637416826
 11
4.7922641997
 21
5.0543666827
  0
LINE
  5
243
100
AcDbEntity
  8
03__ASM_ALL_CURVES
100
AcDbLine
 62
40
  6
CONTINUOUS
 10
4.8414829497
 20
5.1059291826
 11
4.8344516997
 21
5.0965541815
  0
LINE
  5
244
100
AcDbEntity
  8
03__ASM_ALL_CURVES
100
AcDbLine
 62
40
  6
CONTINUOUS
 10
4.7711704497
 20
5.1012416837
 11
4.7782016997
 21
5.1059291826
  0
LINE
  5
245
100
AcDbEntity
  8
03__ASM_ALL_CURVES
100
AcDbLine
 62
40
  6
CONTINUOUS
 10
4.6129673247
 20
5.1059291826
 11
4.6129673247
 21
5.0496791826
  0
LINE
  5
246
100
AcDbEntity
  8
03__ASM_ALL_CURVES
100
AcDbLine
 62
40
  6
CONTINUOUS
 10
4.6657016997
 20
5.0496791826
 11
4.6657016997
 21
5.0543666827
  0
LINE
  5
247
100
AcDbEntity
  8
03__ASM_ALL_CURVES
100
AcDbLine
 62
40
  6
CONTINUOUS
 10
4.8344516997
 20
5.0965541815
 11
4.8309360747
 21
5.0824916815
  0
LINE
  5
248
100
AcDbEntity
  8
03__ASM_ALL_CURVES
100
AcDbLine
 62
40
  6
CONTINUOUS
 10
4.8801548247
 20
5.0965541815
 11
4.8836704497
 21
5.1012416837
  0
LINE
  5
249
100
AcDbEntity
  8
03__ASM_ALL_CURVES
100
AcDbLine
 62
40
  6
CONTINUOUS
 10
4.8907016997
 20
5.073116682
 11
4.8836704497
 21
5.0637416826
  0
LINE
  5
24A
100
AcDbEntity
  8
03__ASM_ALL_CURVES
100
AcDbLine
 62
40
  6
CONTINUOUS
 10
4.9082798247
 20
5.0871791837
 11
4.9047641997
 21
5.0824916815
  0
LINE
  5
24B
100
AcDbEntity
  8
03__ASM_ALL_CURVES
100
AcDbLine
 62
40
  6
CONTINUOUS
 10
4.9399204497
 20
5.0965541815
 11
4.9434360747
 21
5.1012416837
  0
LINE
  5
24C
100
AcDbEntity
  8
03__ASM_ALL_CURVES
100
AcDbLine
 62
40
  6
CONTINUOUS
 10
4.9610141997
 20
5.0590541829
 11
4.9574985747
 21
5.0543666827
  0
LINE
  5
24D
100
AcDbEntity
  8
03__ASM_ALL_CURVES
100
AcDbLine
 62
40
  6
CONTINUOUS
 10
4.7711704497
 20
5.0778041826
 11
4.7782016997
 21
5.0824916815
  0
LINE
  5
24E
100
AcDbEntity
  8
03__ASM_ALL_CURVES
100
AcDbLine
 62
40
  6
CONTINUOUS
 10
4.7922641997
 20
5.0871791837
 11
4.7852329497
 21
5.0824916815
  0
LINE
  5
24F
100
AcDbEntity
  8
03__ASM_ALL_CURVES
100
AcDbLine
 62
40
  6
CONTINUOUS
 10
4.7922641997
 20
5.0543666827
 11
4.7852329497
 21
5.0496791826
  0
LINE
  5
250
100
AcDbEntity
  8
03__ASM_ALL_CURVES
100
AcDbLine
 62
40
  6
CONTINUOUS
 10
4.8836704497
 20
5.1012416837
 11
4.8907016997
 21
5.1059291826
  0
LINE
  5
251
100
AcDbEntity
  8
03__ASM_ALL_CURVES
100
AcDbLine
 62
40
  6
CONTINUOUS
 10
4.9047641997
 20
5.0824916815
 11
4.8907016997
 21
5.073116682
  0
LINE
  5
252
100
AcDbEntity
  8
03__ASM_ALL_CURVES
100
AcDbLine
 62
40
  6
CONTINUOUS
 10
4.9434360747
 20
5.1012416837
 11
4.9504673247
 21
5.1059291826
  0
LINE
  5
253
100
AcDbEntity
  8
0
100
AcDbLine
 62
7
  6
CONTINUOUS
 10
4.7082173247
 20
3.6155931826
 11
4.7082173247
 21
3.6164907101
  0
LINE
  5
254
100
AcDbEntity
  8
0
100
AcDbLine
 62
7
  6
CONTINUOUS
 10
4.7082173247
 20
3.8348956551
 11
4.7082173247
 21
3.8861882376
  0
LINE
  5
255
100
AcDbEntity
  8
0
100
AcDbLine
 62
7
  6
CONTINUOUS
 10
4.7082173247
 20
4.3229981276
 11
4.7082173247
 21
4.3742907101
  0
LINE
  5
256
100
AcDbEntity
  8
0
100
AcDbLine
 62
7
  6
CONTINUOUS
 10
4.7082173247
 20
4.5926956551
 11
4.7082173247
 21
4.5935931826
  0
LINE
  5
257
100
AcDbEntity
  8
03__ASM_ALL_CURVES
100
AcDbLine
 62
40
  6
CONTINUOUS
 10
4.7254673247
 20
5.1059291826
 11
4.7254673247
 21
5.0496791826
  0
LINE
  5
258
100
AcDbEntity
  8
03__ASM_ALL_CURVES
100
AcDbLine
 62
40
  6
CONTINUOUS
 10
4.7641391997
 20
5.0637416826
 11
4.7641391997
 21
5.0684291832
  0
LINE
  5
259
100
AcDbEntity
  8
03__ASM_ALL_CURVES
100
AcDbLine
 62
40
  6
CONTINUOUS
 10
4.7676548247
 20
5.0918666826
 11
4.7676548247
 21
5.0965541815
  0
LINE
  5
25A
100
AcDbEntity
  8
0
100
AcDbLine
 62
7
  6
CONTINUOUS
 10
4.7687173247
 20
3.6760931826
 11
4.7687173247
 21
4.5330931826
  0
LINE
  5
25B
100
AcDbEntity
  8
03__ASM_ALL_CURVES
100
AcDbLine
 62
40
  6
CONTINUOUS
 10
4.8836704497
 20
5.0637416826
 11
4.8801548247
 21
5.0496791826
  0
LINE
  5
25C
100
AcDbEntity
  8
03__ASM_ALL_CURVES
100
AcDbLine
 62
40
  6
CONTINUOUS
 10
4.9364048247
 20
5.0871791837
 11
4.9399204497
 21
5.0965541815
  0
LINE
  5
25D
100
AcDbEntity
  8
03__ASM_ALL_CURVES
100
AcDbLine
 62
40
  6
CONTINUOUS
 10
4.9645298247
 20
5.0871791837
 11
4.9610141997
 21
5.0778041826
  0
LINE
  5
25E
100
AcDbEntity
  8
03__ASM_ALL_CURVES
100
AcDbLine
 62
40
  6
CONTINUOUS
 10
4.9645298247
 20
5.0684291832
 11
4.9610141997
 21
5.0590541829
  0
LINE
  5
25F
100
AcDbEntity
  8
03__ASM_ALL_CURVES
100
AcDbLine
 62
40
  6
CONTINUOUS
 10
5.0524204497
 20
5.0965541815
 11
5.0559360747
 21
5.1012416837
  0
LINE
  5
260
100
AcDbEntity
  8
03__ASM_ALL_CURVES
100
AcDbLine
 62
40
  6
CONTINUOUS
 10
5.0735141997
 20
5.0590541829
 11
5.0699985747
 21
5.0543666827
  0
LINE
  5
261
100
AcDbEntity
  8
03__ASM_ALL_CURVES
100
AcDbLine
 62
40
  6
CONTINUOUS
 10
4.9574985747
 20
5.0543666827
 11
4.9504673247
 21
5.0496791826
  0
LINE
  5
262
100
AcDbEntity
  8
03__ASM_ALL_CURVES
100
AcDbLine
 62
40
  6
CONTINUOUS
 10
5.0559360747
 20
5.1012416837
 11
5.0629673247
 21
5.1059291826
  0
LINE
  5
263
100
AcDbEntity
  8
03__ASM_ALL_CURVES
100
AcDbLine
 62
40
  6
CONTINUOUS
 10
5.0699985747
 20
5.0543666827
 11
5.0629673247
 21
5.0496791826
  0
LINE
  5
264
100
AcDbEntity
  8
03__ASM_ALL_CURVES
100
AcDbLine
 62
40
  6
CONTINUOUS
 10
4.9610141997
 20
5.0778041826
 11
4.9504673247
 21
5.073116682
  0
LINE
  5
265
100
AcDbEntity
  8
03__ASM_ALL_CURVES
100
AcDbLine
 62
40
  6
CONTINUOUS
 10
5.0735141997
 20
5.0778041826
 11
5.0629673247
 21
5.073116682
  0
LINE
  5
266
100
AcDbEntity
  8
03__ASM_ALL_CURVES
100
AcDbLine
 62
40
  6
CONTINUOUS
 10
5.1715747508
 20
3.4684056826
 11
5.1663013133
 21
3.4719213077
  0
LINE
  5
267
100
AcDbEntity
  8
03__ASM_ALL_CURVES
100
AcDbLine
 62
40
  6
CONTINUOUS
 10
5.1346606883
 20
3.5105931826
 11
5.1399341258
 21
3.5070775584
  0
LINE
  5
268
100
AcDbEntity
  8
03__ASM_ALL_CURVES
100
AcDbLine
 62
40
  6
CONTINUOUS
 10
4.7957798247
 20
5.0965541815
 11
4.7957798247
 21
5.0918666826
  0
LINE
  5
269
100
AcDbEntity
  8
03__ASM_ALL_CURVES
100
AcDbLine
 62
40
  6
CONTINUOUS
 10
4.7992954497
 20
5.0684291832
 11
4.7992954497
 21
5.0637416826
  0
LINE
  5
26A
100
AcDbEntity
  8
03__ASM_ALL_CURVES
100
AcDbLine
 62
40
  6
CONTINUOUS
 10
4.8309360747
 20
5.0824916815
 11
4.8309360747
 21
5.073116682
  0
LINE
  5
26B
100
AcDbEntity
  8
0
100
AcDbLine
 62
7
  6
CONTINUOUS
 10
4.8937173247
 20
3.6760931826
 11
4.8937173247
 21
4.5330931826
  0
LINE
  5
26C
100
AcDbEntity
  8
03__ASM_ALL_CURVES
100
AcDbLine
 62
40
  6
CONTINUOUS
 10
5.0489048247
 20
5.0871791837
 11
5.0524204497
 21
5.0965541815
  0
LINE
  5
26D
100
AcDbEntity
  8
03__ASM_ALL_CURVES
100
AcDbLine
 62
40
  6
CONTINUOUS
 10
5.0770298247
 20
5.0871791837
 11
5.0735141997
 21
5.0778041826
  0
LINE
  5
26E
100
AcDbEntity
  8
03__ASM_ALL_CURVES
100
AcDbLine
 62
40
  6
CONTINUOUS
 10
5.0770298247
 20
5.0684291832
 11
5.0735141997
 21
5.0590541829
  0
LINE
  5
26F
100
AcDbEntity
  8
03__ASM_ALL_CURVES
100
AcDbLine
 62
40
  6
CONTINUOUS
 10
5.1262485747
 20
5.0871791837
 11
5.1332798247
 21
5.1059291826
  0
LINE
  5
270
100
AcDbEntity
  8
03__ASM_ALL_CURVES
100
AcDbLine
 62
40
  6
CONTINUOUS
 10
5.1789829497
 20
5.0590541829
 11
5.1719516997
 21
5.0496791826
  0
LINE
  5
271
100
AcDbEntity
  8
03__ASM_ALL_CURVES
100
AcDbLine
 62
40
  6
CONTINUOUS
 10
5.1768481883
 20
3.5105931826
 11
5.1821216258
 21
3.5070775584
  0
LINE
  5
272
100
AcDbEntity
  8
03__ASM_ALL_CURVES
100
AcDbLine
 62
40
  6
CONTINUOUS
 10
5.2190356883
 20
3.5105931826
 11
5.2243091258
 21
3.5070775584
  0
LINE
  5
273
100
AcDbEntity
  8
03__ASM_ALL_CURVES
100
AcDbLine
 62
40
  6
CONTINUOUS
 10
5.2981372508
 20
3.4684056826
 11
5.2928638133
 21
3.4719213077
  0
LINE
  5
274
100
AcDbEntity
  8
03__ASM_ALL_CURVES
100
AcDbLine
 62
40
  6
CONTINUOUS
 10
5.3034106883
 20
3.4930150568
 11
5.3086841258
 21
3.4894994326
  0
LINE
  5
275
100
AcDbEntity
  8
03__ASM_ALL_CURVES
100
AcDbLine
 62
40
  6
CONTINUOUS
 10
5.3034106883
 20
3.5105931826
 11
5.3086841258
 21
3.5070775584
  0
LINE
  5
276
100
AcDbEntity
  8
03__ASM_ALL_CURVES
100
AcDbLine
 62
40
  6
CONTINUOUS
 10
5.1399341258
 20
3.5070775584
 11
5.1425708446
 21
3.5035619318
  0
LINE
  5
277
100
AcDbEntity
  8
03__ASM_ALL_CURVES
100
AcDbLine
 62
40
  6
CONTINUOUS
 10
5.1663013133
 20
3.4719213077
 11
5.1610278758
 21
3.4789525576
  0
LINE
  5
278
100
AcDbEntity
  8
03__ASM_ALL_CURVES
100
AcDbLine
 62
40
  6
CONTINUOUS
 10
5.1821216258
 20
3.5070775584
 11
5.1873950633
 21
3.5000463076
  0
LINE
  5
279
100
AcDbEntity
  8
03__ASM_ALL_CURVES
100
AcDbLine
 62
40
  6
CONTINUOUS
 10
5.2243091258
 20
3.5070775584
 11
5.2269458446
 21
3.5035619318
  0
LINE
  5
27A
100
AcDbEntity
  8
03__ASM_ALL_CURVES
100
AcDbLine
 62
40
  6
CONTINUOUS
 10
4.9082798247
 20
5.0965541815
 11
4.9082798247
 21
5.0871791837
  0
LINE
  5
27B
100
AcDbEntity
  8
0
100
AcDbLine
 62
7
  6
CONTINUOUS
 10
4.9437173247
 20
3.6765938333
 11
4.9437173247
 21
4.5325925319
  0
LINE
  5
27C
100
AcDbEntity
  8
03__ASM_ALL_CURVES
100
AcDbLine
 62
40
  6
CONTINUOUS
 10
4.9645298247
 20
5.0871791837
 11
4.9645298247
 21
5.0684291832
  0
LINE
  5
27D
100
AcDbEntity
  8
03__ASM_ALL_CURVES
100
AcDbLine
 62
40
  6
CONTINUOUS
 10
5.0032016997
 20
5.0496791826
 11
5.0032016997
 21
5.0543666827
  0
LINE
  5
27E
100
AcDbEntity
  8
0
100
AcDbLine
 62
7
  6
CONTINUOUS
 10
5.0137173247
 20
4.5135931826
 11
5.0137173247
 21
3.6955931826
  0
LINE
  5
27F
100
AcDbEntity
  8
03__ASM_ALL_CURVES
100
AcDbLine
 62
40
  6
CONTINUOUS
 10
5.1192173247
 20
5.0496791826
 11
5.1227329497
 21
5.073116682
  0
LINE
  5
280
100
AcDbEntity
  8
03__ASM_ALL_CURVES
100
AcDbLine
 62
40
  6
CONTINUOUS
 10
5.1227329497
 20
5.073116682
 11
5.1262485747
 21
5.0871791837
  0
LINE
  5
281
100
AcDbEntity
  8
03__ASM_ALL_CURVES
100
AcDbLine
 62
40
  6
CONTINUOUS
 10
5.1824985747
 20
5.073116682
 11
5.1789829497
 21
5.0590541829
  0
LINE
  5
282
100
AcDbEntity
  8
03__ASM_ALL_CURVES
100
AcDbLine
 62
40
  6
CONTINUOUS
 10
6.3981665313
 20
3.4684056826
 11
6.3928930938
 21
3.4684056826
  0
LINE
  5
283
100
AcDbEntity
  8
03__ASM_ALL_CURVES
100
AcDbLine
 62
40
  6
CONTINUOUS
 10
5.3034106883
 20
3.4684056826
 11
5.2981372508
 21
3.4684056826
  0
LINE
  5
284
100
AcDbEntity
  8
03__ASM_ALL_CURVES
100
AcDbLine
 62
40
  6
CONTINUOUS
 10
5.1768481883
 20
3.4684056826
 11
5.1715747508
 21
3.4684056826
  0
LINE
  5
285
100
AcDbEntity
  8
03__ASM_ALL_CURVES
100
AcDbLine
 62
40
  6
CONTINUOUS
 10
6.5115454376
 20
3.4684056826
 11
6.5326391876
 21
3.4684056826
  0
LINE
  5
286
100
AcDbEntity
  8
03__ASM_ALL_CURVES
100
AcDbLine
 62
40
  6
CONTINUOUS
 10
6.4403540313
 20
3.4894994326
 11
6.4271704376
 21
3.4894994326
  0
LINE
  5
287
100
AcDbEntity
  8
03__ASM_ALL_CURVES
100
AcDbLine
 62
40
  6
CONTINUOUS
 10
6.3559790313
 20
3.4894994326
 11
6.3427954376
 21
3.4894994326
  0
LINE
  5
288
100
AcDbEntity
  8
03__ASM_ALL_CURVES
100
AcDbLine
 62
40
  6
CONTINUOUS
 10
5.2190356883
 20
3.4894994326
 11
5.2058520946
 21
3.4894994326
  0
LINE
  5
289
100
AcDbEntity
  8
03__ASM_ALL_CURVES
100
AcDbLine
 62
40
  6
CONTINUOUS
 10
5.1346606883
 20
3.4894994326
 11
5.1214770946
 21
3.4894994326
  0
LINE
  5
28A
100
AcDbEntity
  8
03__ASM_ALL_CURVES
100
AcDbLine
 62
40
  6
CONTINUOUS
 10
5.2981372508
 20
3.4930150568
 11
5.3034106883
 21
3.4930150568
  0
LINE
  5
28B
100
AcDbEntity
  8
03__ASM_ALL_CURVES
100
AcDbLine
 62
40
  6
CONTINUOUS
 10
5.2928638133
 20
3.4719213077
 11
5.2902270946
 21
3.4754369328
  0
LINE
  5
28C
100
AcDbEntity
  8
03__ASM_ALL_CURVES
100
AcDbLine
 62
40
  6
CONTINUOUS
 10
5.3086841258
 20
3.4894994326
 11
5.3139575633
 21
3.482468183
  0
LINE
  5
28D
100
AcDbEntity
  8
03__ASM_ALL_CURVES
100
AcDbLine
 62
40
  6
CONTINUOUS
 10
5.3086841258
 20
3.5070775584
 11
5.3113208446
 21
3.5035619318
  0
LINE
  5
28E
100
AcDbEntity
  8
03__ASM_ALL_CURVES
100
AcDbLine
 62
40
  6
CONTINUOUS
 10
5.2190356883
 20
3.4894994326
 11
5.2269458446
 21
3.4684056826
  0
LINE
  5
28F
100
AcDbEntity
  8
03__ASM_ALL_CURVES
100
AcDbLine
 62
40
  6
CONTINUOUS
 10
5.1610278758
 20
3.4789525576
 11
5.1583911571
 21
3.4894994326
  0
LINE
  5
290
100
AcDbEntity
  8
03__ASM_ALL_CURVES
100
AcDbLine
 62
40
  6
CONTINUOUS
 10
5.1873950633
 20
3.5000463076
 11
5.1900317821
 21
3.4894994326
  0
LINE
  5
291
100
AcDbEntity
  8
0
100
AcDbLine
 62
7
  6
CONTINUOUS
 10
5.0217173247
 20
3.7305931826
 11
5.0217173247
 21
4.4785931826
  0
LINE
  5
292
100
AcDbEntity
  8
0
100
AcDbLine
 62
7
  6
CONTINUOUS
 10
5.0347173247
 20
3.6760931826
 11
5.0347173247
 21
4.5330931826
  0
LINE
  5
293
100
AcDbEntity
  8
03__ASM_ALL_CURVES
100
AcDbLine
 62
40
  6
CONTINUOUS
 10
5.0770298247
 20
5.0871791837
 11
5.0770298247
 21
5.0684291832
  0
LINE
  5
294
100
AcDbEntity
  8
0
100
AcDbLine
 62
7
  6
CONTINUOUS
 10
5.0847173247
 20
3.6760931826
 11
5.0847173247
 21
4.5330931826
  0
LINE
  5
295
100
AcDbEntity
  8
0
100
AcDbLine
 62
7
  6
CONTINUOUS
 10
5.1076269806
 20
3.7615931826
 11
5.1076269806
 21
4.4475931826
  0
LINE
  5
296
100
AcDbEntity
  8
03__ASM_ALL_CURVES
100
AcDbLine
 62
40
  6
CONTINUOUS
 10
5.1214770946
 20
3.4684056826
 11
5.1214770946
 21
3.5105931826
  0
LINE
  5
297
100
AcDbEntity
  8
03__ASM_ALL_CURVES
100
AcDbLine
 62
40
  6
CONTINUOUS
 10
5.62248295
 20
5.1012416837
 11
5.6295142
 21
5.1059291826
  0
LINE
  5
298
100
AcDbEntity
  8
03__ASM_ALL_CURVES
100
AcDbLine
 62
40
  6
CONTINUOUS
 10
5.67873295
 20
5.1012416837
 11
5.6857642
 21
5.1059291826
  0
LINE
  5
299
100
AcDbEntity
  8
03__ASM_ALL_CURVES
100
AcDbLine
 62
40
  6
CONTINUOUS
 10
5.6435767
 20
5.0543666827
 11
5.63654545
 21
5.0496791826
  0
LINE
  5
29A
100
AcDbEntity
  8
03__ASM_ALL_CURVES
100
AcDbLine
 62
40
  6
CONTINUOUS
 10
5.6998267
 20
5.0543666827
 11
5.69279545
 21
5.0496791826
  0
LINE
  5
29B
100
AcDbEntity
  8
03__ASM_ALL_CURVES
100
AcDbLine
 62
40
  6
CONTINUOUS
 10
5.1214770946
 20
3.5105931826
 11
5.1346606883
 21
3.5105931826
  0
LINE
  5
29C
100
AcDbEntity
  8
03__ASM_ALL_CURVES
100
AcDbLine
 62
40
  6
CONTINUOUS
 10
5.1715747508
 20
3.5105931826
 11
5.1768481883
 21
3.5105931826
  0
LINE
  5
29D
100
AcDbEntity
  8
03__ASM_ALL_CURVES
100
AcDbLine
 62
40
  6
CONTINUOUS
 10
5.2058520946
 20
3.5105931826
 11
5.2190356883
 21
3.5105931826
  0
LINE
  5
29E
100
AcDbEntity
  8
03__ASM_ALL_CURVES
100
AcDbLine
 62
40
  6
CONTINUOUS
 10
5.2454028758
 20
3.5105931826
 11
5.2717700633
 21
3.5105931826
  0
LINE
  5
29F
100
AcDbEntity
  8
03__ASM_ALL_CURVES
100
AcDbLine
 62
40
  6
CONTINUOUS
 10
5.2981372508
 20
3.5105931826
 11
5.3034106883
 21
3.5105931826
  0
LINE
  5
2A0
100
AcDbEntity
  8
03__ASM_ALL_CURVES
100
AcDbLine
 62
40
  6
CONTINUOUS
 10
6.3427954376
 20
3.5105931826
 11
6.3559790313
 21
3.5105931826
  0
LINE
  5
2A1
100
AcDbEntity
  8
03__ASM_ALL_CURVES
100
AcDbLine
 62
40
  6
CONTINUOUS
 10
6.3928930938
 20
3.5105931826
 11
6.3981665313
 21
3.5105931826
  0
LINE
  5
2A2
100
AcDbEntity
  8
03__ASM_ALL_CURVES
100
AcDbLine
 62
40
  6
CONTINUOUS
 10
6.4271704376
 20
3.5105931826
 11
6.4403540313
 21
3.5105931826
  0
LINE
  5
2A3
100
AcDbEntity
  8
03__ASM_ALL_CURVES
100
AcDbLine
 62
40
  6
CONTINUOUS
 10
6.4667212188
 20
3.5105931826
 11
6.4930884063
 21
3.5105931826
  0
LINE
  5
2A4
100
AcDbEntity
  8
03__ASM_ALL_CURVES
100
AcDbLine
 62
40
  6
CONTINUOUS
 10
6.5194555938
 20
3.5105931826
 11
6.5247290313
 21
3.5105931826
  0
LINE
  5
2A5
100
AcDbEntity
  8
0
100
AcDbLine
 62
7
  6
CONTINUOUS
 10
4.7082173247
 20
3.6155931826
 11
4.3347809905
 21
3.6155931826
  0
LINE
  5
2A6
100
AcDbEntity
  8
0
100
AcDbLine
 62
7
  6
CONTINUOUS
 10
4.7082173247
 20
3.6164907101
 11
4.3347809905
 21
3.6164907101
  0
LINE
  5
2A7
100
AcDbEntity
  8
03__ASM_ALL_CURVES
100
AcDbLine
 62
40
  6
CONTINUOUS
 10
4.8309360747
 20
5.073116682
 11
4.8344516997
 21
5.0590541829
  0
LINE
  5
2A8
100
AcDbEntity
  8
03__ASM_ALL_CURVES
100
AcDbLine
 62
40
  6
CONTINUOUS
 10
5.1425708446
 20
3.5035619318
 11
5.1425708446
 21
3.4965306834
  0
LINE
  5
2A9
100
AcDbEntity
  8
03__ASM_ALL_CURVES
100
AcDbLine
 62
40
  6
CONTINUOUS
 10
5.1824985747
 20
5.0824916815
 11
5.1824985747
 21
5.073116682
  0
LINE
  5
2AA
100
AcDbEntity
  8
03__ASM_ALL_CURVES
100
AcDbLine
 62
40
  6
CONTINUOUS
 10
5.2058520946
 20
3.4684056826
 11
5.2058520946
 21
3.5105931826
  0
LINE
  5
2AB
100
AcDbEntity
  8
03__ASM_ALL_CURVES
100
AcDbLine
 62
40
  6
CONTINUOUS
 10
5.2269458446
 20
3.5035619318
 11
5.2269458446
 21
3.4965306834
  0
LINE
  5
2AC
100
AcDbEntity
  8
03__ASM_ALL_CURVES
100
AcDbLine
 62
40
  6
CONTINUOUS
 10
5.6154517
 20
5.0918666826
 11
5.62248295
 21
5.1012416837
  0
LINE
  5
2AD
100
AcDbEntity
  8
03__ASM_ALL_CURVES
100
AcDbLine
 62
40
  6
CONTINUOUS
 10
5.65060795
 20
5.0637416826
 11
5.6435767
 21
5.0543666827
  0
LINE
  5
2AE
100
AcDbEntity
  8
03__ASM_ALL_CURVES
100
AcDbLine
 62
40
  6
CONTINUOUS
 10
5.6717017
 20
5.0918666826
 11
5.67873295
 21
5.1012416837
  0
LINE
  5
2AF
100
AcDbEntity
  8
03__ASM_ALL_CURVES
100
AcDbLine
 62
40
  6
CONTINUOUS
 10
5.95998295
 20
5.1012416837
 11
5.9670142
 21
5.1059291826
  0
LINE
  5
2B0
100
AcDbEntity
  8
0
100
AcDbLine
 62
7
  6
CONTINUOUS
 10
5.4877173247
 20
3.6760931826
 11
5.4327173247
 21
3.6760931826
  0
LINE
  5
2B1
100
AcDbEntity
  8
0
100
AcDbLine
 62
7
  6
CONTINUOUS
 10
5.0847173247
 20
3.6760931826
 11
5.0347173247
 21
3.6760931826
  0
LINE
  5
2B2
100
AcDbEntity
  8
0
100
AcDbLine
 62
7
  6
CONTINUOUS
 10
4.8937173247
 20
3.6760931826
 11
4.7687173247
 21
3.6760931826
  0
LINE
  5
2B3
100
AcDbEntity
  8
0
100
AcDbLine
 62
7
  6
CONTINUOUS
 10
4.8937173247
 20
3.6765931826
 11
4.9437173247
 21
3.6765931826
  0
LINE
  5
2B4
100
AcDbEntity
  8
THREAD
100
AcDbLine
 62
7
  6
CONTINUOUS
 10
5.5347173247
 20
3.6995931826
 11
5.5033057819
 21
3.6995931826
  0
LINE
  5
2B5
100
AcDbEntity
  8
0
100
AcDbLine
 62
7
  6
CONTINUOUS
 10
5.6047173247
 20
3.7000931826
 11
5.6547173247
 21
3.7000931826
  0
LINE
  5
2B6
100
AcDbEntity
  8
THREAD
100
AcDbLine
 62
7
  6
CONTINUOUS
 10
5.9432173247
 20
3.7170931826
 11
5.6960792846
 21
3.7170931826
  0
LINE
  5
2B7
100
AcDbEntity
  8
0
100
AcDbLine
 62
7
  6
CONTINUOUS
 10
5.0217173247
 20
3.7305931826
 11
5.0137173247
 21
3.7305931826
  0
LINE
  5
2B8
100
AcDbEntity
  8
0
100
AcDbLine
 62
7
  6
CONTINUOUS
 10
4.7687173247
 20
4.5330931826
 11
4.7086660884
 21
4.5931444188
  0
LINE
  5
2B9
100
AcDbEntity
  8
0
100
AcDbLine
 62
7
  6
CONTINUOUS
 10
5.1076269806
 20
4.4475931826
 11
5.0847173247
 21
4.5330931826
  0
LINE
  5
2BA
100
AcDbEntity
  8
03__ASM_ALL_CURVES
100
AcDbLine
 62
40
  6
CONTINUOUS
 10
5.2585864696
 20
3.5105931826
 11
5.2585864696
 21
3.4684056826
  0
LINE
  5
2BB
100
AcDbEntity
  8
03__ASM_ALL_CURVES
100
AcDbLine
 62
40
  6
CONTINUOUS
 10
5.3113208446
 20
3.5035619318
 11
5.3113208446
 21
3.5000463076
  0
LINE
  5
2BC
100
AcDbEntity
  8
03__ASM_ALL_CURVES
100
AcDbLine
 62
40
  6
CONTINUOUS
 10
5.3139575633
 20
3.482468183
 11
5.3139575633
 21
3.4789525576
  0
LINE
  5
2BD
100
AcDbEntity
  8
0
100
AcDbLine
 62
7
  6
CONTINUOUS
 10
5.1076269806
 20
3.7615931826
 11
5.0847173247
 21
3.6760931826
  0
LINE
  5
2BE
100
AcDbEntity
  8
03__ASM_ALL_CURVES
100
AcDbLine
 62
40
  6
CONTINUOUS
 10
5.703342325
 20
5.0590541829
 11
5.6998267
 21
5.0543666827
  0
LINE
  5
2BF
100
AcDbEntity
  8
03__ASM_ALL_CURVES
100
AcDbLine
 62
40
  6
CONTINUOUS
 10
5.9810767
 20
5.0543666827
 11
5.97404545
 21
5.0496791826
  0
LINE
  5
2C0
100
AcDbEntity
  8
03__ASM_ALL_CURVES
100
AcDbLine
 62
40
  6
CONTINUOUS
 10
6.0795142
 20
5.1059291826
 11
6.07248295
 21
5.1012416837
  0
LINE
  5
2C1
100
AcDbEntity
  8
03__ASM_ALL_CURVES
100
AcDbLine
 62
40
  6
CONTINUOUS
 10
6.0935767
 20
5.0543666827
 11
6.08654545
 21
5.0496791826
  0
LINE
  5
2C2
100
AcDbEntity
  8
03__ASM_ALL_CURVES
100
AcDbLine
 62
40
  6
CONTINUOUS
 10
6.18498295
 20
5.1012416837
 11
6.1920142
 21
5.1059291826
  0
LINE
  5
2C3
100
AcDbEntity
  8
THREAD
100
AcDbLine
 62
7
  6
CONTINUOUS
 10
5.6672117712
 20
3.7540931826
 11
5.6547173247
 21
3.7540931826
  0
LINE
  5
2C4
100
AcDbEntity
  8
THREAD
100
AcDbLine
 62
7
  6
CONTINUOUS
 10
6.1657173247
 20
3.7615931826
 11
5.9877173247
 21
3.7615931826
  0
LINE
  5
2C5
100
AcDbEntity
  8
0
100
AcDbLine
 62
7
  6
CONTINUOUS
 10
5.4098076687
 20
3.7615931826
 11
5.1076269806
 21
3.7615931826
  0
LINE
  5
2C6
100
AcDbEntity
  8
0
100
AcDbLine
 62
7
  6
CONTINUOUS
 10
6.5937173247
 20
3.7620931826
 11
6.6537173247
 21
3.7620931826
  0
LINE
  5
2C7
100
AcDbEntity
  8
0
100
AcDbLine
 62
7
  6
CONTINUOUS
 10
6.7947173247
 20
3.7620931826
 11
6.8487173247
 21
3.7620931826
  0
LINE
  5
2C8
100
AcDbEntity
  8
0
100
AcDbLine
 62
7
  6
CONTINUOUS
 10
6.7237173247
 20
3.7625931826
 11
6.7737173247
 21
3.7625931826
  0
LINE
  5
2C9
100
AcDbEntity
  8
0
100
AcDbLine
 62
7
  6
CONTINUOUS
 10
6.7947173247
 20
3.8165931826
 11
6.7737173247
 21
3.8165931826
  0
LINE
  5
2CA
100
AcDbEntity
  8
0
100
AcDbLine
 62
7
  6
CONTINUOUS
 10
6.5807173247
 20
3.8240931826
 11
6.5642173247
 21
3.8240931826
  0
LINE
  5
2CB
100
AcDbEntity
  8
0
100
AcDbLine
 62
7
  6
CONTINUOUS
 10
6.4552173247
 20
3.8240931826
 11
6.1757173247
 21
3.8240931826
  0
LINE
  5
2CC
100
AcDbEntity
  8
0
100
AcDbLine
 62
7
  6
CONTINUOUS
 10
4.7082173247
 20
3.8348956551
 11
4.3347809905
 21
3.8348956551
  0
LINE
  5
2CD
100
AcDbEntity
  8
03__ASM_ALL_CURVES
100
AcDbLine
 62
40
  6
CONTINUOUS
 10
4.6657016997
 20
5.0543666827
 11
4.6692173247
 21
5.0496791826
  0
LINE
  5
2CE
100
AcDbEntity
  8
03__ASM_ALL_CURVES
100
AcDbLine
 62
40
  6
CONTINUOUS
 10
4.9399204497
 20
5.0778041826
 11
4.9364048247
 21
5.0871791837
  0
LINE
  5
2CF
100
AcDbEntity
  8
03__ASM_ALL_CURVES
100
AcDbLine
 62
40
  6
CONTINUOUS
 10
4.9610141997
 20
5.0965541815
 11
4.9645298247
 21
5.0871791837
  0
LINE
  5
2D0
100
AcDbEntity
  8
0
100
AcDbLine
 62
7
  6
CONTINUOUS
 10
5.4327173247
 20
3.6760931826
 11
5.4098076687
 21
3.7615931826
  0
LINE
  5
2D1
100
AcDbEntity
  8
0
100
AcDbLine
 62
7
  6
CONTINUOUS
 10
5.4098076687
 20
3.7615931826
 11
5.4098076687
 21
4.4475931826
  0
LINE
  5
2D2
100
AcDbEntity
  8
03__ASM_ALL_CURVES
100
AcDbLine
 62
40
  6
CONTINUOUS
 10
5.4314673247
 20
5.0403041826
 11
5.4314673247
 21
5.0215541826
  0
LINE
  5
2D3
100
AcDbEntity
  8
0
100
AcDbLine
 62
7
  6
CONTINUOUS
 10
5.4327173247
 20
3.6760931826
 11
5.4327173247
 21
4.5330931826
  0
LINE
  5
2D4
100
AcDbEntity
  8
03__ASM_ALL_CURVES
100
AcDbLine
 62
40
  6
CONTINUOUS
 10
5.1583911571
 20
3.4894994326
 11
5.1610278758
 21
3.5000463076
  0
LINE
  5
2D5
100
AcDbEntity
  8
03__ASM_ALL_CURVES
100
AcDbLine
 62
40
  6
CONTINUOUS
 10
5.1900317821
 20
3.4894994326
 11
5.1873950633
 21
3.4789525576
  0
LINE
  5
2D6
100
AcDbEntity
  8
03__ASM_ALL_CURVES
100
AcDbLine
 62
40
  6
CONTINUOUS
 10
5.611936075
 20
5.0778041826
 11
5.6154517
 21
5.0918666826
  0
LINE
  5
2D7
100
AcDbEntity
  8
03__ASM_ALL_CURVES
100
AcDbLine
 62
40
  6
CONTINUOUS
 10
5.654123575
 20
5.0778041826
 11
5.65060795
 21
5.0637416826
  0
LINE
  5
2D8
100
AcDbEntity
  8
0
100
AcDbLine
 62
7
  6
CONTINUOUS
 10
5.4327173247
 20
4.5330931826
 11
5.4098076687
 21
4.4475931826
  0
LINE
  5
2D9
100
AcDbEntity
  8
03__ASM_ALL_CURVES
100
AcDbLine
 62
40
  6
CONTINUOUS
 10
5.9529517
 20
5.0918666826
 11
5.95998295
 21
5.1012416837
  0
LINE
  5
2DA
100
AcDbEntity
  8
03__ASM_ALL_CURVES
100
AcDbLine
 62
40
  6
CONTINUOUS
 10
6.2060767
 20
5.0543666827
 11
6.19904545
 21
5.0496791826
  0
LINE
  5
2DB
100
AcDbEntity
  8
03__ASM_ALL_CURVES
100
AcDbLine
 62
40
  6
CONTINUOUS
 10
6.2623267
 20
5.0543666827
 11
6.25529545
 21
5.0496791826
  0
LINE
  5
2DC
100
AcDbEntity
  8
0
100
AcDbLine
 62
7
  6
CONTINUOUS
 10
4.7082173247
 20
3.8861882376
 11
4.3347809905
 21
3.8861882376
  0
LINE
  5
2DD
100
AcDbEntity
  8
03__ASM_ALL_CURVES
100
AcDbLine
 62
40
  6
CONTINUOUS
 10
6.3928930938
 20
3.4684056826
 11
6.3876196563
 21
3.4719213077
  0
LINE
  5
2DE
100
AcDbEntity
  8
03__ASM_ALL_CURVES
100
AcDbLine
 62
40
  6
CONTINUOUS
 10
6.3559790313
 20
3.5105931826
 11
6.3612524688
 21
3.5070775584
  0
LINE
  5
2DF
100
AcDbEntity
  8
03__ASM_ALL_CURVES
100
AcDbLine
 62
40
  6
CONTINUOUS
 10
4.7711704497
 20
5.0543666827
 11
4.7641391997
 21
5.0637416826
  0
LINE
  5
2E0
100
AcDbEntity
  8
03__ASM_ALL_CURVES
100
AcDbLine
 62
40
  6
CONTINUOUS
 10
4.7711704497
 20
5.0871791837
 11
4.7676548247
 21
5.0918666826
  0
LINE
  5
2E1
100
AcDbEntity
  8
03__ASM_ALL_CURVES
100
AcDbLine
 62
40
  6
CONTINUOUS
 10
4.7922641997
 20
5.0778041826
 11
4.7992954497
 21
5.0684291832
  0
LINE
  5
2E2
100
AcDbEntity
  8
THREAD
100
AcDbLine
 62
7
  6
CONTINUOUS
 10
5.6960792846
 20
3.7170931826
 11
5.6784701014
 21
3.7475931826
  0
LINE
  5
2E3
100
AcDbEntity
  8
03__ASM_ALL_CURVES
100
AcDbLine
 62
40
  6
CONTINUOUS
 10
5.0524204497
 20
5.0778041826
 11
5.0489048247
 21
5.0871791837
  0
LINE
  5
2E4
100
AcDbEntity
  8
03__ASM_ALL_CURVES
100
AcDbLine
 62
40
  6
CONTINUOUS
 10
5.0735141997
 20
5.0965541815
 11
5.0770298247
 21
5.0871791837
  0
LINE
  5
2E5
100
AcDbEntity
  8
03__ASM_ALL_CURVES
100
AcDbLine
 62
40
  6
CONTINUOUS
 10
5.1789829497
 20
5.0965541815
 11
5.1824985747
 21
5.0824916815
  0
LINE
  5
2E6
100
AcDbEntity
  8
0
100
AcDbLine
 62
7
  6
CONTINUOUS
 10
5.4877173247
 20
3.6760931826
 11
5.4877173247
 21
4.5330931826
  0
LINE
  5
2E7
100
AcDbEntity
  8
03__ASM_ALL_CURVES
100
AcDbLine
 62
40
  6
CONTINUOUS
 10
5.4877173247
 20
4.5424681826
 11
5.4877173247
 21
5.0496791826
  0
LINE
  5
2E8
100
AcDbEntity
  8
THREAD
100
AcDbLine
 62
7
  6
CONTINUOUS
 10
5.5033057819
 20
3.6995931826
 11
5.5033057819
 21
4.5095931826
  0
LINE
  5
2E9
100
AcDbEntity
  8
0
100
AcDbLine
 62
7
  6
CONTINUOUS
 10
5.5347173247
 20
4.5135931826
 11
5.5347173247
 21
3.6955931826
  0
LINE
  5
2EA
100
AcDbEntity
  8
THREAD
100
AcDbLine
 62
7
  6
CONTINUOUS
 10
5.5347173247
 20
3.6995931826
 11
5.5347173247
 21
4.5095931826
  0
LINE
  5
2EB
100
AcDbEntity
  8
03__ASM_ALL_CURVES
100
AcDbLine
 62
40
  6
CONTINUOUS
 10
5.5439673247
 20
5.0403041826
 11
5.5439673247
 21
5.0215541826
  0
LINE
  5
2EC
100
AcDbEntity
  8
03__ASM_ALL_CURVES
100
AcDbLine
 62
40
  6
CONTINUOUS
 10
5.562717325
 20
5.1059291826
 11
5.562717325
 21
5.0496791826
  0
LINE
  5
2ED
100
AcDbEntity
  8
03__ASM_ALL_CURVES
100
AcDbLine
 62
40
  6
CONTINUOUS
 10
5.668186075
 20
5.0778041826
 11
5.6717017
 21
5.0918666826
  0
LINE
  5
2EE
100
AcDbEntity
  8
03__ASM_ALL_CURVES
100
AcDbLine
 62
40
  6
CONTINUOUS
 10
5.7279517
 20
5.0496791826
 11
5.745529825
 21
5.1059291826
  0
LINE
  5
2EF
100
AcDbEntity
  8
03__ASM_ALL_CURVES
100
AcDbLine
 62
40
  6
CONTINUOUS
 10
5.984592325
 20
5.0590541829
 11
5.9810767
 21
5.0543666827
  0
LINE
  5
2F0
100
AcDbEntity
  8
03__ASM_ALL_CURVES
100
AcDbLine
 62
40
  6
CONTINUOUS
 10
6.07248295
 20
5.1012416837
 11
6.068967325
 21
5.0965541815
  0
LINE
  5
2F1
100
AcDbEntity
  8
03__ASM_ALL_CURVES
100
AcDbLine
 62
40
  6
CONTINUOUS
 10
6.097092325
 20
5.0590541829
 11
6.0935767
 21
5.0543666827
  0
LINE
  5
2F2
100
AcDbEntity
  8
0
100
AcDbLine
 62
7
  6
CONTINUOUS
 10
4.7687173247
 20
3.6760931826
 11
4.7086660884
 21
3.6160419463
  0
LINE
  5
2F3
100
AcDbEntity
  8
03__ASM_ALL_CURVES
100
AcDbLine
 62
40
  6
CONTINUOUS
 10
6.371311075
 20
5.0543666827
 11
6.364279825
 21
5.0496791826
  0
LINE
  5
2F4
100
AcDbEntity
  8
03__ASM_ALL_CURVES
100
AcDbLine
 62
40
  6
CONTINUOUS
 10
6.4873267
 20
5.0824916815
 11
6.48029545
 21
5.0778041826
  0
LINE
  5
2F5
100
AcDbEntity
  8
03__ASM_ALL_CURVES
100
AcDbLine
 62
40
  6
CONTINUOUS
 10
6.3981665313
 20
3.5105931826
 11
6.4034399688
 21
3.5070775584
  0
LINE
  5
2F6
100
AcDbEntity
  8
03__ASM_ALL_CURVES
100
AcDbLine
 62
40
  6
CONTINUOUS
 10
6.4403540313
 20
3.5105931826
 11
6.4456274688
 21
3.5070775584
  0
LINE
  5
2F7
100
AcDbEntity
  8
03__ASM_ALL_CURVES
100
AcDbLine
 62
40
  6
CONTINUOUS
 10
6.5247290313
 20
3.5105931826
 11
6.5300024688
 21
3.5070775584
  0
LINE
  5
2F8
100
AcDbEntity
  8
03__ASM_ALL_CURVES
100
AcDbLine
 62
40
  6
CONTINUOUS
 10
4.7922641997
 20
5.1012416837
 11
4.7957798247
 21
5.0965541815
  0
LINE
  5
2F9
100
AcDbEntity
  8
03__ASM_ALL_CURVES
100
AcDbLine
 62
40
  6
CONTINUOUS
 10
4.8344516997
 20
5.0590541829
 11
4.8414829497
 21
5.0496791826
  0
LINE
  5
2FA
100
AcDbEntity
  8
03__ASM_ALL_CURVES
100
AcDbLine
 62
40
  6
CONTINUOUS
 10
4.9047641997
 20
5.1012416837
 11
4.9082798247
 21
5.0965541815
  0
LINE
  5
2FB
100
AcDbEntity
  8
03__ASM_ALL_CURVES
100
AcDbLine
 62
40
  6
CONTINUOUS
 10
4.9434360747
 20
5.0543666827
 11
4.9399204497
 21
5.0590541829
  0
LINE
  5
2FC
100
AcDbEntity
  8
0
100
AcDbLine
 62
7
  6
CONTINUOUS
 10
5.6047173247
 20
4.5135931826
 11
5.6047173247
 21
3.6955931826
  0
LINE
  5
2FD
100
AcDbEntity
  8
0
100
AcDbLine
 62
7
  6
CONTINUOUS
 10
5.6547173247
 20
3.7000937976
 11
5.6547173247
 21
4.5090925676
  0
LINE
  5
2FE
100
AcDbEntity
  8
0
100
AcDbLine
 62
7
  6
CONTINUOUS
 10
5.6672117712
 20
3.7540931826
 11
5.6672117712
 21
4.4550931826
  0
LINE
  5
2FF
100
AcDbEntity
  8
0
100
AcDbLine
 62
7
  6
CONTINUOUS
 10
5.6784701014
 20
3.7475931826
 11
5.6784701014
 21
4.4615931826
  0
LINE
  5
300
100
AcDbEntity
  8
THREAD
100
AcDbLine
 62
7
  6
CONTINUOUS
 10
5.6960792846
 20
3.7170931826
 11
5.6960792846
 21
4.4920931826
  0
LINE
  5
301
100
AcDbEntity
  8
THREAD
100
AcDbLine
 62
7
  6
CONTINUOUS
 10
5.6960792846
 20
4.4920931826
 11
5.6784701014
 21
4.4615931826
  0
LINE
  5
302
100
AcDbEntity
  8
03__ASM_ALL_CURVES
100
AcDbLine
 62
40
  6
CONTINUOUS
 10
6.1779517
 20
5.0918666826
 11
6.18498295
 21
5.1012416837
  0
LINE
  5
303
100
AcDbEntity
  8
03__ASM_ALL_CURVES
100
AcDbLine
 62
40
  6
CONTINUOUS
 10
6.21310795
 20
5.0637416826
 11
6.2060767
 21
5.0543666827
  0
LINE
  5
304
100
AcDbEntity
  8
03__ASM_ALL_CURVES
100
AcDbLine
 62
40
  6
CONTINUOUS
 10
7.1780884182
 20
4.1139681826
 11
7.1728149807
 21
4.1139681826
  0
LINE
  5
305
100
AcDbEntity
  8
03__ASM_ALL_CURVES
100
AcDbLine
 62
40
  6
CONTINUOUS
 10
7.2202759182
 20
4.1350619326
 11
7.2070923245
 21
4.1350619326
  0
LINE
  5
306
100
AcDbEntity
  8
03__ASM_ALL_CURVES
100
AcDbLine
 62
40
  6
CONTINUOUS
 10
7.1359009182
 20
4.1350619326
 11
7.1227173245
 21
4.1350619326
  0
LINE
  5
307
100
AcDbEntity
  8
03__ASM_ALL_CURVES
100
AcDbLine
 62
40
  6
CONTINUOUS
 10
7.1227173245
 20
4.1561556826
 11
7.1359009182
 21
4.1561556826
  0
LINE
  5
308
100
AcDbEntity
  8
03__ASM_ALL_CURVES
100
AcDbLine
 62
40
  6
CONTINUOUS
 10
7.1728149807
 20
4.1561556826
 11
7.1780884182
 21
4.1561556826
  0
LINE
  5
309
100
AcDbEntity
  8
03__ASM_ALL_CURVES
100
AcDbLine
 62
40
  6
CONTINUOUS
 10
7.2070923245
 20
4.1561556826
 11
7.2202759182
 21
4.1561556826
  0
LINE
  5
30A
100
AcDbEntity
  8
03__ASM_ALL_CURVES
100
AcDbLine
 62
40
  6
CONTINUOUS
 10
7.2466431057
 20
4.1561556826
 11
7.2730102932
 21
4.1561556826
  0
LINE
  5
30B
100
AcDbEntity
  8
03__ASM_ALL_CURVES
100
AcDbLine
 62
40
  6
CONTINUOUS
 10
4.9574985747
 20
5.1012416837
 11
4.9610141997
 21
5.0965541815
  0
LINE
  5
30C
100
AcDbEntity
  8
03__ASM_ALL_CURVES
100
AcDbLine
 62
40
  6
CONTINUOUS
 10
5.0032016997
 20
5.0543666827
 11
5.0067173247
 21
5.0496791826
  0
LINE
  5
30D
100
AcDbEntity
  8
03__ASM_ALL_CURVES
100
AcDbLine
 62
40
  6
CONTINUOUS
 10
5.0559360747
 20
5.0543666827
 11
5.0524204497
 21
5.0590541829
  0
LINE
  5
30E
100
AcDbEntity
  8
03__ASM_ALL_CURVES
100
AcDbLine
 62
40
  6
CONTINUOUS
 10
5.801779825
 20
5.1059291826
 11
5.801779825
 21
5.0496791826
  0
LINE
  5
30F
100
AcDbEntity
  8
03__ASM_ALL_CURVES
100
AcDbLine
 62
40
  6
CONTINUOUS
 10
5.949436075
 20
5.0778041826
 11
5.9529517
 21
5.0918666826
  0
LINE
  5
310
100
AcDbEntity
  8
03__ASM_ALL_CURVES
100
AcDbLine
 62
40
  6
CONTINUOUS
 10
6.265842325
 20
5.0590541829
 11
6.2623267
 21
5.0543666827
  0
LINE
  5
311
100
AcDbEntity
  8
03__ASM_ALL_CURVES
100
AcDbLine
 62
40
  6
CONTINUOUS
 10
5.1425708446
 20
3.4965306834
 11
5.1399341258
 21
3.4930150568
  0
LINE
  5
312
100
AcDbEntity
  8
03__ASM_ALL_CURVES
100
AcDbLine
 62
40
  6
CONTINUOUS
 10
5.1610278758
 20
3.5000463076
 11
5.1663013133
 21
3.5070775584
  0
LINE
  5
313
100
AcDbEntity
  8
03__ASM_ALL_CURVES
100
AcDbLine
 62
40
  6
CONTINUOUS
 10
5.1873950633
 20
3.4789525576
 11
5.1821216258
 21
3.4719213077
  0
LINE
  5
314
100
AcDbEntity
  8
03__ASM_ALL_CURVES
100
AcDbLine
 62
40
  6
CONTINUOUS
 10
6.378342325
 20
5.0637416826
 11
6.371311075
 21
5.0543666827
  0
LINE
  5
315
100
AcDbEntity
  8
03__ASM_ALL_CURVES
100
AcDbLine
 62
40
  6
CONTINUOUS
 10
5.2269458446
 20
3.4965306834
 11
5.2243091258
 21
3.4930150568
  0
LINE
  5
316
100
AcDbEntity
  8
03__ASM_ALL_CURVES
100
AcDbLine
 62
40
  6
CONTINUOUS
 10
5.0699985747
 20
5.1012416837
 11
5.0735141997
 21
5.0965541815
  0
LINE
  5
317
100
AcDbEntity
  8
03__ASM_ALL_CURVES
100
AcDbLine
 62
40
  6
CONTINUOUS
 10
6.3876196563
 20
3.4719213077
 11
6.3823462188
 21
3.4789525576
  0
LINE
  5
318
100
AcDbEntity
  8
03__ASM_ALL_CURVES
100
AcDbLine
 62
40
  6
CONTINUOUS
 10
6.3612524688
 20
3.5070775584
 11
6.3638891876
 21
3.5035619318
  0
LINE
  5
319
100
AcDbEntity
  8
03__ASM_ALL_CURVES
100
AcDbLine
 62
40
  6
CONTINUOUS
 10
5.1719516997
 20
5.1059291826
 11
5.1789829497
 21
5.0965541815
  0
LINE
  5
31A
100
AcDbEntity
  8
03__ASM_ALL_CURVES
100
AcDbLine
 62
40
  6
CONTINUOUS
 10
6.4034399688
 20
3.5070775584
 11
6.4087134063
 21
3.5000463076
  0
LINE
  5
31B
100
AcDbEntity
  8
03__ASM_ALL_CURVES
100
AcDbLine
 62
40
  6
CONTINUOUS
 10
5.6154517
 20
5.0637416826
 11
5.611936075
 21
5.0778041826
  0
LINE
  5
31C
100
AcDbEntity
  8
03__ASM_ALL_CURVES
100
AcDbLine
 62
40
  6
CONTINUOUS
 10
5.858029825
 20
5.1059291826
 11
5.858029825
 21
5.0496791826
  0
LINE
  5
31D
100
AcDbEntity
  8
03__ASM_ALL_CURVES
100
AcDbLine
 62
40
  6
CONTINUOUS
 10
5.900217325
 20
5.0496791826
 11
5.900217325
 21
5.1059291826
  0
LINE
  5
31E
100
AcDbEntity
  8
03__ASM_ALL_CURVES
100
AcDbLine
 62
40
  6
CONTINUOUS
 10
5.928342325
 20
5.0496791826
 11
5.928342325
 21
5.1059291826
  0
LINE
  5
31F
100
AcDbEntity
  8
03__ASM_ALL_CURVES
100
AcDbLine
 62
40
  6
CONTINUOUS
 10
6.490842325
 20
5.0871791837
 11
6.4873267
 21
5.0824916815
  0
LINE
  5
320
100
AcDbEntity
  8
03__ASM_ALL_CURVES
100
AcDbLine
 62
40
  6
CONTINUOUS
 10
5.3113208446
 20
3.5000463076
 11
5.3086841258
 21
3.4965306834
  0
LINE
  5
321
100
AcDbEntity
  8
03__ASM_ALL_CURVES
100
AcDbLine
 62
40
  6
CONTINUOUS
 10
5.3139575633
 20
3.4789525576
 11
5.3086841258
 21
3.4719213077
  0
LINE
  5
322
100
AcDbEntity
  8
0
100
AcDbLine
 62
7
  6
CONTINUOUS
 10
4.7082173247
 20
4.3229981276
 11
4.3347809905
 21
4.3229981276
  0
LINE
  5
323
100
AcDbEntity
  8
0
100
AcDbLine
 62
7
  6
CONTINUOUS
 10
4.7082173247
 20
4.3742907101
 11
4.3347809905
 21
4.3742907101
  0
LINE
  5
324
100
AcDbEntity
  8
0
100
AcDbLine
 62
7
  6
CONTINUOUS
 10
6.5807173247
 20
4.3850931826
 11
6.5642173247
 21
4.3850931826
  0
LINE
  5
325
100
AcDbEntity
  8
0
100
AcDbLine
 62
7
  6
CONTINUOUS
 10
6.4552173247
 20
4.3850931826
 11
6.2357173247
 21
4.3850931826
  0
LINE
  5
326
100
AcDbEntity
  8
0
100
AcDbLine
 62
7
  6
CONTINUOUS
 10
6.7947173247
 20
4.3925931826
 11
6.7737173247
 21
4.3925931826
  0
LINE
  5
327
100
AcDbEntity
  8
THREAD
100
AcDbLine
 62
7
  6
CONTINUOUS
 10
5.5033057819
 20
4.5095931826
 11
5.4877173247
 21
4.5185931826
  0
LINE
  5
328
100
AcDbEntity
  8
03__ASM_ALL_CURVES
100
AcDbLine
 62
40
  6
CONTINUOUS
 10
4.7782016997
 20
5.0496791826
 11
4.7711704497
 21
5.0543666827
  0
LINE
  5
329
100
AcDbEntity
  8
03__ASM_ALL_CURVES
100
AcDbLine
 62
40
  6
CONTINUOUS
 10
4.7782016997
 20
5.0824916815
 11
4.7711704497
 21
5.0871791837
  0
LINE
  5
32A
100
AcDbEntity
  8
03__ASM_ALL_CURVES
100
AcDbLine
 62
40
  6
CONTINUOUS
 10
4.7852329497
 20
5.0824916815
 11
4.7922641997
 21
5.0778041826
  0
LINE
  5
32B
100
AcDbEntity
  8
03__ASM_ALL_CURVES
100
AcDbLine
 62
40
  6
CONTINUOUS
 10
4.7852329497
 20
5.1059291826
 11
4.7922641997
 21
5.1012416837
  0
LINE
  5
32C
100
AcDbEntity
  8
03__ASM_ALL_CURVES
100
AcDbLine
 62
40
  6
CONTINUOUS
 10
6.4456274688
 20
3.5070775584
 11
6.4482641876
 21
3.5035619318
  0
LINE
  5
32D
100
AcDbEntity
  8
03__ASM_ALL_CURVES
100
AcDbLine
 62
40
  6
CONTINUOUS
 10
6.5300024688
 20
3.5070775584
 11
6.5326391876
 21
3.5035619318
  0
LINE
  5
32E
100
AcDbEntity
  8
03__ASM_ALL_CURVES
100
AcDbLine
 62
40
  6
CONTINUOUS
 10
5.65060795
 20
5.0918666826
 11
5.654123575
 21
5.0778041826
  0
LINE
  5
32F
100
AcDbEntity
  8
03__ASM_ALL_CURVES
100
AcDbLine
 62
40
  6
CONTINUOUS
 10
5.6717017
 20
5.0637416826
 11
5.668186075
 21
5.0778041826
  0
LINE
  5
330
100
AcDbEntity
  8
THREAD
100
AcDbLine
 62
7
  6
CONTINUOUS
 10
5.9432173247
 20
3.7170931826
 11
5.9432173247
 21
4.4920931826
  0
LINE
  5
331
100
AcDbEntity
  8
03__ASM_ALL_CURVES
100
AcDbLine
 62
40
  6
CONTINUOUS
 10
5.984592325
 20
5.0778041826
 11
5.984592325
 21
5.0590541829
  0
LINE
  5
332
100
AcDbEntity
  8
THREAD
100
AcDbLine
 62
7
  6
CONTINUOUS
 10
5.9877173247
 20
3.7615931826
 11
5.9877173247
 21
4.4475931826
  0
LINE
  5
333
100
AcDbEntity
  8
03__ASM_ALL_CURVES
100
AcDbLine
 62
40
  6
CONTINUOUS
 10
6.174436075
 20
5.0778041826
 11
6.1779517
 21
5.0918666826
  0
LINE
  5
334
100
AcDbEntity
  8
03__ASM_ALL_CURVES
100
AcDbLine
 62
40
  6
CONTINUOUS
 10
6.216623575
 20
5.0778041826
 11
6.21310795
 21
5.0637416826
  0
LINE
  5
335
100
AcDbEntity
  8
0
100
AcDbLine
 62
7
  6
CONTINUOUS
 10
6.7237173247
 20
4.4465931826
 11
6.7737173247
 21
4.4465931826
  0
LINE
  5
336
100
AcDbEntity
  8
0
100
AcDbLine
 62
7
  6
CONTINUOUS
 10
6.5937173247
 20
4.4470931826
 11
6.6537173247
 21
4.4470931826
  0
LINE
  5
337
100
AcDbEntity
  8
0
100
AcDbLine
 62
7
  6
CONTINUOUS
 10
6.7947173247
 20
4.4470931826
 11
6.8487173247
 21
4.4470931826
  0
LINE
  5
338
100
AcDbEntity
  8
THREAD
100
AcDbLine
 62
7
  6
CONTINUOUS
 10
6.1657173247
 20
4.4475931826
 11
5.9877173247
 21
4.4475931826
  0
LINE
  5
339
100
AcDbEntity
  8
0
100
AcDbLine
 62
7
  6
CONTINUOUS
 10
5.4098076687
 20
4.4475931826
 11
5.1076269806
 21
4.4475931826
  0
LINE
  5
33A
100
AcDbEntity
  8
THREAD
100
AcDbLine
 62
7
  6
CONTINUOUS
 10
5.6672117712
 20
4.4550931826
 11
5.6547173247
 21
4.4550931826
  0
LINE
  5
33B
100
AcDbEntity
  8
0
100
AcDbLine
 62
7
  6
CONTINUOUS
 10
5.0217173247
 20
4.4785931826
 11
5.0137173247
 21
4.4785931826
  0
LINE
  5
33C
100
AcDbEntity
  8
THREAD
100
AcDbLine
 62
7
  6
CONTINUOUS
 10
5.9432173247
 20
4.4920931826
 11
5.6960792846
 21
4.4920931826
  0
LINE
  5
33D
100
AcDbEntity
  8
0
100
AcDbLine
 62
7
  6
CONTINUOUS
 10
5.6047173247
 20
4.5090931826
 11
5.6547173247
 21
4.5090931826
  0
LINE
  5
33E
100
AcDbEntity
  8
THREAD
100
AcDbLine
 62
7
  6
CONTINUOUS
 10
5.5347173247
 20
4.5095931826
 11
5.5033057819
 21
4.5095931826
  0
LINE
  5
33F
100
AcDbEntity
  8
03__ASM_ALL_CURVES
100
AcDbLine
 62
40
  6
CONTINUOUS
 10
4.9504673247
 20
5.0496791826
 11
4.9434360747
 21
5.0543666827
  0
LINE
  5
340
100
AcDbEntity
  8
03__ASM_ALL_CURVES
100
AcDbLine
 62
40
  6
CONTINUOUS
 10
4.8977329497
 20
5.1059291826
 11
4.9047641997
 21
5.1012416837
  0
LINE
  5
341
100
AcDbEntity
  8
03__ASM_ALL_CURVES
100
AcDbLine
 62
40
  6
CONTINUOUS
 10
4.9504673247
 20
5.1059291826
 11
4.9574985747
 21
5.1012416837
  0
LINE
  5
342
100
AcDbEntity
  8
03__ASM_ALL_CURVES
100
AcDbLine
 62
40
  6
CONTINUOUS
 10
5.0629673247
 20
5.0496791826
 11
5.0559360747
 21
5.0543666827
  0
LINE
  5
343
100
AcDbEntity
  8
0
100
AcDbLine
 62
7
  6
CONTINUOUS
 10
6.5807173247
 20
3.7750931826
 11
6.5937173247
 21
3.7620931826
  0
LINE
  5
344
100
AcDbEntity
  8
03__ASM_ALL_CURVES
100
AcDbLine
 62
40
  6
CONTINUOUS
 10
5.745529825
 20
5.1059291826
 11
5.76310795
 21
5.0496791826
  0
LINE
  5
345
100
AcDbEntity
  8
03__ASM_ALL_CURVES
100
AcDbLine
 62
40
  6
CONTINUOUS
 10
6.068967325
 20
5.0965541815
 11
6.068967325
 21
5.0918666826
  0
LINE
  5
346
100
AcDbEntity
  8
03__ASM_ALL_CURVES
100
AcDbLine
 62
40
  6
CONTINUOUS
 10
6.097092325
 20
5.0684291832
 11
6.097092325
 21
5.0590541829
  0
LINE
  5
347
100
AcDbEntity
  8
03__ASM_ALL_CURVES
100
AcDbLine
 62
40
  6
CONTINUOUS
 10
6.125217325
 20
5.1059291826
 11
6.125217325
 21
5.0496791826
  0
LINE
  5
348
100
AcDbEntity
  8
03__ASM_ALL_CURVES
100
AcDbLine
 62
40
  6
CONTINUOUS
 10
6.153342325
 20
5.1059291826
 11
6.153342325
 21
5.0496791826
  0
LINE
  5
349
100
AcDbEntity
  8
03__ASM_ALL_CURVES
100
AcDbLine
 62
40
  6
CONTINUOUS
 10
5.1399341258
 20
3.4930150568
 11
5.1346606883
 21
3.4894994326
  0
LINE
  5
34A
100
AcDbEntity
  8
03__ASM_ALL_CURVES
100
AcDbLine
 62
40
  6
CONTINUOUS
 10
5.1663013133
 20
3.5070775584
 11
5.1715747508
 21
3.5105931826
  0
LINE
  5
34B
100
AcDbEntity
  8
03__ASM_ALL_CURVES
100
AcDbLine
 62
40
  6
CONTINUOUS
 10
5.1821216258
 20
3.4719213077
 11
5.1768481883
 21
3.4684056826
  0
LINE
  5
34C
100
AcDbEntity
  8
03__ASM_ALL_CURVES
100
AcDbLine
 62
40
  6
CONTINUOUS
 10
5.2243091258
 20
3.4930150568
 11
5.2190356883
 21
3.4894994326
  0
LINE
  5
34D
100
AcDbEntity
  8
0
100
AcDbLine
 62
7
  6
CONTINUOUS
 10
4.8937173247
 20
4.5325931826
 11
4.9437173247
 21
4.5325931826
  0
LINE
  5
34E
100
AcDbEntity
  8
0
100
AcDbLine
 62
7
  6
CONTINUOUS
 10
5.4877173247
 20
4.5330931826
 11
5.4327173247
 21
4.5330931826
  0
LINE
  5
34F
100
AcDbEntity
  8
0
100
AcDbLine
 62
7
  6
CONTINUOUS
 10
5.0847173247
 20
4.5330931826
 11
5.0347173247
 21
4.5330931826
  0
LINE
  5
350
100
AcDbEntity
  8
0
100
AcDbLine
 62
7
  6
CONTINUOUS
 10
4.8937173247
 20
4.5330931826
 11
4.7687173247
 21
4.5330931826
  0
LINE
  5
351
100
AcDbEntity
  8
0
100
AcDbLine
 62
7
  6
CONTINUOUS
 10
4.7082173247
 20
4.5926956551
 11
4.3347809905
 21
4.5926956551
  0
LINE
  5
352
100
AcDbEntity
  8
0
100
AcDbLine
 62
7
  6
CONTINUOUS
 10
4.7082173247
 20
4.5935931826
 11
4.3347809905
 21
4.5935931826
  0
LINE
  5
353
100
AcDbEntity
  8
03__ASM_ALL_CURVES
100
AcDbLine
 62
40
  6
CONTINUOUS
 10
5.0629673247
 20
5.1059291826
 11
5.0699985747
 21
5.1012416837
  0
LINE
  5
354
100
AcDbEntity
  8
THREAD
100
AcDbLine
 62
7
  6
CONTINUOUS
 10
5.9877173247
 20
4.4475931826
 11
5.9432173247
 21
4.4920931826
  0
LINE
  5
355
100
AcDbEntity
  8
03__ASM_ALL_CURVES
100
AcDbLine
 62
40
  6
CONTINUOUS
 10
5.62248295
 20
5.0543666827
 11
5.6154517
 21
5.0637416826
  0
LINE
  5
356
100
AcDbEntity
  8
03__ASM_ALL_CURVES
100
AcDbLine
 62
40
  6
CONTINUOUS
 10
6.4403540313
 20
3.4894994326
 11
6.4482641876
 21
3.4684056826
  0
LINE
  5
357
100
AcDbEntity
  8
03__ASM_ALL_CURVES
100
AcDbLine
 62
40
  6
CONTINUOUS
 10
5.9529517
 20
5.0637416826
 11
5.949436075
 21
5.0778041826
  0
LINE
  5
358
100
AcDbEntity
  8
0
100
AcDbLine
 62
7
  6
CONTINUOUS
 10
6.1657173247
 20
3.7615931826
 11
6.1657173247
 21
4.4475931826
  0
LINE
  5
359
100
AcDbEntity
  8
0
100
AcDbLine
 62
7
  6
CONTINUOUS
 10
6.1757173247
 20
3.7715931826
 11
6.1757173247
 21
4.4375931826
  0
LINE
  5
35A
100
AcDbEntity
  8
03__ASM_ALL_CURVES
100
AcDbLine
 62
40
  6
CONTINUOUS
 10
6.237717325
 20
5.0590541829
 11
6.237717325
 21
5.1059291826
  0
LINE
  5
35B
100
AcDbEntity
  8
03__ASM_ALL_CURVES
100
AcDbLine
 62
40
  6
CONTINUOUS
 10
6.265842325
 20
5.1059291826
 11
6.265842325
 21
5.0590541829
  0
LINE
  5
35C
100
AcDbEntity
  8
03__ASM_ALL_CURVES
100
AcDbLine
 62
40
  6
CONTINUOUS
 10
6.38185795
 20
5.0778041826
 11
6.378342325
 21
5.0637416826
  0
LINE
  5
35D
100
AcDbEntity
  8
0
100
AcDbLine
 62
7
  6
CONTINUOUS
 10
6.5807173247
 20
4.4340931826
 11
6.5937173247
 21
4.4470931826
  0
LINE
  5
35E
100
AcDbEntity
  8
03__ASM_ALL_CURVES
100
AcDbLine
 62
40
  6
CONTINUOUS
 10
5.2928638133
 20
3.5070775584
 11
5.2981372508
 21
3.5105931826
  0
LINE
  5
35F
100
AcDbEntity
  8
03__ASM_ALL_CURVES
100
AcDbLine
 62
40
  6
CONTINUOUS
 10
5.3086841258
 20
3.4965306834
 11
5.3034106883
 21
3.4930150568
  0
LINE
  5
360
100
AcDbEntity
  8
03__ASM_ALL_CURVES
100
AcDbLine
 62
40
  6
CONTINUOUS
 10
5.3086841258
 20
3.4719213077
 11
5.3034106883
 21
3.4684056826
  0
LINE
  5
361
100
AcDbEntity
  8
THREAD
100
AcDbLine
 62
7
  6
CONTINUOUS
 10
5.5033057819
 20
3.6995931826
 11
5.4877173247
 21
3.6905931826
  0
LINE
  5
362
100
AcDbEntity
  8
03__ASM_ALL_CURVES
100
AcDbLine
 62
40
  6
CONTINUOUS
 10
4.9504673247
 20
5.073116682
 11
4.9399204497
 21
5.0778041826
  0
LINE
  5
363
100
AcDbEntity
  8
03__ASM_ALL_CURVES
100
AcDbLine
 62
40
  6
CONTINUOUS
 10
5.0629673247
 20
5.073116682
 11
5.0524204497
 21
5.0778041826
  0
LINE
  5
364
100
AcDbEntity
  8
0
100
AcDbLine
 62
7
  6
CONTINUOUS
 10
6.1757173247
 20
4.4375931826
 11
6.1657173247
 21
4.4475931826
  0
LINE
  5
365
100
AcDbEntity
  8
03__ASM_ALL_CURVES
100
AcDbLine
 62
40
  6
CONTINUOUS
 10
5.67873295
 20
5.0543666827
 11
5.6717017
 21
5.0637416826
  0
LINE
  5
366
100
AcDbEntity
  8
03__ASM_ALL_CURVES
100
AcDbLine
 62
40
  6
CONTINUOUS
 10
5.6435767
 20
5.1012416837
 11
5.65060795
 21
5.0918666826
  0
LINE
  5
367
100
AcDbEntity
  8
03__ASM_ALL_CURVES
100
AcDbLine
 62
40
  6
CONTINUOUS
 10
5.6998267
 20
5.1012416837
 11
5.703342325
 21
5.0965541815
  0
LINE
  5
368
100
AcDbEntity
  8
03__ASM_ALL_CURVES
100
AcDbLine
 62
40
  6
CONTINUOUS
 10
5.900217325
 20
5.1059291826
 11
5.928342325
 21
5.0496791826
  0
LINE
  5
369
100
AcDbEntity
  8
03__ASM_ALL_CURVES
100
AcDbLine
 62
40
  6
CONTINUOUS
 10
6.3823462188
 20
3.4789525576
 11
6.3797095001
 21
3.4894994326
  0
LINE
  5
36A
100
AcDbEntity
  8
03__ASM_ALL_CURVES
100
AcDbLine
 62
40
  6
CONTINUOUS
 10
6.4087134063
 20
3.5000463076
 11
6.4113501251
 21
3.4894994326
  0
LINE
  5
36B
100
AcDbEntity
  8
03__ASM_ALL_CURVES
100
AcDbLine
 62
40
  6
CONTINUOUS
 10
6.293967325
 20
5.1059291826
 11
6.293967325
 21
5.0496791826
  0
LINE
  5
36C
100
AcDbEntity
  8
03__ASM_ALL_CURVES
100
AcDbLine
 62
40
  6
CONTINUOUS
 10
6.3427954376
 20
3.4684056826
 11
6.3427954376
 21
3.5105931826
  0
LINE
  5
36D
100
AcDbEntity
  8
03__ASM_ALL_CURVES
100
AcDbLine
 62
40
  6
CONTINUOUS
 10
6.350217325
 20
5.0496791826
 11
6.350217325
 21
5.1059291826
  0
LINE
  5
36E
100
AcDbEntity
  8
03__ASM_ALL_CURVES
100
AcDbLine
 62
40
  6
CONTINUOUS
 10
6.3638891876
 20
3.5035619318
 11
6.3638891876
 21
3.4965306834
  0
LINE
  5
36F
100
AcDbEntity
  8
THREAD
100
AcDbLine
 62
7
  6
CONTINUOUS
 10
5.9877173247
 20
3.7615931826
 11
5.9432173247
 21
3.7170931826
  0
LINE
  5
370
100
AcDbEntity
  8
03__ASM_ALL_CURVES
100
AcDbLine
 62
40
  6
CONTINUOUS
 10
4.3569673247
 20
5.0246791826
 11
4.3007173247
 21
5.0309291826
  0
LINE
  5
371
100
AcDbEntity
  8
03__ASM_ALL_CURVES
100
AcDbLine
 62
40
  6
CONTINUOUS
 10
4.3569673247
 20
5.0231166826
 11
4.3007173247
 21
5.0309291826
  0
LINE
  5
372
100
AcDbEntity
  8
03__ASM_ALL_CURVES
100
AcDbLine
 62
40
  6
CONTINUOUS
 10
4.3569673247
 20
5.0215541826
 11
4.3007173247
 21
5.0309291826
  0
LINE
  5
373
100
AcDbEntity
  8
03__ASM_ALL_CURVES
100
AcDbLine
 62
40
  6
CONTINUOUS
 10
5.6295142
 20
5.0496791826
 11
5.62248295
 21
5.0543666827
  0
LINE
  5
374
100
AcDbEntity
  8
03__ASM_ALL_CURVES
100
AcDbLine
 62
40
  6
CONTINUOUS
 10
5.6857642
 20
5.0496791826
 11
5.67873295
 21
5.0543666827
  0
LINE
  5
375
100
AcDbEntity
  8
03__ASM_ALL_CURVES
100
AcDbLine
 62
40
  6
CONTINUOUS
 10
6.1779517
 20
5.0637416826
 11
6.174436075
 21
5.0778041826
  0
LINE
  5
376
100
AcDbEntity
  8
03__ASM_ALL_CURVES
100
AcDbLine
 62
40
  6
CONTINUOUS
 10
6.406467325
 20
5.0496791826
 11
6.406467325
 21
5.1059291826
  0
LINE
  5
377
100
AcDbEntity
  8
03__ASM_ALL_CURVES
100
AcDbLine
 62
40
  6
CONTINUOUS
 10
6.4271704376
 20
3.4684056826
 11
6.4271704376
 21
3.5105931826
  0
LINE
  5
378
100
AcDbEntity
  8
03__ASM_ALL_CURVES
100
AcDbLine
 62
40
  6
CONTINUOUS
 10
6.4482641876
 20
3.5035619318
 11
6.4482641876
 21
3.4965306834
  0
LINE
  5
379
100
AcDbEntity
  8
0
100
AcDbLine
 62
7
  6
CONTINUOUS
 10
6.4575534603
 20
4.0897393703
 11
6.4575534603
 21
4.1194488054
  0
LINE
  5
37A
100
AcDbEntity
  8
03__ASM_ALL_CURVES
100
AcDbLine
 62
40
  6
CONTINUOUS
 10
6.462717325
 20
5.0496791826
 11
6.462717325
 21
5.1059291826
  0
LINE
  5
37B
100
AcDbEntity
  8
03__ASM_ALL_CURVES
100
AcDbLine
 62
40
  6
CONTINUOUS
 10
6.4799048126
 20
3.5105931826
 11
6.4799048126
 21
3.4684056826
  0
LINE
  5
37C
100
AcDbEntity
  8
03__ASM_ALL_CURVES
100
AcDbLine
 62
40
  6
CONTINUOUS
 10
6.490842325
 20
5.0965541815
 11
6.490842325
 21
5.0871791837
  0
LINE
  5
37D
100
AcDbEntity
  8
0
100
AcDbLine
 62
7
  6
CONTINUOUS
 10
6.1757173247
 20
3.7715931826
 11
6.1657173247
 21
3.7615931826
  0
LINE
  5
37E
100
AcDbEntity
  8
03__ASM_ALL_CURVES
100
AcDbLine
 62
40
  6
CONTINUOUS
 10
4.3569673247
 20
5.0278041826
 11
4.3007173247
 21
5.0309291826
  0
LINE
  5
37F
100
AcDbEntity
  8
03__ASM_ALL_CURVES
100
AcDbLine
 62
40
  6
CONTINUOUS
 10
4.3569673247
 20
5.0262416826
 11
4.3007173247
 21
5.0309291826
  0
LINE
  5
380
100
AcDbEntity
  8
03__ASM_ALL_CURVES
100
AcDbLine
 62
40
  6
CONTINUOUS
 10
5.4314673247
 20
5.0387416826
 11
5.5439673247
 21
5.0231166826
  0
LINE
  5
381
100
AcDbEntity
  8
03__ASM_ALL_CURVES
100
AcDbLine
 62
40
  6
CONTINUOUS
 10
5.5439673247
 20
5.0215541826
 11
5.4314673247
 21
5.0403041826
  0
LINE
  5
382
100
AcDbEntity
  8
03__ASM_ALL_CURVES
100
AcDbLine
 62
40
  6
CONTINUOUS
 10
5.63654545
 20
5.1059291826
 11
5.6435767
 21
5.1012416837
  0
LINE
  5
383
100
AcDbEntity
  8
03__ASM_ALL_CURVES
100
AcDbLine
 62
40
  6
CONTINUOUS
 10
7.1728149807
 20
4.1139681826
 11
7.1675415432
 21
4.1174838077
  0
LINE
  5
384
100
AcDbEntity
  8
03__ASM_ALL_CURVES
100
AcDbLine
 62
40
  6
CONTINUOUS
 10
5.69279545
 20
5.1059291826
 11
5.6998267
 21
5.1012416837
  0
LINE
  5
385
100
AcDbEntity
  8
03__ASM_ALL_CURVES
100
AcDbLine
 62
40
  6
CONTINUOUS
 10
7.1359009182
 20
4.1561556826
 11
7.1411743557
 21
4.1526400584
  0
LINE
  5
386
100
AcDbEntity
  8
03__ASM_ALL_CURVES
100
AcDbLine
 62
40
  6
CONTINUOUS
 10
7.1780884182
 20
4.1561556826
 11
7.1833618557
 21
4.1526400584
  0
LINE
  5
387
100
AcDbEntity
  8
03__ASM_ALL_CURVES
100
AcDbLine
 62
40
  6
CONTINUOUS
 10
7.2202759182
 20
4.1561556826
 11
7.2255493557
 21
4.1526400584
  0
LINE
  5
388
100
AcDbEntity
  8
03__ASM_ALL_CURVES
100
AcDbLine
 62
40
  6
CONTINUOUS
 10
5.95998295
 20
5.0543666827
 11
5.9529517
 21
5.0637416826
  0
LINE
  5
389
100
AcDbEntity
  8
03__ASM_ALL_CURVES
100
AcDbLine
 62
40
  6
CONTINUOUS
 10
5.9810767
 20
5.1012416837
 11
5.984592325
 21
5.0965541815
  0
LINE
  5
38A
100
AcDbEntity
  8
03__ASM_ALL_CURVES
100
AcDbLine
 62
40
  6
CONTINUOUS
 10
6.07248295
 20
5.0543666827
 11
6.0654517
 21
5.0637416826
  0
LINE
  5
38B
100
AcDbEntity
  8
03__ASM_ALL_CURVES
100
AcDbLine
 62
40
  6
CONTINUOUS
 10
6.068967325
 20
5.0918666826
 11
6.07248295
 21
5.0871791837
  0
LINE
  5
38C
100
AcDbEntity
  8
03__ASM_ALL_CURVES
100
AcDbLine
 62
40
  6
CONTINUOUS
 10
6.21310795
 20
5.0918666826
 11
6.216623575
 21
5.0778041826
  0
LINE
  5
38D
100
AcDbEntity
  8
0
100
AcDbLine
 62
7
  6
CONTINUOUS
 10
6.5047431973
 20
4.2815172023
 11
6.5047431973
 21
4.2609507496
  0
LINE
  5
38E
100
AcDbEntity
  8
0
100
AcDbLine
 62
7
  6
CONTINUOUS
 10
6.5047431973
 20
4.1588196792
 11
6.5047431973
 21
4.050428406
  0
LINE
  5
38F
100
AcDbEntity
  8
0
100
AcDbLine
 62
7
  6
CONTINUOUS
 10
6.5047431973
 20
3.9482053633
 11
6.5047431973
 21
3.9276693255
  0
LINE
  5
390
100
AcDbEntity
  8
03__ASM_ALL_CURVES
100
AcDbLine
 62
40
  6
CONTINUOUS
 10
6.5326391876
 20
3.5035619318
 11
6.5326391876
 21
3.4965306834
  0
LINE
  5
391
100
AcDbEntity
  8
0
100
AcDbLine
 62
7
  6
CONTINUOUS
 10
6.5545534603
 20
4.1353739711
 11
6.5545534603
 21
4.0738712487
  0
LINE
  5
392
100
AcDbEntity
  8
0
100
AcDbLine
 62
7
  6
CONTINUOUS
 10
6.5807173247
 20
4.4340931826
 11
6.5807173247
 21
3.7750931826
  0
LINE
  5
393
100
AcDbEntity
  8
0
100
AcDbLine
 62
7
  6
CONTINUOUS
 10
6.5937173247
 20
4.4470931826
 11
6.5937173247
 21
3.7620931826
  0
LINE
  5
394
100
AcDbEntity
  8
03__ASM_ALL_CURVES
100
AcDbLine
 62
40
  6
CONTINUOUS
 10
6.3797095001
 20
3.4894994326
 11
6.3823462188
 21
3.5000463076
  0
LINE
  5
395
100
AcDbEntity
  8
03__ASM_ALL_CURVES
100
AcDbLine
 62
40
  6
CONTINUOUS
 10
6.4113501251
 20
3.4894994326
 11
6.4087134063
 21
3.4789525576
  0
LINE
  5
396
100
AcDbEntity
  8
03__ASM_ALL_CURVES
100
AcDbLine
 62
40
  6
CONTINUOUS
 10
5.4314673247
 20
5.0215541826
 11
5.5439673247
 21
5.0403041826
  0
LINE
  5
397
100
AcDbEntity
  8
03__ASM_ALL_CURVES
100
AcDbLine
 62
40
  6
CONTINUOUS
 10
5.4314673247
 20
5.0231166826
 11
5.5439673247
 21
5.0387416826
  0
LINE
  5
398
100
AcDbEntity
  8
03__ASM_ALL_CURVES
100
AcDbLine
 62
40
  6
CONTINUOUS
 10
5.4314673247
 20
5.0246791826
 11
5.5439673247
 21
5.0371791826
  0
LINE
  5
399
100
AcDbEntity
  8
03__ASM_ALL_CURVES
100
AcDbLine
 62
40
  6
CONTINUOUS
 10
5.4314673247
 20
5.0262416826
 11
5.5439673247
 21
5.0356166826
  0
LINE
  5
39A
100
AcDbEntity
  8
03__ASM_ALL_CURVES
100
AcDbLine
 62
40
  6
CONTINUOUS
 10
5.4314673247
 20
5.0278041826
 11
5.5439673247
 21
5.0340541826
  0
LINE
  5
39B
100
AcDbEntity
  8
03__ASM_ALL_CURVES
100
AcDbLine
 62
40
  6
CONTINUOUS
 10
5.4314673247
 20
5.0293666826
 11
5.5439673247
 21
5.0324916826
  0
LINE
  5
39C
100
AcDbEntity
  8
03__ASM_ALL_CURVES
100
AcDbLine
 62
40
  6
CONTINUOUS
 10
4.3569673247
 20
5.0324916826
 11
4.3007173247
 21
5.0309291826
  0
LINE
  5
39D
100
AcDbEntity
  8
03__ASM_ALL_CURVES
100
AcDbLine
 62
40
  6
CONTINUOUS
 10
4.3007173247
 20
5.0309291826
 11
6.5564673247
 21
5.0309291826
  0
LINE
  5
39E
100
AcDbEntity
  8
03__ASM_ALL_CURVES
100
AcDbLine
 62
40
  6
CONTINUOUS
 10
6.434592325
 20
5.0496791826
 11
6.406467325
 21
5.0496791826
  0
LINE
  5
39F
100
AcDbEntity
  8
03__ASM_ALL_CURVES
100
AcDbLine
 62
40
  6
CONTINUOUS
 10
6.364279825
 20
5.0496791826
 11
6.350217325
 21
5.0496791826
  0
LINE
  5
3A0
100
AcDbEntity
  8
03__ASM_ALL_CURVES
100
AcDbLine
 62
40
  6
CONTINUOUS
 10
6.25529545
 20
5.0496791826
 11
6.2482642
 21
5.0496791826
  0
LINE
  5
3A1
100
AcDbEntity
  8
03__ASM_ALL_CURVES
100
AcDbLine
 62
40
  6
CONTINUOUS
 10
6.19904545
 20
5.0496791826
 11
6.1920142
 21
5.0496791826
  0
LINE
  5
3A2
100
AcDbEntity
  8
03__ASM_ALL_CURVES
100
AcDbLine
 62
40
  6
CONTINUOUS
 10
6.08654545
 20
5.0496791826
 11
6.0795142
 21
5.0496791826
  0
LINE
  5
3A3
100
AcDbEntity
  8
03__ASM_ALL_CURVES
100
AcDbLine
 62
40
  6
CONTINUOUS
 10
5.97404545
 20
5.0496791826
 11
5.9670142
 21
5.0496791826
  0
LINE
  5
3A4
100
AcDbEntity
  8
03__ASM_ALL_CURVES
100
AcDbLine
 62
40
  6
CONTINUOUS
 10
5.69279545
 20
5.0496791826
 11
5.6857642
 21
5.0496791826
  0
LINE
  5
3A5
100
AcDbEntity
  8
03__ASM_ALL_CURVES
100
AcDbLine
 62
40
  6
CONTINUOUS
 10
5.63654545
 20
5.0496791826
 11
5.6295142
 21
5.0496791826
  0
LINE
  5
3A6
100
AcDbEntity
  8
03__ASM_ALL_CURVES
100
AcDbLine
 62
40
  6
CONTINUOUS
 10
5.0067173247
 20
5.0496791826
 11
5.0032016997
 21
5.0496791826
  0
LINE
  5
3A7
100
AcDbEntity
  8
03__ASM_ALL_CURVES
100
AcDbLine
 62
40
  6
CONTINUOUS
 10
4.7852329497
 20
5.0496791826
 11
4.7782016997
 21
5.0496791826
  0
LINE
  5
3A8
100
AcDbEntity
  8
03__ASM_ALL_CURVES
100
AcDbLine
 62
40
  6
CONTINUOUS
 10
4.6692173247
 20
5.0496791826
 11
4.6657016997
 21
5.0496791826
  0
LINE
  5
3A9
100
AcDbEntity
  8
03__ASM_ALL_CURVES
100
AcDbLine
 62
40
  6
CONTINUOUS
 10
4.8801548247
 20
5.0496791826
 11
4.9082798247
 21
5.0496791826
  0
LINE
  5
3AA
100
AcDbEntity
  8
03__ASM_ALL_CURVES
100
AcDbLine
 62
40
  6
CONTINUOUS
 10
5.562717325
 20
5.0496791826
 11
5.590842325
 21
5.0496791826
  0
LINE
  5
3AB
100
AcDbEntity
  8
03__ASM_ALL_CURVES
100
AcDbLine
 62
40
  6
CONTINUOUS
 10
6.293967325
 20
5.0496791826
 11
6.322092325
 21
5.0496791826
  0
LINE
  5
3AC
100
AcDbEntity
  8
03__ASM_ALL_CURVES
100
AcDbLine
 62
40
  6
CONTINUOUS
 10
5.73498295
 20
5.0684291832
 11
5.7560767
 21
5.0684291832
  0
LINE
  5
3AD
100
AcDbEntity
  8
03__ASM_ALL_CURVES
100
AcDbLine
 62
40
  6
CONTINUOUS
 10
6.48029545
 20
5.0778041826
 11
6.462717325
 21
5.0778041826
  0
LINE
  5
3AE
100
AcDbEntity
  8
03__ASM_ALL_CURVES
100
AcDbLine
 62
40
  6
CONTINUOUS
 10
5.970529825
 20
5.0778041826
 11
5.984592325
 21
5.0778041826
  0
LINE
  5
3AF
100
AcDbEntity
  8
03__ASM_ALL_CURVES
100
AcDbLine
 62
40
  6
CONTINUOUS
 10
6.125217325
 20
5.0778041826
 11
6.153342325
 21
5.0778041826
  0
LINE
  5
3B0
100
AcDbEntity
  8
03__ASM_ALL_CURVES
100
AcDbLine
 62
40
  6
CONTINUOUS
 10
6.406467325
 20
5.0778041826
 11
6.42404545
 21
5.0778041826
  0
LINE
  5
3B1
100
AcDbEntity
  8
03__ASM_ALL_CURVES
100
AcDbLine
 62
40
  6
CONTINUOUS
 10
4.7782016997
 20
5.0824916815
 11
4.7852329497
 21
5.0824916815
  0
LINE
  5
3B2
100
AcDbEntity
  8
03__ASM_ALL_CURVES
100
AcDbLine
 62
40
  6
CONTINUOUS
 10
4.3569673247
 20
5.0293666826
 11
4.3007173247
 21
5.0309291826
  0
LINE
  5
3B3
100
AcDbEntity
  8
03__ASM_ALL_CURVES
100
AcDbLine
 62
40
  6
CONTINUOUS
 10
5.4314673247
 20
5.0324916826
 11
5.5439673247
 21
5.0293666826
  0
LINE
  5
3B4
100
AcDbEntity
  8
03__ASM_ALL_CURVES
100
AcDbLine
 62
40
  6
CONTINUOUS
 10
5.4314673247
 20
5.0340541826
 11
5.5439673247
 21
5.0278041826
  0
LINE
  5
3B5
100
AcDbEntity
  8
03__ASM_ALL_CURVES
100
AcDbLine
 62
40
  6
CONTINUOUS
 10
5.4314673247
 20
5.0356166826
 11
5.5439673247
 21
5.0262416826
  0
LINE
  5
3B6
100
AcDbEntity
  8
03__ASM_ALL_CURVES
100
AcDbLine
 62
40
  6
CONTINUOUS
 10
5.4314673247
 20
5.0371791826
 11
5.5439673247
 21
5.0246791826
  0
LINE
  5
3B7
100
AcDbEntity
  8
03__ASM_ALL_CURVES
100
AcDbLine
 62
40
  6
CONTINUOUS
 10
5.9670142
 20
5.0496791826
 11
5.95998295
 21
5.0543666827
  0
LINE
  5
3B8
100
AcDbEntity
  8
03__ASM_ALL_CURVES
100
AcDbLine
 62
40
  6
CONTINUOUS
 10
5.97404545
 20
5.1059291826
 11
5.9810767
 21
5.1012416837
  0
LINE
  5
3B9
100
AcDbEntity
  8
03__ASM_ALL_CURVES
100
AcDbLine
 62
40
  6
CONTINUOUS
 10
6.0795142
 20
5.0496791826
 11
6.07248295
 21
5.0543666827
  0
LINE
  5
3BA
100
AcDbEntity
  8
03__ASM_ALL_CURVES
100
AcDbLine
 62
40
  6
CONTINUOUS
 10
6.0935767
 20
5.073116682
 11
6.097092325
 21
5.0684291832
  0
LINE
  5
3BB
100
AcDbEntity
  8
03__ASM_ALL_CURVES
100
AcDbLine
 62
40
  6
CONTINUOUS
 10
6.097092325
 20
5.0965541815
 11
6.0935767
 21
5.1012416837
  0
LINE
  5
3BC
100
AcDbEntity
  8
03__ASM_ALL_CURVES
100
AcDbLine
 62
40
  6
CONTINUOUS
 10
6.18498295
 20
5.0543666827
 11
6.1779517
 21
5.0637416826
  0
LINE
  5
3BD
100
AcDbEntity
  8
03__ASM_ALL_CURVES
100
AcDbLine
 62
40
  6
CONTINUOUS
 10
6.2060767
 20
5.1012416837
 11
6.21310795
 21
5.0918666826
  0
LINE
  5
3BE
100
AcDbEntity
  8
03__ASM_ALL_CURVES
100
AcDbLine
 62
40
  6
CONTINUOUS
 10
6.24123295
 20
5.0543666827
 11
6.237717325
 21
5.0590541829
  0
LINE
  5
3BF
100
AcDbEntity
  8
03__ASM_ALL_CURVES
100
AcDbLine
 62
40
  6
CONTINUOUS
 10
6.378342325
 20
5.0918666826
 11
6.38185795
 21
5.0778041826
  0
LINE
  5
3C0
100
AcDbEntity
  8
0
100
AcDbLine
 62
7
  6
CONTINUOUS
 10
6.6537173247
 20
4.4470891695
 11
6.6537173247
 21
3.7620971957
  0
LINE
  5
3C1
100
AcDbEntity
  8
0
100
AcDbLine
 62
7
  6
CONTINUOUS
 10
6.7237173247
 20
3.7625937026
 11
6.7237173247
 21
4.4465926626
  0
LINE
  5
3C2
100
AcDbEntity
  8
03__ASM_ALL_CURVES
100
AcDbLine
 62
40
  6
CONTINUOUS
 10
6.5141821563
 20
3.4789525576
 11
6.5115454376
 21
3.4684056826
  0
LINE
  5
3C3
100
AcDbEntity
  8
03__ASM_ALL_CURVES
100
AcDbLine
 62
40
  6
CONTINUOUS
 10
6.3638891876
 20
3.4965306834
 11
6.3612524688
 21
3.4930150568
  0
LINE
  5
3C4
100
AcDbEntity
  8
03__ASM_ALL_CURVES
100
AcDbLine
 62
40
  6
CONTINUOUS
 10
7.1411743557
 20
4.1385775568
 11
7.1359009182
 21
4.1350619326
  0
LINE
  5
3C5
100
AcDbEntity
  8
03__ASM_ALL_CURVES
100
AcDbLine
 62
40
  6
CONTINUOUS
 10
7.1675415432
 20
4.1526400584
 11
7.1728149807
 21
4.1561556826
  0
LINE
  5
3C6
100
AcDbEntity
  8
03__ASM_ALL_CURVES
100
AcDbLine
 62
40
  6
CONTINUOUS
 10
7.1833618557
 20
4.1174838077
 11
7.1780884182
 21
4.1139681826
  0
LINE
  5
3C7
100
AcDbEntity
  8
03__ASM_ALL_CURVES
100
AcDbLine
 62
40
  6
CONTINUOUS
 10
7.2255493557
 20
4.1385775568
 11
7.2202759182
 21
4.1350619326
  0
LINE
  5
3C8
100
AcDbEntity
  8
03__ASM_ALL_CURVES
100
AcDbLine
 62
40
  6
CONTINUOUS
 10
4.3569673247
 20
5.0371791826
 11
4.3007173247
 21
5.0309291826
  0
LINE
  5
3C9
100
AcDbEntity
  8
03__ASM_ALL_CURVES
100
AcDbLine
 62
40
  6
CONTINUOUS
 10
4.3569673247
 20
5.0356166826
 11
4.3007173247
 21
5.0309291826
  0
LINE
  5
3CA
100
AcDbEntity
  8
03__ASM_ALL_CURVES
100
AcDbLine
 62
40
  6
CONTINUOUS
 10
4.3569673247
 20
5.0340541826
 11
4.3007173247
 21
5.0309291826
  0
LINE
  5
3CB
100
AcDbEntity
  8
03__ASM_ALL_CURVES
100
AcDbLine
 62
40
  6
CONTINUOUS
 10
6.08654545
 20
5.1059291826
 11
6.0795142
 21
5.1059291826
  0
LINE
  5
3CC
100
AcDbEntity
  8
03__ASM_ALL_CURVES
100
AcDbLine
 62
40
  6
CONTINUOUS
 10
5.1332798247
 20
5.1059291826
 11
5.1051548247
 21
5.1059291826
  0
LINE
  5
3CD
100
AcDbEntity
  8
03__ASM_ALL_CURVES
100
AcDbLine
 62
40
  6
CONTINUOUS
 10
4.7782016997
 20
5.1059291826
 11
4.7852329497
 21
5.1059291826
  0
LINE
  5
3CE
100
AcDbEntity
  8
03__ASM_ALL_CURVES
100
AcDbLine
 62
40
  6
CONTINUOUS
 10
4.8907016997
 20
5.1059291826
 11
4.8977329497
 21
5.1059291826
  0
LINE
  5
3CF
100
AcDbEntity
  8
03__ASM_ALL_CURVES
100
AcDbLine
 62
40
  6
CONTINUOUS
 10
5.6295142
 20
5.1059291826
 11
5.63654545
 21
5.1059291826
  0
LINE
  5
3D0
100
AcDbEntity
  8
03__ASM_ALL_CURVES
100
AcDbLine
 62
40
  6
CONTINUOUS
 10
5.6857642
 20
5.1059291826
 11
5.69279545
 21
5.1059291826
  0
LINE
  5
3D1
100
AcDbEntity
  8
03__ASM_ALL_CURVES
100
AcDbLine
 62
40
  6
CONTINUOUS
 10
5.7842017
 20
5.1059291826
 11
5.81935795
 21
5.1059291826
  0
LINE
  5
3D2
100
AcDbEntity
  8
03__ASM_ALL_CURVES
100
AcDbLine
 62
40
  6
CONTINUOUS
 10
5.9670142
 20
5.1059291826
 11
5.97404545
 21
5.1059291826
  0
LINE
  5
3D3
100
AcDbEntity
  8
03__ASM_ALL_CURVES
100
AcDbLine
 62
40
  6
CONTINUOUS
 10
6.1920142
 20
5.1059291826
 11
6.19904545
 21
5.1059291826
  0
LINE
  5
3D4
100
AcDbEntity
  8
03__ASM_ALL_CURVES
100
AcDbLine
 62
40
  6
CONTINUOUS
 10
6.350217325
 20
5.1059291826
 11
6.364279825
 21
5.1059291826
  0
LINE
  5
3D5
100
AcDbEntity
  8
03__ASM_ALL_CURVES
100
AcDbLine
 62
40
  6
CONTINUOUS
 10
6.406467325
 20
5.1059291826
 11
6.434592325
 21
5.1059291826
  0
LINE
  5
3D6
100
AcDbEntity
  8
03__ASM_ALL_CURVES
100
AcDbLine
 62
40
  6
CONTINUOUS
 10
6.462717325
 20
5.1059291826
 11
6.48029545
 21
5.1059291826
  0
LINE
  5
3D7
100
AcDbEntity
  8
03__ASM_ALL_CURVES
100
AcDbLine
 62
40
  6
CONTINUOUS
 10
6.07248295
 20
5.0871791837
 11
6.0935767
 21
5.073116682
  0
LINE
  5
3D8
100
AcDbEntity
  8
03__ASM_ALL_CURVES
100
AcDbLine
 62
40
  6
CONTINUOUS
 10
6.0935767
 20
5.1012416837
 11
6.08654545
 21
5.1059291826
  0
LINE
  5
3D9
100
AcDbEntity
  8
03__ASM_ALL_CURVES
100
AcDbLine
 62
40
  6
CONTINUOUS
 10
6.1920142
 20
5.0496791826
 11
6.18498295
 21
5.0543666827
  0
LINE
  5
3DA
100
AcDbEntity
  8
03__ASM_ALL_CURVES
100
AcDbLine
 62
40
  6
CONTINUOUS
 10
6.2482642
 20
5.0496791826
 11
6.24123295
 21
5.0543666827
  0
LINE
  5
3DB
100
AcDbEntity
  8
03__ASM_ALL_CURVES
100
AcDbLine
 62
40
  6
CONTINUOUS
 10
6.19904545
 20
5.1059291826
 11
6.2060767
 21
5.1012416837
  0
LINE
  5
3DC
100
AcDbEntity
  8
0
100
AcDbLine
 62
7
  6
CONTINUOUS
 10
6.8487173247
 20
4.4470931826
 11
6.8617173247
 21
4.4340931826
  0
LINE
  5
3DD
100
AcDbEntity
  8
03__ASM_ALL_CURVES
100
AcDbLine
 62
40
  6
CONTINUOUS
 10
6.48029545
 20
5.0778041826
 11
6.490842325
 21
5.0496791826
  0
LINE
  5
3DE
100
AcDbEntity
  8
0
100
AcDbLine
 62
7
  6
CONTINUOUS
 10
6.7737173247
 20
3.7625937026
 11
6.7737173247
 21
4.4465926626
  0
LINE
  5
3DF
100
AcDbEntity
  8
0
100
AcDbLine
 62
7
  6
CONTINUOUS
 10
6.7947173247
 20
4.4470891695
 11
6.7947173247
 21
3.7620971957
  0
LINE
  5
3E0
100
AcDbEntity
  8
03__ASM_ALL_CURVES
100
AcDbLine
 62
40
  6
CONTINUOUS
 10
6.3823462188
 20
3.5000463076
 11
6.3876196563
 21
3.5070775584
  0
LINE
  5
3E1
100
AcDbEntity
  8
03__ASM_ALL_CURVES
100
AcDbLine
 62
40
  6
CONTINUOUS
 10
6.4087134063
 20
3.4789525576
 11
6.4034399688
 21
3.4719213077
  0
LINE
  5
3E2
100
AcDbEntity
  8
03__ASM_ALL_CURVES
100
AcDbLine
 62
40
  6
CONTINUOUS
 10
6.4482641876
 20
3.4965306834
 11
6.4456274688
 21
3.4930150568
  0
LINE
  5
3E3
100
AcDbEntity
  8
03__ASM_ALL_CURVES
100
AcDbLine
 62
40
  6
CONTINUOUS
 10
6.5115454376
 20
3.5035619318
 11
6.5141821563
 21
3.5070775584
  0
LINE
  5
3E4
100
AcDbEntity
  8
03__ASM_ALL_CURVES
100
AcDbLine
 62
40
  6
CONTINUOUS
 10
6.3612524688
 20
3.4930150568
 11
6.3559790313
 21
3.4894994326
  0
LINE
  5
3E5
100
AcDbEntity
  8
03__ASM_ALL_CURVES
100
AcDbLine
 62
40
  6
CONTINUOUS
 10
6.3876196563
 20
3.5070775584
 11
6.3928930938
 21
3.5105931826
  0
LINE
  5
3E6
100
AcDbEntity
  8
03__ASM_ALL_CURVES
100
AcDbLine
 62
40
  6
CONTINUOUS
 10
6.4034399688
 20
3.4719213077
 11
6.3981665313
 21
3.4684056826
  0
LINE
  5
3E7
100
AcDbEntity
  8
03__ASM_ALL_CURVES
100
AcDbLine
 62
40
  6
CONTINUOUS
 10
6.4456274688
 20
3.4930150568
 11
6.4403540313
 21
3.4894994326
  0
LINE
  5
3E8
100
AcDbEntity
  8
03__ASM_ALL_CURVES
100
AcDbLine
 62
40
  6
CONTINUOUS
 10
4.3007173247
 20
5.0309291826
 11
4.3569673247
 21
5.0403041826
  0
LINE
  5
3E9
100
AcDbEntity
  8
03__ASM_ALL_CURVES
100
AcDbLine
 62
40
  6
CONTINUOUS
 10
4.3569673247
 20
5.0387416826
 11
4.3007173247
 21
5.0309291826
  0
LINE
  5
3EA
100
AcDbEntity
  8
03__ASM_ALL_CURVES
100
AcDbLine
 62
40
  6
CONTINUOUS
 10
6.364279825
 20
5.1059291826
 11
6.371311075
 21
5.1012416837
  0
LINE
  5
3EB
100
AcDbEntity
  8
03__ASM_ALL_CURVES
100
AcDbLine
 62
40
  6
CONTINUOUS
 10
6.371311075
 20
5.1012416837
 11
6.378342325
 21
5.0918666826
  0
LINE
  5
3EC
100
AcDbEntity
  8
03__ASM_ALL_CURVES
100
AcDbLine
 62
40
  6
CONTINUOUS
 10
7.1675415432
 20
4.1174838077
 11
7.1622681057
 21
4.1245150576
  0
LINE
  5
3ED
100
AcDbEntity
  8
03__ASM_ALL_CURVES
100
AcDbLine
 62
40
  6
CONTINUOUS
 10
7.1411743557
 20
4.1526400584
 11
7.1438110745
 21
4.1491244318
  0
LINE
  5
3EE
100
AcDbEntity
  8
03__ASM_ALL_CURVES
100
AcDbLine
 62
40
  6
CONTINUOUS
 10
7.1833618557
 20
4.1526400584
 11
7.1886352932
 21
4.1456088076
  0
LINE
  5
3EF
100
AcDbEntity
  8
03__ASM_ALL_CURVES
100
AcDbLine
 62
40
  6
CONTINUOUS
 10
6.4873267
 20
5.1012416837
 11
6.490842325
 21
5.0965541815
  0
LINE
  5
3F0
100
AcDbEntity
  8
0
100
AcDbLine
 62
7
  6
CONTINUOUS
 10
6.8487173247
 20
3.7620931826
 11
6.8487173247
 21
4.4470931826
  0
LINE
  5
3F1
100
AcDbEntity
  8
0
100
AcDbLine
 62
7
  6
CONTINUOUS
 10
6.8617173247
 20
3.7750931826
 11
6.8617173247
 21
4.4340931826
  0
LINE
  5
3F2
100
AcDbEntity
  8
03__ASM_ALL_CURVES
100
AcDbLine
 62
40
  6
CONTINUOUS
 10
6.5194555938
 20
3.4859838072
 11
6.5141821563
 21
3.4789525576
  0
LINE
  5
3F3
100
AcDbEntity
  8
03__ASM_ALL_CURVES
100
AcDbLine
 62
40
  6
CONTINUOUS
 10
6.5326391876
 20
3.4965306834
 11
6.5300024688
 21
3.4930150568
  0
LINE
  5
3F4
100
AcDbEntity
  8
0
100
AcDbLine
 62
7
  6
CONTINUOUS
 10
6.8487173247
 20
3.7620931826
 11
6.8617173247
 21
3.7750931826
  0
LINE
  5
3F5
100
AcDbEntity
  8
03__ASM_ALL_CURVES
100
AcDbLine
 62
40
  6
CONTINUOUS
 10
6.5141821563
 20
3.5070775584
 11
6.5194555938
 21
3.5105931826
  0
LINE
  5
3F6
100
AcDbEntity
  8
03__ASM_ALL_CURVES
100
AcDbLine
 62
40
  6
CONTINUOUS
 10
6.5300024688
 20
3.4930150568
 11
6.5194555938
 21
3.4859838072
  0
LINE
  5
3F7
100
AcDbEntity
  8
03__ASM_ALL_CURVES
100
AcDbLine
 62
40
  6
CONTINUOUS
 10
6.48029545
 20
5.1059291826
 11
6.4873267
 21
5.1012416837
  0
LINE
  5
3F8
100
AcDbEntity
  8
03__ASM_ALL_CURVES
100
AcDbLine
 62
40
  6
CONTINUOUS
 10
7.2255493557
 20
4.1526400584
 11
7.2281860745
 21
4.1491244318
  0
LINE
  5
3F9
100
AcDbEntity
  8
03__ASM_ALL_CURVES
100
AcDbLine
 62
40
  6
CONTINUOUS
 10
7.1438110745
 20
4.1420931834
 11
7.1411743557
 21
4.1385775568
  0
LINE
  5
3FA
100
AcDbEntity
  8
03__ASM_ALL_CURVES
100
AcDbLine
 62
40
  6
CONTINUOUS
 10
7.1622681057
 20
4.1456088076
 11
7.1675415432
 21
4.1526400584
  0
LINE
  5
3FB
100
AcDbEntity
  8
03__ASM_ALL_CURVES
100
AcDbLine
 62
40
  6
CONTINUOUS
 10
7.1886352932
 20
4.1245150576
 11
7.1833618557
 21
4.1174838077
  0
LINE
  5
3FC
100
AcDbEntity
  8
03__ASM_ALL_CURVES
100
AcDbLine
 62
40
  6
CONTINUOUS
 10
7.2281860745
 20
4.1420931834
 11
7.2255493557
 21
4.1385775568
  0
LINE
  5
3FD
100
AcDbEntity
  8
03__ASM_ALL_CURVES
100
AcDbLine
 62
40
  6
CONTINUOUS
 10
7.1227173245
 20
4.1139681826
 11
7.1227173245
 21
4.1561556826
  0
LINE
  5
3FE
100
AcDbEntity
  8
03__ASM_ALL_CURVES
100
AcDbLine
 62
40
  6
CONTINUOUS
 10
7.1438110745
 20
4.1491244318
 11
7.1438110745
 21
4.1420931834
  0
LINE
  5
3FF
100
AcDbEntity
  8
03__ASM_ALL_CURVES
100
AcDbLine
 62
40
  6
CONTINUOUS
 10
7.159631387
 20
4.1350619326
 11
7.1622681057
 21
4.1456088076
  0
LINE
  5
400
100
AcDbEntity
  8
03__ASM_ALL_CURVES
100
AcDbLine
 62
40
  6
CONTINUOUS
 10
7.2202759182
 20
4.1350619326
 11
7.2281860745
 21
4.1139681826
  0
LINE
  5
401
100
AcDbEntity
  8
03__ASM_ALL_CURVES
100
AcDbLine
 62
40
  6
CONTINUOUS
 10
7.1622681057
 20
4.1245150576
 11
7.159631387
 21
4.1350619326
  0
LINE
  5
402
100
AcDbEntity
  8
03__ASM_ALL_CURVES
100
AcDbLine
 62
40
  6
CONTINUOUS
 10
7.1886352932
 20
4.1456088076
 11
7.191272012
 21
4.1350619326
  0
LINE
  5
403
100
AcDbEntity
  8
03__ASM_ALL_CURVES
100
AcDbLine
 62
40
  6
CONTINUOUS
 10
7.2070923245
 20
4.1139681826
 11
7.2070923245
 21
4.1561556826
  0
LINE
  5
404
100
AcDbEntity
  8
03__ASM_ALL_CURVES
100
AcDbLine
 62
40
  6
CONTINUOUS
 10
7.2281860745
 20
4.1491244318
 11
7.2281860745
 21
4.1420931834
  0
LINE
  5
405
100
AcDbEntity
  8
03__ASM_ALL_CURVES
100
AcDbLine
 62
40
  6
CONTINUOUS
 10
7.2598266995
 20
4.1561556826
 11
7.2598266995
 21
4.1139681826
  0
LINE
  5
406
100
AcDbEntity
  8
03__ASM_ALL_CURVES
100
AcDbLine
 62
40
  6
CONTINUOUS
 10
7.191272012
 20
4.1350619326
 11
7.1886352932
 21
4.1245150576
  0
LINE
  5
407
100
AcDbEntity
  8
03__ASM_ALL_CURVES
100
AcDbLine
 62
40
  6
CONTINUOUS
 10
7.3020141995
 20
4.1561556826
 11
7.3020141995
 21
4.1139681826
  0
ARC
  5
408
100
AcDbEntity
  8
0
100
AcDbCircle
 62
7
  6
CONTINUOUS
 10
6.4055542992
 20
4.1045931826
 40
0.219
100
AcDbArc
 50
50.0615654435
 51
52.0705394972
  0
ARC
  5
409
100
AcDbEntity
  8
0
100
AcDbCircle
 62
7
  6
CONTINUOUS
 10
6.4055542992
 20
4.1045931826
 40
0.219
100
AcDbArc
 50
307.9294319867
 51
309.9385855772
  0
CIRCLE
  5
40A
100
AcDbEntity
  8
0
100
AcDbCircle
 62
7
  6
CONTINUOUS
 10
6.5097173247
 20
4.1045931826
 40
0.0545
  0
ARC
  5
40B
100
AcDbEntity
  8
0
100
AcDbCircle
 62
7
  6
CONTINUOUS
 10
5.0217173247
 20
3.7175931826
 40
0.013
100
AcDbArc
 50
0.0000000011
 51
90.0
  0
ARC
  5
40C
100
AcDbEntity
  8
0
100
AcDbCircle
 62
7
  6
CONTINUOUS
 10
5.0217173247
 20
4.4915931826
 40
0.013
100
AcDbArc
 50
270.0
 51
359.9999999969
  0
ARC
  5
40D
100
AcDbEntity
  8
0
100
AcDbCircle
 62
7
  6
CONTINUOUS
 10
5.6672117712
 20
3.7410931826
 40
0.013
100
AcDbArc
 50
29.9999999892
 51
90.0
  0
ARC
  5
40E
100
AcDbEntity
  8
0
100
AcDbCircle
 62
7
  6
CONTINUOUS
 10
5.6672117712
 20
4.4680931826
 40
0.013
100
AcDbArc
 50
270.0
 51
330.0000000002
  0
SPLINE
  5
40F
100
AcDbEntity
  8
0
100
AcDbSpline
 62
7
  6
CONTINUOUS
 70
0
 71
3
 72
15
 73
11
 74
9
 42
0.0000001
 43
0.0000001
 44
0.0000000001
 12
0.0
 22
0.1099409465
 32
0.0
 13
0.0
 23
-0.1099409465
 33
0.0
 40
0.0
 40
0.0
 40
0.0
 40
0.0
 40
0.125
 40
0.25
 40
0.375
 40
0.5
 40
0.625
 40
0.75
 40
0.875
 40
1.0
 40
1.0
 40
1.0
 40
1.0
 10
6.7237173247
 20
4.4275931826
 30
0.0
 10
6.7237173247
 20
4.4321740554
 30
0.0
 10
6.7218949402
 20
4.4413358009
 30
0.0
 10
6.7141103722
 20
4.4529862302
 30
0.0
 10
6.702459943
 20
4.4607707981
 30
0.0
 10
6.6887173247
 20
4.4635043748
 30
0.0
 10
6.6749747064
 20
4.4607707981
 30
0.0
 10
6.6633242771
 20
4.4529862302
 30
0.0
 10
6.6555397092
 20
4.4413358009
 30
0.0
 10
6.6537173247
 20
4.4321740554
 30
0.0
 10
6.6537173247
 20
4.4275931826
 30
0.0
 11
6.7237173247
 21
4.4275931826
 31
0.0
 11
6.7210531083
 21
4.4409871027
 31
0.0
 11
6.713466062
 21
4.4523419199
 31
0.0
 11
6.7021112448
 21
4.4599289662
 31
0.0
 11
6.6887173247
 21
4.4625931826
 31
0.0
 11
6.6753234045
 21
4.4599289662
 31
0.0
 11
6.6639685873
 21
4.4523419199
 31
0.0
 11
6.656381541
 21
4.4409871027
 31
0.0
 11
6.6537173247
 21
4.4275931826
 31
0.0
  0
SPLINE
  5
410
100
AcDbEntity
  8
0
100
AcDbSpline
 62
7
  6
CONTINUOUS
 70
0
 71
3
 72
15
 73
11
 74
9
 42
0.0000001
 43
0.0000001
 44
0.0000000001
 12
0.0
 22
-0.1099409465
 32
0.0
 13
0.0
 23
0.1099409465
 33
0.0
 40
0.0
 40
0.0
 40
0.0
 40
0.0
 40
0.125
 40
0.25
 40
0.375
 40
0.5
 40
0.625
 40
0.75
 40
0.875
 40
1.0
 40
1.0
 40
1.0
 40
1.0
 10
6.7237173247
 20
3.7815931826
 30
0.0
 10
6.7237173247
 20
3.7770123098
 30
0.0
 10
6.7218949402
 20
3.7678505643
 30
0.0
 10
6.7141103722
 20
3.756200135
 30
0.0
 10
6.702459943
 20
3.7484155671
 30
0.0
 10
6.6887173247
 20
3.7456819903
 30
0.0
 10
6.6749747064
 20
3.7484155671
 30
0.0
 10
6.6633242771
 20
3.756200135
 30
0.0
 10
6.6555397092
 20
3.7678505643
 30
0.0
 10
6.6537173247
 20
3.7770123098
 30
0.0
 10
6.6537173247
 20
3.7815931826
 30
0.0
 11
6.7237173247
 21
3.7815931826
 31
0.0
 11
6.7210531083
 21
3.7681992625
 31
0.0
 11
6.713466062
 21
3.7568444453
 31
0.0
 11
6.7021112448
 21
3.749257399
 31
0.0
 11
6.6887173247
 21
3.7465931826
 31
0.0
 11
6.6753234045
 21
3.749257399
 31
0.0
 11
6.6639685873
 21
3.7568444453
 31
0.0
 11
6.656381541
 21
3.7681992625
 31
0.0
 11
6.6537173247
 21
3.7815931826
 31
0.0
  0
SPLINE
  5
411
100
AcDbEntity
  8
0
100
AcDbSpline
 62
7
  6
CONTINUOUS
 70
0
 71
3
 72
15
 73
11
 74
9
 42
0.0000001
 43
0.0000001
 44
0.0000000001
 12
0.0
 22
0.1099409465
 32
0.0
 13
0.0
 23
-0.1099409465
 33
0.0
 40
0.0
 40
0.0
 40
0.0
 40
0.0
 40
0.125
 40
0.25
 40
0.375
 40
0.5
 40
0.625
 40
0.75
 40
0.875
 40
1.0
 40
1.0
 40
1.0
 40
1.0
 10
5.0137173247
 20
4.5135931826
 30
0.0
 10
5.0137173247
 20
4.5181740554
 30
0.0
 10
5.0118949402
 20
4.5273358009
 30
0.0
 10
5.0041103722
 20
4.5389862302
 30
0.0
 10
4.992459943
 20
4.5467707981
 30
0.0
 10
4.9787173247
 20
4.5495043748
 30
0.0
 10
4.9649747064
 20
4.5467707981
 30
0.0
 10
4.9533242771
 20
4.5389862302
 30
0.0
 10
4.9455397092
 20
4.5273358009
 30
0.0
 10
4.9437173247
 20
4.5181740554
 30
0.0
 10
4.9437173247
 20
4.5135931826
 30
0.0
 11
5.0137173247
 21
4.5135931826
 31
0.0
 11
5.0110531083
 21
4.5269871027
 31
0.0
 11
5.003466062
 21
4.5383419199
 31
0.0
 11
4.9921112448
 21
4.5459289662
 31
0.0
 11
4.9787173247
 21
4.5485931826
 31
0.0
 11
4.9653234045
 21
4.5459289662
 31
0.0
 11
4.9539685873
 21
4.5383419199
 31
0.0
 11
4.946381541
 21
4.5269871027
 31
0.0
 11
4.9437173247
 21
4.5135931826
 31
0.0
  0
SPLINE
  5
412
100
AcDbEntity
  8
0
100
AcDbSpline
 62
7
  6
CONTINUOUS
 70
0
 71
3
 72
15
 73
11
 74
9
 42
0.0000001
 43
0.0000001
 44
0.0000000001
 12
0.0
 22
-0.1099409465
 32
0.0
 13
0.0
 23
0.1099409465
 33
0.0
 40
0.0
 40
0.0
 40
0.0
 40
0.0
 40
0.125
 40
0.25
 40
0.375
 40
0.5
 40
0.625
 40
0.75
 40
0.875
 40
1.0
 40
1.0
 40
1.0
 40
1.0
 10
5.0137173247
 20
3.6955931826
 30
0.0
 10
5.0137173247
 20
3.6910123098
 30
0.0
 10
5.0118949402
 20
3.6818505643
 30
0.0
 10
5.0041103722
 20
3.670200135
 30
0.0
 10
4.992459943
 20
3.6624155671
 30
0.0
 10
4.9787173247
 20
3.6596819903
 30
0.0
 10
4.9649747064
 20
3.6624155671
 30
0.0
 10
4.9533242771
 20
3.670200135
 30
0.0
 10
4.9455397092
 20
3.6818505643
 30
0.0
 10
4.9437173247
 20
3.6910123098
 30
0.0
 10
4.9437173247
 20
3.6955931826
 30
0.0
 11
5.0137173247
 21
3.6955931826
 31
0.0
 11
5.0110531083
 21
3.6821992625
 31
0.0
 11
5.003466062
 21
3.6708444453
 31
0.0
 11
4.9921112448
 21
3.663257399
 31
0.0
 11
4.9787173247
 21
3.6605931826
 31
0.0
 11
4.9653234045
 21
3.663257399
 31
0.0
 11
4.9539685873
 21
3.6708444453
 31
0.0
 11
4.946381541
 21
3.6821992625
 31
0.0
 11
4.9437173247
 21
3.6955931826
 31
0.0
  0
SPLINE
  5
413
100
AcDbEntity
  8
0
100
AcDbSpline
 62
7
  6
CONTINUOUS
 70
0
 71
3
 72
15
 73
11
 74
9
 42
0.0000001
 43
0.0000001
 44
0.0000000001
 12
0.0
 22
0.1099409465
 32
0.0
 13
0.0
 23
-0.1099409465
 33
0.0
 40
0.0
 40
0.0
 40
0.0
 40
0.0
 40
0.125
 40
0.25
 40
0.375
 40
0.5
 40
0.625
 40
0.75
 40
0.875
 40
1.0
 40
1.0
 40
1.0
 40
1.0
 10
5.6047173247
 20
4.5135931826
 30
0.0
 10
5.6047173247
 20
4.5181740554
 30
0.0
 10
5.6028949402
 20
4.5273358009
 30
0.0
 10
5.5951103722
 20
4.5389862302
 30
0.0
 10
5.583459943
 20
4.5467707981
 30
0.0
 10
5.5697173247
 20
4.5495043748
 30
0.0
 10
5.5559747064
 20
4.5467707981
 30
0.0
 10
5.5443242771
 20
4.5389862302
 30
0.0
 10
5.5365397092
 20
4.5273358009
 30
0.0
 10
5.5347173247
 20
4.5181740554
 30
0.0
 10
5.5347173247
 20
4.5135931826
 30
0.0
 11
5.6047173247
 21
4.5135931826
 31
0.0
 11
5.6020531083
 21
4.5269871027
 31
0.0
 11
5.594466062
 21
4.5383419199
 31
0.0
 11
5.5831112448
 21
4.5459289662
 31
0.0
 11
5.5697173247
 21
4.5485931826
 31
0.0
 11
5.5563234045
 21
4.5459289662
 31
0.0
 11
5.5449685873
 21
4.5383419199
 31
0.0
 11
5.537381541
 21
4.5269871027
 31
0.0
 11
5.5347173247
 21
4.5135931826
 31
0.0
  0
SPLINE
  5
414
100
AcDbEntity
  8
0
100
AcDbSpline
 62
7
  6
CONTINUOUS
 70
0
 71
3
 72
15
 73
11
 74
9
 42
0.0000001
 43
0.0000001
 44
0.0000000001
 12
0.0
 22
-0.1099409465
 32
0.0
 13
0.0
 23
0.1099409465
 33
0.0
 40
0.0
 40
0.0
 40
0.0
 40
0.0
 40
0.125
 40
0.25
 40
0.375
 40
0.5
 40
0.625
 40
0.75
 40
0.875
 40
1.0
 40
1.0
 40
1.0
 40
1.0
 10
5.6047173247
 20
3.6955931826
 30
0.0
 10
5.6047173247
 20
3.6910123098
 30
0.0
 10
5.6028949402
 20
3.6818505643
 30
0.0
 10
5.5951103722
 20
3.670200135
 30
0.0
 10
5.583459943
 20
3.6624155671
 30
0.0
 10
5.5697173247
 20
3.6596819903
 30
0.0
 10
5.5559747064
 20
3.6624155671
 30
0.0
 10
5.5443242771
 20
3.670200135
 30
0.0
 10
5.5365397092
 20
3.6818505643
 30
0.0
 10
5.5347173247
 20
3.6910123098
 30
0.0
 10
5.5347173247
 20
3.6955931826
 30
0.0
 11
5.6047173247
 21
3.6955931826
 31
0.0
 11
5.6020531083
 21
3.6821992625
 31
0.0
 11
5.594466062
 21
3.6708444453
 31
0.0
 11
5.5831112448
 21
3.663257399
 31
0.0
 11
5.5697173247
 21
3.6605931826
 31
0.0
 11
5.5563234045
 21
3.663257399
 31
0.0
 11
5.5449685873
 21
3.6708444453
 31
0.0
 11
5.537381541
 21
3.6821992625
 31
0.0
 11
5.5347173247
 21
3.6955931826
 31
0.0
  0
SPLINE
  5
415
100
AcDbEntity
  8
0
100
AcDbSpline
 62
7
  6
CONTINUOUS
 70
0
 71
3
 72
17
 73
13
 74
11
 42
0.0000001
 43
0.0000001
 44
0.0000000001
 12
0.0757283284
 22
0.0
 32
0.0
 13
-0.0000298617
 23
-0.0759724546
 33
0.0
 40
0.0
 40
0.0
 40
0.0
 40
0.0
 40
0.1134748756
 40
0.2296907681
 40
0.3429433689
 40
0.4487986757
 40
0.5513646818
 40
0.6653395907
 40
0.7817398301
 40
0.8910524796
 40
0.9937143237
 40
1.0
 40
1.0
 40
1.0
 40
1.0
 10
6.5097173247
 20
3.9485668879
 30
0.0
 10
6.5125817455
 20
3.9485668879
 30
0.0
 10
6.5183871459
 20
3.9481787873
 30
0.0
 10
6.5268929157
 20
3.9464317635
 30
0.0
 10
6.5348979489
 20
3.9435985155
 30
0.0
 10
6.5421380912
 20
3.9398692376
 30
0.0
 10
6.5488241047
 20
3.9351856513
 30
0.0
 10
6.5549280016
 20
3.9293504849
 30
0.0
 10
6.5599759447
 20
3.9223470431
 30
0.0
 10
6.5633025144
 20
3.9146741287
 30
0.0
 10
6.564193888
 20
3.9091714971
 30
0.0
 10
6.5642171755
 20
3.9064127081
 30
0.0
 10
6.5642171129
 20
3.9062535287
 30
0.0
 11
6.5097173247
 21
3.9485668879
 31
0.0
 11
6.5182913733
 21
3.947992559
 31
0.0
 11
6.5269116908
 21
3.9462191931
 31
0.0
 11
6.5349946461
 21
3.9433519665
 31
0.0
 11
6.5421170079
 21
3.9396733591
 31
0.0
 11
6.5484706522
 21
3.9352057134
 31
0.0
 11
6.5546877192
 21
3.9292186882
 31
0.0
 11
6.5597973315
 21
3.9220358974
 31
0.0
 11
6.5630290464
 21
3.9144147186
 31
0.0
 11
6.5642130848
 21
3.906731002
 31
0.0
 11
6.5642171129
 21
3.9062535287
 31
0.0
  0
SPLINE
  5
416
100
AcDbEntity
  8
0
100
AcDbSpline
 62
7
  6
CONTINUOUS
 70
0
 71
3
 72
13
 73
9
 74
7
 42
0.0000001
 43
0.0000001
 44
0.0000000001
 12
0.0459044343
 22
0.0
 32
0.0
 13
-0.0000074609
 23
-0.046070983
 33
0.0
 40
0.0
 40
0.0
 40
0.0
 40
0.0
 40
0.1750151593
 40
0.3495459655
 40
0.5204622028
 40
0.6861000275
 40
0.8457058113
 40
1.0
 40
1.0
 40
1.0
 40
1.0
 10
6.2047173247
 20
3.9920491078
 30
0.0
 10
6.2073953153
 20
3.9920491078
 30
0.0
 10
6.2127660578
 20
3.9914052356
 30
0.0
 10
6.2202884866
 20
3.9885687006
 30
0.0
 10
6.2267840817
 20
3.9840679274
 30
0.0
 10
6.2317928845
 20
3.978248385
 30
0.0
 10
6.2349714817
 20
3.9715295513
 30
0.0
 10
6.2357177094
 20
3.9667126062
 30
0.0
 10
6.2357173257
 20
3.9643431113
 30
0.0
 11
6.2047173247
 21
3.9920491078
 31
0.0
 11
6.2126936219
 21
3.991088178
 31
0.0
 11
6.2201869515
 21
3.9882530491
 31
0.0
 11
6.2266242514
 21
3.9837677448
 31
0.0
 11
6.2315613475
 21
3.9779851453
 31
0.0
 11
6.2346616921
 21
3.971346838
 31
0.0
 11
6.2357173257
 21
3.9643431113
 31
0.0
  0
SPLINE
  5
417
100
AcDbEntity
  8
0
100
AcDbSpline
 62
7
  6
CONTINUOUS
 70
0
 71
3
 72
17
 73
13
 74
11
 42
0.0000001
 43
0.0000001
 44
0.0000000001
 12
-0.0757272126
 22
0.0
 32
0.0
 13
0.0000299482
 23
0.075977252
 33
0.0
 40
0.0
 40
0.0
 40
0.0
 40
0.0
 40
0.1128273099
 40
0.2282803953
 40
0.3408097489
 40
0.4460988183
 40
0.5482958963
 40
0.661901209
 40
0.7784114467
 40
0.8880453297
 40
0.991103023
 40
1.0
 40
1.0
 40
1.0
 40
1.0
 10
6.5097173247
 20
4.2606194773
 30
0.0
 10
6.5068692921
 20
4.2606194773
 30
0.0
 10
6.5010997035
 20
4.2610029735
 30
0.0
 10
6.4926452083
 20
4.2627286787
 30
0.0
 10
6.4846835909
 20
4.2655272933
 30
0.0
 10
6.4774698741
 20
4.2692151411
 30
0.0
 10
6.4707932072
 20
4.2738537071
 30
0.0
 10
6.4646733859
 20
4.2796479882
 30
0.0
 10
6.4595839539
 20
4.2866224877
 30
0.0
 10
6.4561976084
 20
4.2942915636
 30
0.0
 10
6.455251807
 20
4.2998711127
 30
0.0
 10
6.4552175601
 20
4.3027061629
 30
0.0
 10
6.455217649
 20
4.3029314856
 30
0.0
 11
6.5097173247
 21
4.2606194773
 31
0.0
 11
6.5011921126
 21
4.2611872485
 31
0.0
 11
6.4926263398
 21
4.2629384033
 31
0.0
 11
6.4845889631
 21
4.2657698554
 31
0.0
 11
6.4774935751
 21
4.2694069077
 31
0.0
 11
6.4711455054
 21
4.2738336082
 31
0.0
 11
6.464919587
 21
4.2797707611
 31
0.0
 11
6.4597626761
 21
4.2869297778
 31
0.0
 11
6.4564700648
 21
4.2945512193
 31
0.0
 11
6.4552258049
 21
4.3022556645
 31
0.0
 11
6.455217649
 21
4.3029314856
 31
0.0
  0
SPLINE
  5
418
100
AcDbEntity
  8
0
100
AcDbSpline
 62
7
  6
CONTINUOUS
 70
0
 71
3
 72
11
 73
7
 74
5
 42
0.0000001
 43
0.0000001
 44
0.0000000001
 12
-0.0392352439
 22
0.0
 32
0.0
 13
-0.034387224
 23
-0.0190033947
 33
0.0
 40
0.0
 40
0.0
 40
0.0
 40
0.0
 40
0.2734455198
 40
0.5393590625
 40
0.7900275691
 40
1.0
 40
1.0
 40
1.0
 40
1.0
 10
6.5097173247
 20
4.2817703233
 30
0.0
 10
6.5061410908
 20
4.2817703233
 30
0.0
 10
6.4990816084
 20
4.281419226
 30
0.0
 10
6.4888521239
 20
4.2798264624
 30
0.0
 10
6.4796808276
 20
4.2772354443
 30
0.0
 10
6.4741513773
 20
4.2747828624
 30
0.0
 10
6.4717445876
 20
4.2734527994
 30
0.0
 11
6.5097173247
 21
4.2817703233
 31
0.0
 11
6.4990024873
 21
4.2812250718
 31
0.0
 11
6.4886992495
 21
4.2795835505
 31
0.0
 11
6.4792515817
 21
4.2768504964
 31
0.0
 11
6.4717445876
 21
4.2734527994
 31
0.0
  0
SPLINE
  5
419
100
AcDbEntity
  8
0
100
AcDbSpline
 62
7
  6
CONTINUOUS
 70
0
 71
3
 72
11
 73
7
 74
5
 42
0.0000001
 43
0.0000001
 44
0.0000000001
 12
0.0392200789
 22
0.0
 32
0.0
 13
0.034379849
 23
0.0189849164
 33
0.0
 40
0.0
 40
0.0
 40
0.0
 40
0.0
 40
0.2736165691
 40
0.5396973624
 40
0.7905170383
 40
1.0
 40
1.0
 40
1.0
 40
1.0
 10
6.5097173247
 20
3.9274160419
 30
0.0
 10
6.5132944125
 20
3.9274160419
 30
0.0
 10
6.5203555952
 20
3.9277673059
 30
0.0
 10
6.5305874105
 20
3.9293608463
 30
0.0
 10
6.5397528153
 20
3.9319509995
 30
0.0
 10
6.5452761185
 20
3.934400556
 30
0.0
 10
6.5476767827
 20
3.9357262281
 30
0.0
 11
6.5097173247
 21
3.9274160419
 31
0.0
 11
6.5204347137
 21
3.9279615568
 31
0.0
 11
6.5307403777
 21
3.9296039109
 31
0.0
 11
6.5401898544
 21
3.9323383677
 31
0.0
 11
6.5476767827
 21
3.9357262281
 31
0.0
  0
SPLINE
  5
41A
100
AcDbEntity
  8
0
100
AcDbSpline
 62
7
  6
CONTINUOUS
 70
0
 71
3
 72
10
 73
6
 74
4
 42
0.0000001
 43
0.0000001
 44
0.0000000001
 12
0.0228512954
 22
0.0
 32
0.0
 13
0.0181095152
 23
0.0140359854
 33
0.0
 40
0.0
 40
0.0
 40
0.0
 40
0.0
 40
0.3550134993
 40
0.7136163256
 40
1.0
 40
1.0
 40
1.0
 40
1.0
 10
6.2047173247
 20
3.9771839145
 30
0.0
 10
6.2074214974
 20
3.9771839145
 30
0.0
 10
6.2128743753
 20
3.9777442442
 30
0.0
 10
6.2201692242
 20
3.980153732
 30
0.0
 10
6.2244117205
 20
3.9827172658
 30
0.0
 10
6.226140477
 20
3.9840571582
 30
0.0
 11
6.2047173247
 21
3.9771839145
 31
0.0
 11
6.2127857799
 21
3.9780282982
 31
0.0
 11
6.2205530587
 21
3.9806397826
 31
0.0
 11
6.226140477
 21
3.9840571582
 31
0.0
  0
SPLINE
  5
41B
100
AcDbEntity
  8
0
100
AcDbSpline
 62
7
  6
CONTINUOUS
 70
0
 71
3
 72
10
 73
6
 74
4
 42
0.0000001
 43
0.0000001
 44
0.0000000001
 12
0.0181105463
 22
-0.0140399311
 32
0.0
 13
0.0228544212
 23
-0.0
 33
0.0
 40
0.0
 40
0.0
 40
0.0
 40
0.0
 40
0.2891670656
 40
0.6468096572
 40
1.0
 40
1.0
 40
1.0
 40
1.0
 10
6.1832919158
 20
3.9840589093
 30
0.0
 10
6.1850375736
 20
3.9827056141
 30
0.0
 10
6.1892957105
 20
3.98013869
 30
0.0
 10
6.1965945189
 20
3.9777393562
 30
0.0
 10
6.202026671
 20
3.9771839145
 30
0.0
 10
6.2047173247
 20
3.9771839145
 30
0.0
 11
6.1832919158
 21
3.9840589093
 31
0.0
 11
6.1889374159
 21
3.9806133105
 31
0.0
 11
6.196688761
 21
3.9780198077
 31
0.0
 11
6.2047173247
 21
3.9771839145
 31
0.0
  0
SPLINE
  5
41C
100
AcDbEntity
  8
0
100
AcDbSpline
 62
7
  6
CONTINUOUS
 70
0
 71
3
 72
12
 73
8
 74
6
 42
0.0000001
 43
0.0000001
 44
0.0000000001
 12
0.013723063
 22
0.0340484069
 32
0.0
 13
0.0365955553
 23
0.0
 33
0.0
 40
0.0
 40
0.0
 40
0.0
 40
0.0
 40
0.1396998915
 40
0.3473889313
 40
0.5616956984
 40
0.7805615328
 40
1.0
 40
1.0
 40
1.0
 40
1.0
 10
6.1755163256
 20
3.9734520166
 30
0.0
 10
6.1761553624
 20
3.9750375361
 30
0.0
 10
6.1781351292
 20
3.978823167
 30
0.0
 10
6.182657443
 20
3.9840737124
 30
0.0
 10
6.1891516945
 20
3.9885713371
 30
0.0
 10
6.1966716946
 20
3.9914057512
 30
0.0
 10
6.2020405005
 20
3.9920491078
 30
0.0
 10
6.2047173247
 20
3.9920491078
 30
0.0
 11
6.1755163256
 21
3.9734520166
 31
0.0
 11
6.1778798039
 21
3.9779952012
 31
0.0
 11
6.1828170216
 21
3.9837737318
 31
0.0
 11
6.1892527979
 21
3.9882557333
 31
0.0
 11
6.196744451
 21
3.9910890162
 31
0.0
 11
6.2047173247
 21
3.9920491078
 31
0.0
  0
SPLINE
  5
41D
100
AcDbEntity
  8
0
100
AcDbSpline
 62
7
  6
CONTINUOUS
 70
0
 71
3
 72
18
 73
14
 74
12
 42
0.0000001
 43
0.0000001
 44
0.0000000001
 12
-0.0597502953
 22
-0.0066034298
 32
0.0
 13
-0.0597951292
 23
0.0061868236
 33
0.0
 40
0.0
 40
0.0
 40
0.0
 40
0.0
 40
0.0174670401
 40
0.0691676561
 40
0.1515016135
 40
0.2586834073
 40
0.3832873981
 40
0.5168460013
 40
0.6503829469
 40
0.774928235
 40
0.8820439609
 40
0.9643260454
 40
1.0
 40
1.0
 40
1.0
 40
1.0
 10
6.2357173247
 20
4.3850931826
 30
0.0
 10
6.2353694377
 20
4.3850547351
 30
0.0
 10
6.2339915636
 20
4.3849049884
 30
0.0
 10
6.230971195
 20
4.384598742
 30
0.0
 10
6.2261557253
 20
4.3841787879
 30
0.0
 10
6.2198749253
 20
4.383757811
 30
0.0
 10
6.2125597679
 20
4.3834492388
 30
0.0
 10
6.204710597
 20
4.3833363544
 30
0.0
 10
6.1968626084
 20
4.3834496067
 30
0.0
 10
6.1895503962
 20
4.3837583488
 30
0.0
 10
6.1832731399
 20
4.3841792555
 30
0.0
 10
6.1787799752
 20
4.3845711643
 30
0.0
 10
6.1764279986
 20
4.384805666
 30
0.0
 10
6.1757169557
 20
4.3848792355
 30
0.0
 11
6.2357173247
 21
4.3850931826
 31
0.0
 11
6.2346734553
 21
4.3849797368
 31
0.0
 11
6.2315813681
 21
4.3846662567
 31
0.0
 11
6.2266506377
 21
4.3842363842
 31
0.0
 11
6.2202219073
 21
4.3838057219
 31
0.0
 11
6.2127380934
 21
4.3834902653
 31
0.0
 11
6.204710164
 21
4.3833749073
 31
0.0
 11
6.1966835422
 21
4.3834906398
 31
0.0
 11
6.1892032667
 21
4.3838062482
 31
0.0
 11
6.1827785104
 21
4.3842368158
 31
0.0
 11
6.1778508925
 21
4.3846664858
 31
0.0
 11
6.1757169557
 21
4.3848792355
 31
0.0
  0
SPLINE
  5
41E
100
AcDbEntity
  8
0
100
AcDbSpline
 62
7
  6
CONTINUOUS
 70
0
 71
3
 72
11
 73
7
 74
5
 42
0.0000001
 43
0.0000001
 44
0.0000000001
 12
0.0343192501
 22
-0.0188333643
 32
0.0
 13
0.0390954445
 23
-0.0
 33
0.0
 40
0.0
 40
0.0
 40
0.0
 40
0.0
 40
0.2067639559
 40
0.4584166446
 40
0.7254047084
 40
1.0
 40
1.0
 40
1.0
 40
1.0
 10
6.4718671922
 20
3.9356660441
 30
0.0
 10
6.4742325202
 20
3.9343680238
 30
0.0
 10
6.4797174538
 20
3.931941368
 30
0.0
 10
6.4888411994
 20
3.9293620557
 30
0.0
 10
6.4990755036
 20
3.9277675467
 30
0.0
 10
6.5061388497
 20
3.9274160419
 30
0.0
 10
6.5097173247
 20
3.9274160419
 30
0.0
 11
6.4718671922
 21
3.9356660441
 31
0.0
 11
6.4792374834
 21
3.9323410609
 31
0.0
 11
6.488687944
 21
3.9296053049
 31
0.0
 11
6.4989957904
 21
3.9279619847
 31
0.0
 11
6.5097173247
 21
3.9274160419
 31
0.0
  0
SPLINE
  5
41F
100
AcDbEntity
  8
0
100
AcDbSpline
 62
7
  6
CONTINUOUS
 70
0
 71
3
 72
16
 73
12
 74
10
 42
0.0000001
 43
0.0000001
 44
0.0000000001
 12
0.0000139659
 22
0.0759992494
 32
0.0
 13
0.0757127255
 23
0.0
 33
0.0
 40
0.0
 40
0.0
 40
0.0
 40
0.0
 40
0.0476675084
 40
0.1589855637
 40
0.2789963605
 40
0.403834128
 40
0.5182455422
 40
0.6304000143
 40
0.7512112517
 40
0.8769139322
 40
1.0
 40
1.0
 40
1.0
 40
1.0
 10
6.4552187788
 20
3.9062541166
 30
0.0
 10
6.4552190007
 20
3.9074616815
 30
0.0
 10
6.4554848888
 20
3.9114900793
 30
0.0
 10
6.4574179682
 20
3.9183464492
 30
0.0
 10
6.4619315401
 20
3.9262106114
 30
0.0
 10
6.4680310548
 20
3.9329984928
 30
0.0
 10
6.4750459409
 20
3.9384836027
 30
0.0
 10
6.4827087916
 20
3.9428039181
 30
0.0
 10
6.491186167
 20
3.9460717212
 30
0.0
 10
6.500322713
 20
3.9481109216
 30
0.0
 10
6.5066109308
 20
3.9485668879
 30
0.0
 10
6.5097173247
 20
3.9485668879
 30
0.0
 11
6.4552187788
 21
3.9062541166
 31
0.0
 11
6.4554535612
 21
3.9098663883
 31
0.0
 11
6.457665428
 21
3.917999167
 31
0.0
 11
6.4621236211
 21
3.9259166268
 31
0.0
 11
6.4684024794
 21
3.9329815122
 31
0.0
 11
6.4752121328
 21
3.9383355569
 31
0.0
 11
6.4826029524
 21
3.9425166704
 31
0.0
 11
6.4911347585
 21
3.9458143884
 31
0.0
 11
6.5004226603
 21
3.9478913424
 31
0.0
 11
6.5097173247
 21
3.9485668879
 31
0.0
  0
SPLINE
  5
420
100
AcDbEntity
  8
0
100
AcDbSpline
 62
7
  6
CONTINUOUS
 70
0
 71
3
 72
11
 73
7
 74
5
 42
0.0000001
 43
0.0000001
 44
0.0000000001
 12
-0.0343202775
 22
0.0188357756
 32
0.0
 13
-0.0390974466
 23
0.0
 33
0.0
 40
0.0
 40
0.0
 40
0.0
 40
0.0
 40
0.2069865195
 40
0.4585719748
 40
0.7254829715
 40
1.0
 40
1.0
 40
1.0
 40
1.0
 10
6.5475692011
 20
4.2735193617
 30
0.0
 10
6.5452012562
 20
4.2748189456
 30
0.0
 10
6.5397140299
 20
4.2772462447
 30
0.0
 10
6.5305886484
 20
4.2798252366
 30
0.0
 10
6.5203566421
 20
4.281418982
 30
0.0
 10
6.5132949629
 20
4.2817703233
 30
0.0
 10
6.5097173247
 20
4.2817703233
 30
0.0
 11
6.5475692011
 21
4.2735193617
 31
0.0
 11
6.540190476
 21
4.2768477686
 31
0.0
 11
6.5307418254
 21
4.2795821354
 31
0.0
 11
6.5204363586
 21
4.2812246386
 31
0.0
 11
6.5097173247
 21
4.2817703233
 31
0.0
  0
SPLINE
  5
421
100
AcDbEntity
  8
0
100
AcDbSpline
 62
7
  6
CONTINUOUS
 70
0
 71
3
 72
16
 73
12
 74
10
 42
0.0000001
 43
0.0000001
 44
0.0000000001
 12
-0.0000204394
 22
-0.075997623
 32
0.0
 13
-0.075712571
 23
-0.0
 33
0.0
 40
0.0
 40
0.0
 40
0.0
 40
0.0
 40
0.0503359856
 40
0.1620458259
 40
0.2823563257
 40
0.4070599677
 40
0.5210516964
 40
0.6326727146
 40
0.7527374537
 40
0.8776167489
 40
1.0
 40
1.0
 40
1.0
 40
1.0
 10
6.5642159043
 20
4.3029318835
 30
0.0
 10
6.5642155613
 20
4.3016567451
 30
0.0
 10
6.5639290121
 20
4.297550729
 30
0.0
 10
6.5619254069
 20
4.2906256634
 30
0.0
 10
6.557356931
 20
4.2827774619
 30
0.0
 10
6.55122726
 20
4.2760264377
 30
0.0
 10
6.5442117531
 20
4.2705877337
 30
0.0
 10
6.5365728072
 20
4.2663135183
 30
0.0
 10
6.5281380843
 20
4.2630845678
 30
0.0
 10
6.519055503
 20
4.2610700447
 30
0.0
 10
6.5128059749
 20
4.2606194773
 30
0.0
 10
6.5097173247
 20
4.2606194773
 30
0.0
 11
6.5642159043
 21
4.3029318835
 31
0.0
 11
6.5639542382
 21
4.2991185633
 31
0.0
 11
6.5616792885
 21
4.2909724202
 31
0.0
 11
6.5571610974
 21
4.283062923
 31
0.0
 11
6.5508520296
 21
4.276038672
 31
0.0
 11
6.5440449246
 21
4.270732949
 31
0.0
 11
6.5366756695
 21
4.2665958713
 31
0.0
 11
6.5281889657
 21
4.2633383548
 31
0.0
 11
6.5189591765
 21
4.2612873211
 31
0.0
 11
6.5097173247
 21
4.2606194773
 31
0.0
  0
SPLINE
  5
422
100
AcDbEntity
  8
0
100
AcDbSpline
 62
7
  6
CONTINUOUS
 70
0
 71
3
 72
22
 73
18
 74
16
 42
0.0000001
 43
0.0000001
 44
0.0000000001
 12
-0.1076738041
 22
-0.0209205978
 32
0.0
 13
-0.1076738041
 23
0.0209205978
 33
0.0
 40
0.0
 40
0.0
 40
0.0
 40
0.0
 40
0.0110483624
 40
0.0436802716
 40
0.0963399339
 40
0.1662801092
 40
0.2508908116
 40
0.3458883784
 40
0.4480912632
 40
0.5520689454
 40
0.6542879736
 40
0.7493163605
 40
0.8338983884
 40
0.9038037311
 40
0.9563885737
 40
0.9889766636
 40
1.0
 40
1.0
 40
1.0
 40
1.0
 10
6.5642173247
 20
4.3850931826
 30
0.0
 10
6.5638207849
 20
4.3850161365
 30
0.0
 10
6.5622524433
 20
4.3847146132
 30
0.0
 10
6.5587881958
 20
4.3840766066
 30
0.0
 10
6.5531908391
 20
4.3831349642
 30
0.0
 10
6.5456922615
 20
4.382047672
 30
0.0
 10
6.5366265477
 20
4.3810029123
 30
0.0
 10
6.5263533744
 20
4.3801798546
 30
0.0
 10
6.5153477914
 20
4.3797278296
 30
0.0
 10
6.504068693
 20
4.3797281902
 30
0.0
 10
6.4930614234
 20
4.3801810215
 30
0.0
 10
6.4827876436
 20
4.3810049046
 30
0.0
 10
6.4737231959
 20
4.3820501968
 30
0.0
 10
6.4662296904
 20
4.3831372144
 30
0.0
 10
6.4606379051
 20
4.3840781425
 30
0.0
 10
6.4571788346
 20
4.384715256
 30
0.0
 10
6.4556129662
 20
4.385016311
 30
0.0
 10
6.4552173247
 20
4.3850931826
 30
0.0
 11
6.5642173247
 21
4.3850931826
 31
0.0
 11
6.5630272516
 21
4.3848643875
 31
0.0
 11
6.5595071234
 21
4.384216186
 31
0.0
 11
6.5538109974
 21
4.3832583078
 31
0.0
 11
6.546218722
 21
4.3821582236
 31
0.0
 11
6.536998879
 21
4.3810968593
 31
0.0
 11
6.5266120258
 21
4.3802658706
 31
0.0
 11
6.5154110636
 21
4.3798065883
 31
0.0
 11
6.5040060162
 21
4.3798069523
 31
0.0
 11
6.4928033155
 21
4.3802670546
 31
0.0
 11
6.4824131547
 21
4.3810990916
 31
0.0
 11
6.4731965148
 21
4.3821607772
 31
0.0
 11
6.4656080869
 21
4.3832607711
 31
0.0
 11
6.4599200913
 21
4.3842175099
 31
0.0
 11
6.456404701
 21
4.3848649005
 31
0.0
 11
6.4552173247
 21
4.3850931826
 31
0.0
  0
SPLINE
  5
423
100
AcDbEntity
  8
0
100
AcDbSpline
 62
7
  6
CONTINUOUS
 70
0
 71
3
 72
22
 73
18
 74
16
 42
0.0000001
 43
0.0000001
 44
0.0000000001
 12
0.1076738041
 22
0.0209205978
 32
0.0
 13
0.1076738041
 23
-0.0209205978
 33
0.0
 40
0.0
 40
0.0
 40
0.0
 40
0.0
 40
0.0110483624
 40
0.0436802716
 40
0.0963399339
 40
0.1662801092
 40
0.2508908116
 40
0.3458883784
 40
0.4480912632
 40
0.5520689454
 40
0.6542879736
 40
0.7493163605
 40
0.8338983884
 40
0.9038037311
 40
0.9563885737
 40
0.9889766636
 40
1.0
 40
1.0
 40
1.0
 40
1.0
 10
6.4552173247
 20
3.8240931826
 30
0.0
 10
6.4556138644
 20
3.8241702287
 30
0.0
 10
6.4571822061
 20
3.824471752
 30
0.0
 10
6.4606464535
 20
3.8251097586
 30
0.0
 10
6.4662438102
 20
3.826051401
 30
0.0
 10
6.4737423878
 20
3.8271386931
 30
0.0
 10
6.4828081017
 20
3.8281834529
 30
0.0
 10
6.493081275
 20
3.8290065105
 30
0.0
 10
6.504086858
 20
3.8294585356
 30
0.0
 10
6.5153659563
 20
3.829458175
 30
0.0
 10
6.5263732259
 20
3.8290053437
 30
0.0
 10
6.5366470058
 20
3.8281814606
 30
0.0
 10
6.5457114535
 20
3.8271361683
 30
0.0
 10
6.5532049589
 20
3.8260491508
 30
0.0
 10
6.5587967442
 20
3.8251082227
 30
0.0
 10
6.5622558147
 20
3.8244711092
 30
0.0
 10
6.5638216831
 20
3.8241700542
 30
0.0
 10
6.5642173247
 20
3.8240931826
 30
0.0
 11
6.4552173247
 21
3.8240931826
 31
0.0
 11
6.4564073977
 21
3.8243219777
 31
0.0
 11
6.4599275259
 21
3.8249701791
 31
0.0
 11
6.4656236519
 21
3.8259280574
 31
0.0
 11
6.4732159273
 21
3.8270281416
 31
0.0
 11
6.4824357703
 21
3.8280895059
 31
0.0
 11
6.4928226235
 21
3.8289204946
 31
0.0
 11
6.5040235857
 21
3.8293797769
 31
0.0
 11
6.5154286331
 21
3.8293794129
 31
0.0
 11
6.5266313339
 21
3.8289193106
 31
0.0
 11
6.5370214946
 21
3.8280872736
 31
0.0
 11
6.5462381346
 21
3.827025588
 31
0.0
 11
6.5538265624
 21
3.8259255941
 31
0.0
 11
6.559514558
 21
3.8249688552
 31
0.0
 11
6.5630299483
 21
3.8243214647
 31
0.0
 11
6.5642173247
 21
3.8240931826
 31
0.0
  0
SPLINE
  5
424
100
AcDbEntity
  8
0
100
AcDbSpline
 62
7
  6
CONTINUOUS
 70
0
 71
3
 72
13
 73
9
 74
7
 42
0.0000001
 43
0.0000001
 44
0.0000000001
 12
-0.0000072862
 22
-0.0449918515
 32
0.0
 13
-0.0448292039
 23
0.0
 33
0.0
 40
0.0
 40
0.0
 40
0.0
 40
0.0
 40
0.1557305928
 40
0.3127934441
 40
0.4752520575
 40
0.6452745283
 40
0.8213774322
 40
1.0
 40
1.0
 40
1.0
 40
1.0
 10
6.2357173257
 20
3.9643431113
 30
0.0
 10
6.2357169474
 20
3.9620075754
 30
0.0
 10
6.2349995679
 20
3.9573130268
 30
0.0
 10
6.2317975904
 20
3.9508525758
 30
0.0
 10
6.2267355375
 20
3.9454410467
 30
0.0
 10
6.2202087844
 20
3.9413945208
 30
0.0
 10
6.212704715
 20
3.9389104743
 30
0.0
 10
6.2073864938
 20
3.9383555328
 30
0.0
 10
6.2047173247
 20
3.9383555328
 30
0.0
 11
6.2357173257
 21
3.9643431113
 31
0.0
 11
6.2346580663
 21
3.9574427108
 31
0.0
 11
6.23155578
 21
3.9511219879
 31
0.0
 11
6.2266158652
 21
3.9457705645
 31
0.0
 11
6.220164283
 21
3.9417120495
 31
0.0
 11
6.2126802336
 21
3.9391994867
 31
0.0
 11
6.2047173247
 21
3.9383555328
 31
0.0
  0
SPLINE
  5
425
100
AcDbEntity
  8
0
100
AcDbSpline
 62
7
  6
CONTINUOUS
 70
0
 71
3
 72
15
 73
11
 74
9
 42
0.0000001
 43
0.0000001
 44
0.0000000001
 12
0.0714065844
 22
0.0
 32
0.0
 13
-0.000019277
 23
-0.0716754247
 33
0.0
 40
0.0
 40
0.0
 40
0.0
 40
0.0
 40
0.1583204444
 40
0.3122202719
 40
0.4577088347
 40
0.591873334
 40
0.715518254
 40
0.8302009617
 40
0.9415002283
 40
1.0
 40
1.0
 40
1.0
 40
1.0
 10
6.5097173247
 20
4.3376941164
 30
0.0
 10
6.5134856987
 20
4.3376941164
 30
0.0
 10
6.520925164
 20
4.3372604674
 30
0.0
 10
6.5316715257
 20
4.3353027955
 30
0.0
 10
6.5415088321
 20
4.3320563722
 30
0.0
 10
6.5500448268
 20
4.3275463461
 30
0.0
 10
6.5569165227
 20
4.3218167559
 30
0.0
 10
6.5617886407
 20
4.3149332545
 30
0.0
 10
6.5639081735
 20
4.3083852895
 30
0.0
 10
6.5642162802
 20
4.3043295488
 30
0.0
 10
6.5642159043
 20
4.3029318835
 30
0.0
 11
6.5097173247
 21
4.3376941164
 31
0.0
 11
6.5210024771
 21
4.3370224606
 31
0.0
 11
6.5318066214
 21
4.3350128042
 31
0.0
 11
6.5416503855
 21
4.3316919106
 31
0.0
 11
6.5500777386
 21
4.3271355413
 31
0.0
 11
6.556792379
 21
4.32140266
 31
0.0
 11
6.5614583816
 21
4.3146728913
 31
0.0
 11
6.5638903898
 21
4.3071066439
 31
0.0
 11
6.5642159043
 21
4.3029318835
 31
0.0
  0
SPLINE
  5
426
100
AcDbEntity
  8
0
100
AcDbSpline
 62
7
  6
CONTINUOUS
 70
0
 71
3
 72
15
 73
11
 74
9
 42
0.0000001
 43
0.0000001
 44
0.0000000001
 12
-0.0000281619
 22
-0.0716480845
 32
0.0
 13
-0.071417854
 23
0.0
 33
0.0
 40
0.0
 40
0.0
 40
0.0
 40
0.0
 40
0.098605897
 40
0.2047378912
 40
0.315660454
 40
0.4350553427
 40
0.564402092
 40
0.7033995378
 40
0.8498846531
 40
1.0
 40
1.0
 40
1.0
 40
1.0
 10
6.5642171129
 20
3.9062535287
 30
0.0
 10
6.5642161873
 20
3.9038985541
 30
0.0
 10
6.5635752392
 20
3.8990032378
 30
0.0
 10
6.5604857103
 20
3.8920365671
 30
0.0
 10
6.5553058827
 20
3.8858129021
 30
0.0
 10
6.5484031356
 20
3.8806413305
 30
0.0
 10
6.5400671686
 20
3.8765756431
 30
0.0
 10
6.5306017737
 20
3.8736477437
 30
0.0
 10
6.5203585462
 20
3.8718832886
 30
0.0
 10
6.5132909633
 20
3.8714922487
 30
0.0
 10
6.5097173247
 20
3.8714922487
 30
0.0
 11
6.5642171129
 21
3.9062535287
 31
0.0
 11
6.5632826588
 21
3.8992705718
 31
0.0
 11
6.5602415693
 21
3.8923276676
 31
0.0
 11
6.5552334982
 21
3.8861896749
 31
0.0
 11
6.5484619385
 21
3.8810075462
 31
0.0
 11
6.5401924331
 21
3.8768905354
 31
0.0
 11
6.5307254024
 21
3.8739041229
 31
0.0
 11
6.520421246
 21
3.8720956607
 31
0.0
 11
6.5097173247
 21
3.8714922487
 31
0.0
  0
SPLINE
  5
427
100
AcDbEntity
  8
0
100
AcDbSpline
 62
7
  6
CONTINUOUS
 70
0
 71
3
 72
15
 73
11
 74
9
 42
0.0000001
 43
0.0000001
 44
0.0000000001
 12
0.0000282442
 22
0.0716542344
 32
0.0
 13
0.0714184219
 23
0.0
 33
0.0
 40
0.0
 40
0.0
 40
0.0
 40
0.0
 40
0.0961703534
 40
0.2026250671
 40
0.3137779361
 40
0.433434125
 40
0.5630741986
 40
0.7024650788
 40
0.8493996714
 40
1.0
 40
1.0
 40
1.0
 40
1.0
 10
6.455217649
 20
4.3029314856
 30
0.0
 10
6.4552185544
 20
4.3052284899
 30
0.0
 10
6.4558358287
 20
4.3100731118
 30
0.0
 10
6.4588639315
 20
4.3170184432
 30
0.0
 10
6.464028311
 20
4.3232819007
 30
0.0
 10
6.4709309898
 20
4.3284863978
 30
0.0
 10
6.4792800537
 20
4.3325781902
 30
0.0
 10
6.4887684616
 20
4.3355248192
 30
0.0
 10
6.4990421593
 20
4.3373005891
 30
0.0
 10
6.5061321121
 20
4.3376941164
 30
0.0
 10
6.5097173247
 20
4.3376941164
 30
0.0
 11
6.455217649
 21
4.3029314856
 31
0.0
 11
6.4561059389
 21
4.3097462124
 31
0.0
 11
6.4591134649
 21
4.3167288892
 31
0.0
 11
6.4641035276
 21
4.3229027756
 31
0.0
 11
6.4708736101
 21
4.3281175836
 31
0.0
 11
6.4791537156
 21
4.3322604308
 31
0.0
 11
6.4886440928
 21
4.3352664737
 31
0.0
 11
6.4989788492
 21
4.3370867535
 31
0.0
 11
6.5097173247
 21
4.3376941164
 31
0.0
  0
SPLINE
  5
428
100
AcDbEntity
  8
0
100
AcDbSpline
 62
7
  6
CONTINUOUS
 70
0
 71
3
 72
15
 73
11
 74
9
 42
0.0000001
 43
0.0000001
 44
0.0000000001
 12
-0.0714069838
 22
0.0
 32
0.0
 13
0.0000131716
 23
0.0716772132
 33
0.0
 40
0.0
 40
0.0
 40
0.0
 40
0.0
 40
0.1578317394
 40
0.3112850682
 40
0.4563881409
 40
0.5902671798
 40
0.7136634978
 40
0.8280911631
 40
0.9390574287
 40
1.0
 40
1.0
 40
1.0
 40
1.0
 10
6.5097173247
 20
3.8714922487
 30
0.0
 10
6.5059605618
 20
3.8714922487
 30
0.0
 10
6.498543391
 20
3.8719232901
 30
0.0
 10
6.4878270531
 20
3.8738691002
 30
0.0
 10
6.4780117088
 20
3.877095886
 30
0.0
 10
6.4694867623
 20
3.8815785291
 30
0.0
 10
6.4626120646
 20
3.8872733522
 30
0.0
 10
6.4577191542
 20
3.894115714
 30
0.0
 10
6.4555437963
 20
3.9006917244
 30
0.0
 10
6.4552185112
 20
3.904798052
 30
0.0
 10
6.4552187788
 20
3.9062541166
 30
0.0
 11
6.5097173247
 21
3.8714922487
 31
0.0
 11
6.4984668193
 21
3.87215973
 31
0.0
 11
6.4876927344
 21
3.874156967
 31
0.0
 11
6.4778710163
 21
3.8774572547
 31
0.0
 11
6.4694521629
 21
3.8819865553
 31
0.0
 11
6.4627321811
 21
3.8876858439
 31
0.0
 11
6.458044191
 21
3.8943781468
 31
0.0
 11
6.4555723954
 21
3.9019065131
 31
0.0
 11
6.4552187788
 21
3.9062541166
 31
0.0
  0
SPLINE
  5
429
100
AcDbEntity
  8
0
100
AcDbSpline
 62
7
  6
CONTINUOUS
 70
0
 71
3
 72
12
 73
8
 74
6
 42
0.0000001
 43
0.0000001
 44
0.0000000001
 12
-0.0357228633
 22
0.0
 32
0.0
 13
-0.0138916097
 23
0.0330533606
 33
0.0
 40
0.0
 40
0.0
 40
0.0
 40
0.0
 40
0.2239740571
 40
0.4445160395
 40
0.6586391456
 40
0.86275051
 40
1.0
 40
1.0
 40
1.0
 40
1.0
 10
6.2047173247
 20
3.9383555328
 30
0.0
 10
6.2020503265
 20
3.9383555328
 30
0.0
 10
6.1967396789
 20
3.9389092517
 30
0.0
 10
6.1892335817
 20
3.9413905866
 30
0.0
 10
6.182699349
 20
3.9454387303
 30
0.0
 10
6.1781236826
 20
3.950333499
 30
0.0
 10
6.1761466707
 20
3.9539292508
 30
0.0
 10
6.1755111319
 20
3.9554414364
 30
0.0
 11
6.2047173247
 21
3.9383555328
 31
0.0
 11
6.1967608187
 21
3.9391981049
 31
0.0
 11
6.1892910251
 21
3.9417023474
 31
0.0
 11
6.1828153114
 21
3.9457734304
 31
0.0
 11
6.1778714099
 21
3.9511328119
 31
0.0
 11
6.1755111319
 21
3.9554414364
 31
0.0
  0
SPLINE
  5
42A
100
AcDbEntity
  8
0
100
AcDbSpline
 62
7
  6
CONTINUOUS
 70
0
 71
3
 72
14
 73
10
 74
8
 42
0.0000001
 43
0.0000001
 44
0.0000000001
 12
-0.1046826132
 22
0.2029792199
 32
0.0
 13
0.1046826132
 23
0.2029792199
 33
0.0
 40
0.0
 40
0.0
 40
0.0
 40
0.0
 40
0.1530438599
 40
0.2956043717
 40
0.4324922324
 40
0.5675957362
 40
0.7044780411
 40
0.8469906498
 40
1.0
 40
1.0
 40
1.0
 40
1.0
 10
4.3347809905
 20
3.6164907101
 30
0.0
 10
4.3294406468
 20
3.6268456179
 30
0.0
 10
4.3200356534
 20
3.6473453462
 30
0.0
 10
4.3099940353
 20
3.6788008705
 30
0.0
 10
4.3048503252
 20
3.7100685393
 30
0.0
 10
4.3048520183
 20
3.7413375635
 30
0.0
 10
4.3099980988
 20
3.7726006685
 30
0.0
 10
4.3200392812
 20
3.8040491835
 30
0.0
 10
4.329441851
 20
3.8245430822
 30
0.0
 10
4.3347809905
 20
3.8348956551
 30
0.0
 11
4.3347809905
 21
3.6164907101
 31
0.0
 11
4.3203833918
 21
3.648340351
 31
0.0
 11
4.3106485196
 21
3.6794094022
 31
0.0
 11
4.3056832858
 21
3.710275516
 31
0.0
 11
4.3056849166
 21
3.7411309241
 31
0.0
 11
4.3106529055
 21
3.7719953094
 31
0.0
 11
4.3203862279
 21
3.8030533815
 31
0.0
 11
4.3347809905
 21
3.8348956551
 31
0.0
  0
SPLINE
  5
42B
100
AcDbEntity
  8
0
100
AcDbSpline
 62
7
  6
CONTINUOUS
 70
0
 71
3
 72
15
 73
11
 74
9
 42
0.0000001
 43
0.0000001
 44
0.0000000001
 12
0.1643031241
 22
0.1839340856
 32
0.0
 13
-0.1643031241
 23
0.1839340856
 33
0.0
 40
0.0
 40
0.0
 40
0.0
 40
0.0
 40
0.1498215377
 40
0.2783315905
 40
0.3927788038
 40
0.5000592815
 40
0.6073304266
 40
0.7217569014
 40
0.8502022558
 40
1.0
 40
1.0
 40
1.0
 40
1.0
 10
4.7082173247
 20
3.6164907101
 30
0.0
 10
4.7164227069
 20
3.6256764726
 30
0.0
 10
4.7308544864
 20
3.6435194312
 30
0.0
 10
4.7474522151
 20
3.6713778453
 30
0.0
 10
4.7574373221
 20
3.6986049193
 30
0.0
 10
4.7607983452
 20
3.725707275
 30
0.0
 10
4.7574305715
 20
3.7528069388
 30
0.0
 10
4.7474434542
 20
3.7800247154
 30
0.0
 10
4.7308487247
 20
3.8078741758
 30
0.0
 10
4.7164214038
 20
3.8257113514
 30
0.0
 10
4.7082173247
 20
3.8348956551
 30
0.0
 11
4.7082173247
 21
3.6164907101
 31
0.0
 11
4.7311857984
 21
3.6454356231
 31
0.0
 11
4.7471119833
 21
3.6728383381
 31
0.0
 11
4.7565609807
 21
3.6994361195
 31
0.0
 11
4.7597012897
 21
3.7257078834
 31
0.0
 11
4.7565547015
 21
3.7519765779
 31
0.0
 11
4.7471026693
 21
3.7785678527
 31
0.0
 11
4.7311824618
 21
3.8059555857
 31
0.0
 11
4.7082173247
 21
3.8348956551
 31
0.0
  0
SPLINE
  5
42C
100
AcDbEntity
  8
0
100
AcDbSpline
 62
7
  6
CONTINUOUS
 70
0
 71
3
 72
14
 73
10
 74
8
 42
0.0000001
 43
0.0000001
 44
0.0000000001
 12
-0.1103507163
 22
0.4279393037
 32
0.0
 13
0.1103507163
 23
0.4279393037
 33
0.0
 40
0.0
 40
0.0
 40
0.0
 40
0.0
 40
0.1477720816
 40
0.2900907235
 40
0.430227046
 40
0.569863817
 40
0.7099928421
 40
0.8522618536
 40
1.0
 40
1.0
 40
1.0
 40
1.0
 10
4.3347809905
 20
3.8861882376
 30
0.0
 10
4.3293454055
 20
3.9072673982
 30
0.0
 10
4.3198300534
 20
3.9489614371
 30
0.0
 10
4.30990297
 20
4.0116100761
 30
0.0
 10
4.3048484272
 20
4.073649511
 30
0.0
 10
4.3048500859
 20
4.135575972
 30
0.0
 10
4.3099070038
 20
4.1976067784
 30
0.0
 10
4.3198337792
 20
4.2602418538
 30
0.0
 10
4.3293466538
 20
4.3019238078
 30
0.0
 10
4.3347809905
 20
4.3229981276
 30
0.0
 11
4.3347809905
 21
3.8861882376
 31
0.0
 11
4.3203833918
 21
3.9498875194
 31
0.0
 11
4.3106485196
 21
4.0120256218
 31
0.0
 11
4.3056832858
 21
4.0737578495
 31
0.0
 11
4.3056849166
 21
4.1354686657
 31
0.0
 11
4.3106529055
 21
4.1971974363
 31
0.0
 11
4.3203862279
 21
4.2593135803
 31
0.0
 11
4.3347809905
 21
4.3229981276
 31
0.0
  0
SPLINE
  5
42D
100
AcDbEntity
  8
0
100
AcDbSpline
 62
7
  6
CONTINUOUS
 70
0
 71
3
 72
15
 73
11
 74
9
 42
0.0000001
 43
0.0000001
 44
0.0000000001
 12
0.1843202379
 22
0.4126856942
 32
0.0
 13
-0.1843202379
 23
0.4126856942
 33
0.0
 40
0.0
 40
0.0
 40
0.0
 40
0.0
 40
0.1377942686
 40
0.2640673782
 40
0.3836049145
 40
0.5000649493
 40
0.6165122554
 40
0.736022619
 40
0.8622283762
 40
1.0
 40
1.0
 40
1.0
 40
1.0
 10
4.7082173247
 20
3.8861882376
 30
0.0
 10
4.7166834155
 20
3.9051434787
 30
0.0
 10
4.7315149582
 20
3.9421244176
 30
0.0
 10
4.7478520734
 20
3.9976606987
 30
0.0
 10
4.7575452429
 20
4.051491438
 30
0.0
 10
4.7607668994
 20
4.1046207409
 30
0.0
 10
4.7575387093
 20
4.1577454915
 30
0.0
 10
4.7478431877
 20
4.2115592741
 30
0.0
 10
4.7315087383
 20
4.2670777693
 30
0.0
 10
4.7166820242
 20
4.3040460015
 30
0.0
 10
4.7082173247
 20
4.3229981276
 30
0.0
 11
4.7082173247
 21
3.8861882376
 31
0.0
 11
4.7311857984
 21
3.9440780636
 31
0.0
 11
4.7471119833
 21
3.9988834937
 31
0.0
 11
4.7565609807
 21
4.0520790563
 31
0.0
 11
4.7597012897
 21
4.1046225843
 31
0.0
 11
4.7565547015
 21
4.1571599732
 31
0.0
 11
4.7471026693
 21
4.2103425229
 31
0.0
 11
4.7311824618
 21
4.2651179889
 31
0.0
 11
4.7082173247
 21
4.3229981276
 31
0.0
  0
SPLINE
  5
42E
100
AcDbEntity
  8
0
100
AcDbSpline
 62
7
  6
CONTINUOUS
 70
0
 71
3
 72
14
 73
10
 74
8
 42
0.0000001
 43
0.0000001
 44
0.0000000001
 12
-0.1046826132
 22
0.2029792199
 32
0.0
 13
0.1046826132
 23
0.2029792199
 33
0.0
 40
0.0
 40
0.0
 40
0.0
 40
0.0
 40
0.1530438599
 40
0.2956043717
 40
0.4324922324
 40
0.5675957362
 40
0.7044780411
 40
0.8469906498
 40
1.0
 40
1.0
 40
1.0
 40
1.0
 10
4.3347809905
 20
4.3742907101
 30
0.0
 10
4.3294406468
 20
4.3846456179
 30
0.0
 10
4.3200356534
 20
4.4051453462
 30
0.0
 10
4.3099940353
 20
4.4366008705
 30
0.0
 10
4.3048503252
 20
4.4678685393
 30
0.0
 10
4.3048520183
 20
4.4991375635
 30
0.0
 10
4.3099980988
 20
4.5304006685
 30
0.0
 10
4.3200392812
 20
4.5618491835
 30
0.0
 10
4.329441851
 20
4.5823430822
 30
0.0
 10
4.3347809905
 20
4.5926956551
 30
0.0
 11
4.3347809905
 21
4.3742907101
 31
0.0
 11
4.3203833918
 21
4.406140351
 31
0.0
 11
4.3106485196
 21
4.4372094022
 31
0.0
 11
4.3056832858
 21
4.468075516
 31
0.0
 11
4.3056849166
 21
4.4989309241
 31
0.0
 11
4.3106529055
 21
4.5297953094
 31
0.0
 11
4.3203862279
 21
4.5608533815
 31
0.0
 11
4.3347809905
 21
4.5926956551
 31
0.0
  0
SPLINE
  5
42F
100
AcDbEntity
  8
0
100
AcDbSpline
 62
7
  6
CONTINUOUS
 70
0
 71
3
 72
15
 73
11
 74
9
 42
0.0000001
 43
0.0000001
 44
0.0000000001
 12
0.1643031241
 22
0.1839340856
 32
0.0
 13
-0.1643031241
 23
0.1839340856
 33
0.0
 40
0.0
 40
0.0
 40
0.0
 40
0.0
 40
0.1498215377
 40
0.2783315905
 40
0.3927788038
 40
0.5000592815
 40
0.6073304266
 40
0.7217569014
 40
0.8502022558
 40
1.0
 40
1.0
 40
1.0
 40
1.0
 10
4.7082173247
 20
4.3742907101
 30
0.0
 10
4.7164227069
 20
4.3834764726
 30
0.0
 10
4.7308544864
 20
4.4013194312
 30
0.0
 10
4.7474522151
 20
4.4291778453
 30
0.0
 10
4.7574373221
 20
4.4564049193
 30
0.0
 10
4.7607983452
 20
4.483507275
 30
0.0
 10
4.7574305715
 20
4.5106069388
 30
0.0
 10
4.7474434542
 20
4.5378247154
 30
0.0
 10
4.7308487247
 20
4.5656741758
 30
0.0
 10
4.7164214038
 20
4.5835113514
 30
0.0
 10
4.7082173247
 20
4.5926956551
 30
0.0
 11
4.7082173247
 21
4.3742907101
 31
0.0
 11
4.7311857984
 21
4.4032356231
 31
0.0
 11
4.7471119833
 21
4.4306383381
 31
0.0
 11
4.7565609807
 21
4.4572361195
 31
0.0
 11
4.7597012897
 21
4.4835078834
 31
0.0
 11
4.7565547015
 21
4.5097765779
 31
0.0
 11
4.7471026693
 21
4.5363678527
 31
0.0
 11
4.7311824618
 21
4.5637555857
 31
0.0
 11
4.7082173247
 21
4.5926956551
 31
0.0
  0
ENDSEC
  0
SECTION
  2
OBJECTS
  0
DICTIONARY
  5
C
100
AcDbDictionary
280
0
281
1
  3
ACAD_GROUP
350
D
  3
ACAD_MLINESTYLE
350
17
  3
ACAD_LAYOUT
350
1A
  3
ACAD_PLOTSETTINGS
350
19
  3
ACAD_PLOTSTYLENAME
350
E
  0
DICTIONARY
  5
D
102
{ACAD_REACTORS
330
C
102
}
100
AcDbDictionary
280
0
281
1
  0
ACDBDICTIONARYWDFLT
  5
E
102
{ACAD_REACTORS
330
C
102
}
100
AcDbDictionary
281
1
  3
Normal
350
F
100
AcDbDictionaryWithDefault
340
F
  0
DICTIONARY
  5
17
102
{ACAD_REACTORS
330
C
102
}
100
AcDbDictionary
280
0
281
1
  3
Standard
350
18
  0
DICTIONARY
  5
19
102
{ACAD_REACTORS
330
C
102
}
100
AcDbDictionary
281
1
  0
DICTIONARY
  5
1A
102
{ACAD_REACTORS
330
C
102
}
100
AcDbDictionary
281
1
  3
Layout1
350
1E
  3
Model
350
22
  0
ACDBPLACEHOLDER
  5
F
102
{ACAD_REACTORS
330
E
102
}
  0
MLINESTYLE
  5
18
102
{ACAD_REACTORS
330
17
102
}
100
AcDbMlineStyle
  2
STANDARD
 70
0
  3

 62
256
 51
90.0
 52
90.0
 71
2
 49
0.5
 62
256
  6
BYLAYER
 49
-0.5
 62
256
  6
BYLAYER
  0
LAYOUT
  5
1E
102
{ACAD_REACTORS
330
1A
102
}
100
AcDbPlotSettings
  1

  2

  4

  6

 40
0.0
 41
0.0
 42
0.0
 43
0.0
 44
0.0
 45
0.0
 46
0.0
 47
0.0
 48
0.0
 49
0.0
140
0.0
141
0.0
142
1.0
143
1.0
 70
0
 72
0
 73
0
 74
0
  7

 75
0
147
1.0
148
0.0
149
0.0
100
AcDbLayout
  1
Layout1
 70
0
 71
0
 10
0.0
 20
0.0
 11
0.0
 21
0.0
 12
0.0
 22
0.0
 32
0.0
 14
0.0
 24
0.0
 34
0.0
 15
0.0
 25
0.0
 35
0.0
146
0.0
 13
0.0
 23
0.0
 33
0.0
 16
0.0
 26
0.0
 36
0.0
 17
0.0
 27
0.0
 37
0.0
 76
0
330
1B
331
0
345
0
346
0
  0
LAYOUT
  5
22
102
{ACAD_REACTORS
330
1A
102
}
100
AcDbPlotSettings
  1

  2

  4

  6

 40
0.0
 41
0.0
 42
0.0
 43
0.0
 44
0.0
 45
0.0
 46
0.0
 47
0.0
 48
0.0
 49
0.0
140
0.0
141
0.0
142
1.0
143
1.0
 70
0
 72
0
 73
0
 74
0
  7

 75
0
147
1.0
148
0.0
149
0.0
100
AcDbLayout
  1
Model
 70
0
 71
0
 10
0.0
 20
0.0
 11
0.0
 21
0.0
 12
0.0
 22
0.0
 32
0.0
 14
0.0
 24
0.0
 34
0.0
 15
0.0
 25
0.0
 35
0.0
146
0.0
 13
0.0
 23
0.0
 33
0.0
 16
0.0
 26
0.0
 36
0.0
 17
0.0
 27
0.0
 37
0.0
 76
0
330
1F
331
0
345
0
346
0
  0
ENDSEC
  0
EOF
