999
DXF file: CXDA-XCN.dxf
999
Pro/ENGINEER 2006240 by Parametric Technology Corporation
  0
SECTION
  2
HEADER
  9
$ACADVER
  1
AC1015
  9
$DWGCODEPAGE
  3
ANSI_1252
  9
$EXTMAX
 10
11.6929133858
 20
8.2677165354
 30
0.0
  9
$EXTMIN
 10
0.0
 20
0.0
 30
0.0
  9
$LIMMIN
 10
0.0
 20
0.0
  9
$LIMMAX
 10
11.6929133858
 20
8.2677165354
  9
$VIEWCTR
 10
5.8464566929
 20
4.1338582677
  9
$VIEWSIZE
 40
8.2677165354
  9
$CLAYER
  8
0
  9
$LTSCALE
 40
0.6431102362
  9
$CELTYPE
  6
BYLAYER
  9
$DIMSCALE
 40
1.0
  9
$DIMASZ
 40
0.1875
  9
$DIMEXO
 40
0.0730807087
  9
$DIMDLI
 40
0.4443307087
  9
$DIMEXE
 40
0.2104724409
  9
$DIMCEN
 40
0.1052362205
  9
$DIMLFAC
 40
1.0
  9
$DIMBLK
  1
_CLOSED
  9
$DIMTXT
 40
0.15625
  9
$DIMTOL
 70
0
  9
$DIMLIM
 70
0
  9
$DIMTFAC
 40
1.0
  9
$PDMODE
 70
3
  9
$PDSIZE
 40
0.3125
  9
$HANDSEED
  5
414
  9
$MEASUREMENT
 70
0
  9
$INSUNITS
 70
1
  0
ENDSEC
  0
SECTION
  2
CLASSES
  0
CLASS
  1
ACDBDICTIONARYWDFLT
  2
AcDbDictionaryWithDefault
  3
AutoCAD 2000
 90
0
280
0
281
0
  0
CLASS
  1
ACDBPLACEHOLDER
  2
AcDbPlaceHolder
  3
AutoCAD 2000
 90
0
280
0
281
0
  0
CLASS
  1
LAYOUT
  2
AcDbLayout
  3
AutoCAD 2000
 90
0
280
0
281
0
  0
ENDSEC
  0
SECTION
  2
TABLES
  0
TABLE
  2
VPORT
  5
8
100
AcDbSymbolTable
 70
2
  0
VPORT
  5
1F4
100
AcDbSymbolTableRecord
100
AcDbViewportTableRecord
  2
*ACTIVE
 70
0
 10
0.0
 20
0.0
 11
1.0
 21
1.0
 12
5.8464566929
 22
4.1338582677
 13
0.0
 23
0.0
 14
1.0
 24
1.0
 15
0.0
 25
0.0
 16
0.0
 26
0.0
 36
1.0
 17
0.0
 27
0.0
 37
0.0
 40
8.2677165354
 41
1.4142857143
 42
50.0
 43
0.0
 44
0.0
 50
0.0
 51
0.0
 71
0
 72
100
 73
1
 74
1
 75
0
 76
0
 77
0
 78
0
  0
ENDTAB
  0
TABLE
  2
LTYPE
  5
5
100
AcDbSymbolTable
 70
6
  0
LTYPE
  5
14
100
AcDbSymbolTableRecord
100
AcDbLinetypeTableRecord
  2
BYBLOCK
 70
0
  3

 72
65
 73
0
 40
0.0
  0
LTYPE
  5
15
100
AcDbSymbolTableRecord
100
AcDbLinetypeTableRecord
  2
BYLAYER
 70
0
  3

 72
65
 73
0
 40
0.0
  0
LTYPE
  5
16
100
AcDbSymbolTableRecord
100
AcDbLinetypeTableRecord
  2
CONTINUOUS
 70
64
  3
Solid line
 72
65
 73
0
 40
0.0
  0
LTYPE
  5
1F5
100
AcDbSymbolTableRecord
100
AcDbLinetypeTableRecord
  2
CENTER
 70
64
  3
____ _ ____ _ ____ _ ____ _ ____ _ ____ _ ____
 72
65
 73
4
 40
0.6
 49
0.375
 74
0
 49
-0.075
 74
0
 49
0.075
 74
0
 49
-0.075
 74
0
  0
LTYPE
  5
1F6
100
AcDbSymbolTableRecord
100
AcDbLinetypeTableRecord
  2
HIDDEN
 70
64
  3
- - - - - - - - - - - - - - - - - - - -
 72
65
 73
2
 40
0.2
 49
0.1
 74
0
 49
-0.1
 74
0
  0
LTYPE
  5
1F7
100
AcDbSymbolTableRecord
100
AcDbLinetypeTableRecord
  2
PHANTOM
 70
64
  3
_____ _ _ _____ _ _ _____ _ _ _____
 72
65
 73
6
 40
0.8
 49
0.45
 74
0
 49
-0.05
 74
0
 49
0.1
 74
0
 49
-0.05
 74
0
 49
0.1
 74
0
 49
-0.05
 74
0
  0
LTYPE
  5
1F8
100
AcDbSymbolTableRecord
100
AcDbLinetypeTableRecord
  2
DOT
 70
64
  3
. . . . . . . . . . . . . . . . . . . .
 72
65
 73
2
 40
0.2
 49
0.1
 74
0
 49
-0.1
 74
0
  0
LTYPE
  5
1F9
100
AcDbSymbolTableRecord
100
AcDbLinetypeTableRecord
  2
DASHED
 70
64
  3
- - - - - - - - - - - - - - - - - - - -
 72
65
 73
2
 40
0.2
 49
0.1
 74
0
 49
-0.1
 74
0
  0
ENDTAB
  0
TABLE
  2
LAYER
  5
2
100
AcDbSymbolTable
 70
36
  0
LAYER
  5
10
100
AcDbSymbolTableRecord
100
AcDbLayerTableRecord
  2
0
 70
0
 62
7
  6
CONTINUOUS
370
-3
390
F
  0
LAYER
  5
1FA
100
AcDbSymbolTableRecord
100
AcDbLayerTableRecord
  2
DEFAULT_1
 70
0
 62
7
  6
CENTER
370
-3
390
F
  0
LAYER
  5
1FB
100
AcDbSymbolTableRecord
100
AcDbLayerTableRecord
  2
DEFAULT_2
 70
0
 62
8
  6
HIDDEN
370
-3
390
F
  0
LAYER
  5
1FC
100
AcDbSymbolTableRecord
100
AcDbLayerTableRecord
  2
DEFAULT_3
 70
0
 62
7
  6
PHANTOM
370
-3
390
F
  0
LAYER
  5
1FD
100
AcDbSymbolTableRecord
100
AcDbLayerTableRecord
  2
_BLACK_HOLE
 70
0
 62
7
  6
CONTINUOUS
370
-3
390
F
  0
LAYER
  5
1FE
100
AcDbSymbolTableRecord
100
AcDbLayerTableRecord
  2
01_ALL_DTM_PLN
 70
0
 62
7
  6
CONTINUOUS
370
-3
390
F
  0
LAYER
  5
1FF
100
AcDbSymbolTableRecord
100
AcDbLayerTableRecord
  2
01__ASM_ALL_DTM_PLN
 70
0
 62
7
  6
CONTINUOUS
370
-3
390
F
  0
LAYER
  5
200
100
AcDbSymbolTableRecord
100
AcDbLayerTableRecord
  2
01__ASM_DEF_DTM_PLN
 70
0
 62
7
  6
CONTINUOUS
370
-3
390
F
  0
LAYER
  5
201
100
AcDbSymbolTableRecord
100
AcDbLayerTableRecord
  2
01___PRT_ALL_DTM_PLN
 70
0
 62
7
  6
CONTINUOUS
370
-3
390
F
  0
LAYER
  5
202
100
AcDbSymbolTableRecord
100
AcDbLayerTableRecord
  2
01___PRT_DEF_DTM_PLN
 70
0
 62
7
  6
CONTINUOUS
370
-3
390
F
  0
LAYER
  5
203
100
AcDbSymbolTableRecord
100
AcDbLayerTableRecord
  2
02_ALL_AXES
 70
0
 62
7
  6
CONTINUOUS
370
-3
390
F
  0
LAYER
  5
204
100
AcDbSymbolTableRecord
100
AcDbLayerTableRecord
  2
02__ASM_ALL_AXES
 70
0
 62
7
  6
CONTINUOUS
370
-3
390
F
  0
LAYER
  5
205
100
AcDbSymbolTableRecord
100
AcDbLayerTableRecord
  2
02___PRT_ALL_AXES
 70
0
 62
7
  6
CONTINUOUS
370
-3
390
F
  0
LAYER
  5
206
100
AcDbSymbolTableRecord
100
AcDbLayerTableRecord
  2
03_ALL_CURVES
 70
0
 62
7
  6
CONTINUOUS
370
-3
390
F
  0
LAYER
  5
207
100
AcDbSymbolTableRecord
100
AcDbLayerTableRecord
  2
03__ASM_ALL_CURVES
 70
0
 62
7
  6
CONTINUOUS
370
-3
390
F
  0
LAYER
  5
208
100
AcDbSymbolTableRecord
100
AcDbLayerTableRecord
  2
03___PRT_ALL_CURVES
 70
0
 62
7
  6
CONTINUOUS
370
-3
390
F
  0
LAYER
  5
209
100
AcDbSymbolTableRecord
100
AcDbLayerTableRecord
  2
04_ALL_DTM_PNT
 70
0
 62
7
  6
CONTINUOUS
370
-3
390
F
  0
LAYER
  5
20A
100
AcDbSymbolTableRecord
100
AcDbLayerTableRecord
  2
04__ASM_ALL_DTM_PNT
 70
0
 62
7
  6
CONTINUOUS
370
-3
390
F
  0
LAYER
  5
20B
100
AcDbSymbolTableRecord
100
AcDbLayerTableRecord
  2
04___PRT_ALL_DTM_PNT
 70
0
 62
7
  6
CONTINUOUS
370
-3
390
F
  0
LAYER
  5
20C
100
AcDbSymbolTableRecord
100
AcDbLayerTableRecord
  2
05_ALL_DTM_CSYS
 70
0
 62
7
  6
CONTINUOUS
370
-3
390
F
  0
LAYER
  5
20D
100
AcDbSymbolTableRecord
100
AcDbLayerTableRecord
  2
05__ASM_ALL_DTM_CSYS
 70
0
 62
7
  6
CONTINUOUS
370
-3
390
F
  0
LAYER
  5
20E
100
AcDbSymbolTableRecord
100
AcDbLayerTableRecord
  2
05__ASM_DEF_DTM_CSYS
 70
0
 62
7
  6
CONTINUOUS
370
-3
390
F
  0
LAYER
  5
20F
100
AcDbSymbolTableRecord
100
AcDbLayerTableRecord
  2
05___PRT_ALL_DTM_CSYS
 70
0
 62
7
  6
CONTINUOUS
370
-3
390
F
  0
LAYER
  5
210
100
AcDbSymbolTableRecord
100
AcDbLayerTableRecord
  2
05___PRT_DEF_DTM_CSYS
 70
0
 62
7
  6
CONTINUOUS
370
-3
390
F
  0
LAYER
  5
211
100
AcDbSymbolTableRecord
100
AcDbLayerTableRecord
  2
06_ALL_SURFS
 70
0
 62
7
  6
CONTINUOUS
370
-3
390
F
  0
LAYER
  5
212
100
AcDbSymbolTableRecord
100
AcDbLayerTableRecord
  2
06__ASM_ALL_SURFS
 70
0
 62
7
  6
CONTINUOUS
370
-3
390
F
  0
LAYER
  5
213
100
AcDbSymbolTableRecord
100
AcDbLayerTableRecord
  2
06___PRT_ALL_SURFS
 70
0
 62
7
  6
CONTINUOUS
370
-3
390
F
  0
LAYER
  5
214
100
AcDbSymbolTableRecord
100
AcDbLayerTableRecord
  2
07__ASM_ALL_SKELETONS
 70
0
 62
7
  6
CONTINUOUS
370
-3
390
F
  0
LAYER
  5
215
100
AcDbSymbolTableRecord
100
AcDbLayerTableRecord
  2
126-002_HEX_FEATURES
 70
0
 62
7
  6
CONTINUOUS
370
-3
390
F
  0
LAYER
  5
216
100
AcDbSymbolTableRecord
100
AcDbLayerTableRecord
  2
126-002_REF_GEOMETRY
 70
0
 62
7
  6
CONTINUOUS
370
-3
390
F
  0
LAYER
  5
217
100
AcDbSymbolTableRecord
100
AcDbLayerTableRecord
  2
126-100_HEX_FEATURES
 70
0
 62
7
  6
CONTINUOUS
370
-3
390
F
  0
LAYER
  5
218
100
AcDbSymbolTableRecord
100
AcDbLayerTableRecord
  2
126-100_REF_GEOMETRY
 70
0
 62
7
  6
CONTINUOUS
370
-3
390
F
  0
LAYER
  5
219
100
AcDbSymbolTableRecord
100
AcDbLayerTableRecord
  2
126-101_HEX_FEATURES
 70
0
 62
7
  6
CONTINUOUS
370
-3
390
F
  0
LAYER
  5
21A
100
AcDbSymbolTableRecord
100
AcDbLayerTableRecord
  2
126-101_REF_GEOMETRY
 70
0
 62
7
  6
CONTINUOUS
370
-3
390
F
  0
LAYER
  5
21B
100
AcDbSymbolTableRecord
100
AcDbLayerTableRecord
  2
126-102_HEX_FEATURES
 70
0
 62
7
  6
CONTINUOUS
370
-3
390
F
  0
LAYER
  5
21C
100
AcDbSymbolTableRecord
100
AcDbLayerTableRecord
  2
126-102_REF_GEOMETRY
 70
0
 62
7
  6
CONTINUOUS
370
-3
390
F
  0
LAYER
  5
21D
100
AcDbSymbolTableRecord
100
AcDbLayerTableRecord
  2
126-103_HEX_FEATURES
 70
0
 62
7
  6
CONTINUOUS
370
-3
390
F
  0
LAYER
  5
21E
100
AcDbSymbolTableRecord
100
AcDbLayerTableRecord
  2
126-103_REF_GEOMETRY
 70
0
 62
7
  6
CONTINUOUS
370
-3
390
F
  0
LAYER
  5
21F
100
AcDbSymbolTableRecord
100
AcDbLayerTableRecord
  2
126-104_HEX_FEATURES
 70
0
 62
7
  6
CONTINUOUS
370
-3
390
F
  0
LAYER
  5
220
100
AcDbSymbolTableRecord
100
AcDbLayerTableRecord
  2
126-104_REF_GEOMETRY
 70
0
 62
7
  6
CONTINUOUS
370
-3
390
F
  0
LAYER
  5
221
100
AcDbSymbolTableRecord
100
AcDbLayerTableRecord
  2
250-19_BSPP_PORT_PER_S-186
 70
0
 62
7
  6
CONTINUOUS
370
-3
390
F
  0
LAYER
  5
222
100
AcDbSymbolTableRecord
100
AcDbLayerTableRecord
  2
COPY_GEO_FET
 70
0
 62
7
  6
CONTINUOUS
370
-3
390
F
  0
LAYER
  5
223
100
AcDbSymbolTableRecord
100
AcDbLayerTableRecord
  2
COSMESTIC
 70
0
 62
7
  6
CONTINUOUS
370
-3
390
F
  0
LAYER
  5
224
100
AcDbSymbolTableRecord
100
AcDbLayerTableRecord
  2
COSMETIC
 70
0
 62
7
  6
CONTINUOUS
370
-3
390
F
  0
LAYER
  5
225
100
AcDbSymbolTableRecord
100
AcDbLayerTableRecord
  2
CUT_REF_SURF
 70
0
 62
7
  6
CONTINUOUS
370
-3
390
F
  0
LAYER
  5
226
100
AcDbSymbolTableRecord
100
AcDbLayerTableRecord
  2
DATUM
 70
0
 62
7
  6
CONTINUOUS
370
-3
390
F
  0
LAYER
  5
227
100
AcDbSymbolTableRecord
100
AcDbLayerTableRecord
  2
DATUMCURVES
 70
0
 62
7
  6
CONTINUOUS
370
-3
390
F
  0
LAYER
  5
228
100
AcDbSymbolTableRecord
100
AcDbLayerTableRecord
  2
DIMENSIONS
 70
0
 62
7
  6
CONTINUOUS
370
-3
390
F
  0
LAYER
  5
229
100
AcDbSymbolTableRecord
100
AcDbLayerTableRecord
  2
DTM230
 70
0
 62
7
  6
CONTINUOUS
370
-3
390
F
  0
LAYER
  5
22A
100
AcDbSymbolTableRecord
100
AcDbLayerTableRecord
  2
DTM_500002
 70
0
 62
7
  6
CONTINUOUS
370
-3
390
F
  0
LAYER
  5
22B
100
AcDbSymbolTableRecord
100
AcDbLayerTableRecord
  2
DTM_515002
 70
0
 62
7
  6
CONTINUOUS
370
-3
390
F
  0
LAYER
  5
22C
100
AcDbSymbolTableRecord
100
AcDbLayerTableRecord
  2
DTM_SPRING_RH
 70
0
 62
7
  6
CONTINUOUS
370
-3
390
F
  0
LAYER
  5
22D
100
AcDbSymbolTableRecord
100
AcDbLayerTableRecord
  2
DTM_SP_RH_CONSTR
 70
0
 62
7
  6
CONTINUOUS
370
-3
390
F
  0
LAYER
  5
22E
100
AcDbSymbolTableRecord
100
AcDbLayerTableRecord
  2
GEOMETRICTOLERANCES
 70
0
 62
7
  6
CONTINUOUS
370
-3
390
F
  0
LAYER
  5
22F
100
AcDbSymbolTableRecord
100
AcDbLayerTableRecord
  2
PARAMETERDIMENSIONS
 70
0
 62
7
  6
CONTINUOUS
370
-3
390
F
  0
LAYER
  5
230
100
AcDbSymbolTableRecord
100
AcDbLayerTableRecord
  2
PLANE
 70
0
 62
7
  6
CONTINUOUS
370
-3
390
F
  0
LAYER
  5
231
100
AcDbSymbolTableRecord
100
AcDbLayerTableRecord
  2
STD_SAE-4_PORT
 70
0
 62
7
  6
CONTINUOUS
370
-3
390
F
  0
LAYER
  5
232
100
AcDbSymbolTableRecord
100
AcDbLayerTableRecord
  2
STD_SAE-6_PORT
 70
0
 62
7
  6
CONTINUOUS
370
-3
390
F
  0
LAYER
  5
233
100
AcDbSymbolTableRecord
100
AcDbLayerTableRecord
  2
T-8A_CAVITY
 70
0
 62
7
  6
CONTINUOUS
370
-3
390
F
  0
LAYER
  5
234
100
AcDbSymbolTableRecord
100
AcDbLayerTableRecord
  2
T-8A_CAVITY_REF_GEOMETRY
 70
0
 62
7
  6
CONTINUOUS
370
-3
390
F
  0
LAYER
  5
235
100
AcDbSymbolTableRecord
100
AcDbLayerTableRecord
  2
TEXT
 70
0
 62
7
  6
CONTINUOUS
370
-3
390
F
  0
LAYER
  5
236
100
AcDbSymbolTableRecord
100
AcDbLayerTableRecord
  2
THREAD
 70
0
 62
7
  6
CONTINUOUS
370
-3
390
F
  0
LAYER
  5
237
100
AcDbSymbolTableRecord
100
AcDbLayerTableRecord
  2
XSEC_DATUMS
 70
0
 62
7
  6
CONTINUOUS
370
-3
390
F
  0
ENDTAB
  0
TABLE
  2
STYLE
  5
3
100
AcDbSymbolTable
 70
1
  0
STYLE
  5
11
100
AcDbSymbolTableRecord
100
AcDbTextStyleTableRecord
  2
STANDARD
 70
0
 40
0.0
 41
0.8
 50
0.0
 71
0
 42
0.2
  3
txt
  4

  0
ENDTAB
  0
TABLE
  2
VIEW
  5
6
100
AcDbSymbolTable
 70
0
  0
ENDTAB
  0
TABLE
  2
UCS
  5
7
100
AcDbSymbolTable
 70
0
  0
ENDTAB
  0
TABLE
  2
APPID
  5
9
100
AcDbSymbolTable
 70
1
  0
APPID
  5
238
100
AcDbSymbolTableRecord
100
AcDbRegAppTableRecord
  2
ACAD
 70
0
  0
ENDTAB
  0
TABLE
  2
BLOCK_RECORD
  5
1
100
AcDbSymbolTable
 70
0
  0
BLOCK_RECORD
  5
1F
100
AcDbSymbolTableRecord
100
AcDbBlockTableRecord
  2
*MODEL_SPACE
  0
BLOCK_RECORD
  5
1B
100
AcDbSymbolTableRecord
100
AcDbBlockTableRecord
  2
*PAPER_SPACE
  0
ENDTAB
  0
TABLE
  2
DIMSTYLE
  5
A
100
AcDbSymbolTable
 70
1
100
AcDbDimStyleTable
 71
0
  0
DIMSTYLE
105
239
100
AcDbSymbolTableRecord
100
AcDbDimStyleTableRecord
  2
STANDARD
 70
0
  3

  4

 40
1.0
 41
0.1875
 42
0.0625
 43
0.38
 44
0.18
 45
0.0
 46
0.0
 47
0.01
 48
0.01
140
0.15625
141
0.09
142
0.0
143
25.4
144
1.0
145
0.0
146
1.0
147
0.09
 71
0.0
 72
0.0
 73
1
 74
1
 75
0
 76
0
 77
0
 78
4
170
0
171
2
172
0
173
0
174
0
175
0
176
0
177
0
178
0
270
2
271
2
272
2
273
2
274
2
275
0
280
0
281
0
282
0
283
1
284
4
285
0
286
0
287
3
288
0
340
11
  0
ENDTAB
  0
ENDSEC
  0
SECTION
  2
BLOCKS
  0
BLOCK
  5
20
100
AcDbEntity
  8
0
100
AcDbBlockBegin
  2
*MODEL_SPACE
 70
0
 10
0.0
 20
0.0
 30
0.0
  3
*MODEL_SPACE
  1

  0
ENDBLK
  5
21
100
AcDbEntity
  8
0
100
AcDbBlockEnd
  0
BLOCK
  5
1C
100
AcDbEntity
  8
0
100
AcDbBlockBegin
  2
*PAPER_SPACE
 70
0
 10
0.0
 20
0.0
 30
0.0
  3
*PAPER_SPACE
  1

  0
ENDBLK
  5
1D
100
AcDbEntity
  8
0
100
AcDbBlockEnd
  0
ENDSEC
  0
SECTION
  2
ENTITIES
  0
LINE
  5
23A
100
AcDbEntity
  8
THREAD
100
AcDbLine
 62
7
  6
CONTINUOUS
 10
4.573163959
 20
3.7577184326
 11
4.5391002931
 21
3.8167184326
  0
LINE
  5
23B
100
AcDbEntity
  8
THREAD
100
AcDbLine
 62
7
  6
CONTINUOUS
 10
4.5391002931
 20
3.8167184326
 11
4.5391002931
 21
4.6767184326
  0
LINE
  5
23C
100
AcDbEntity
  8
03__ASM_ALL_CURVES
100
AcDbLine
 62
40
  6
CONTINUOUS
 10
4.5391002931
 20
4.6767184326
 11
4.5391002931
 21
4.9255664326
  0
LINE
  5
23D
100
AcDbEntity
  8
03__ASM_ALL_CURVES
100
AcDbLine
 62
40
  6
CONTINUOUS
 10
4.6876152931
 20
4.9543264335
 11
4.6903115431
 21
4.9615164317
  0
LINE
  5
23E
100
AcDbEntity
  8
03__ASM_ALL_CURVES
100
AcDbLine
 62
40
  6
CONTINUOUS
 10
4.7091852931
 20
4.939946433
 11
4.7064890431
 21
4.9327564328
  0
LINE
  5
23F
100
AcDbEntity
  8
THREAD
100
AcDbLine
 62
7
  6
CONTINUOUS
 10
4.573163959
 20
4.7357184326
 11
4.5391002931
 21
4.6767184326
  0
LINE
  5
240
100
AcDbEntity
  8
03__ASM_ALL_CURVES
100
AcDbLine
 62
40
  6
CONTINUOUS
 10
4.6903115431
 20
4.9615164317
 11
4.6930077931
 21
4.9651114335
  0
LINE
  5
241
100
AcDbEntity
  8
03__ASM_ALL_CURVES
100
AcDbLine
 62
40
  6
CONTINUOUS
 10
4.7064890431
 20
4.9327564328
 11
4.7037927931
 21
4.9291614327
  0
LINE
  5
242
100
AcDbEntity
  8
THREAD
100
AcDbLine
 62
7
  6
CONTINUOUS
 10
4.573163959
 20
3.7577184326
 11
4.573163959
 21
3.7586159601
  0
LINE
  5
243
100
AcDbEntity
  8
THREAD
100
AcDbLine
 62
7
  6
CONTINUOUS
 10
4.573163959
 20
3.9770209051
 11
4.573163959
 21
4.0283134876
  0
LINE
  5
244
100
AcDbEntity
  8
THREAD
100
AcDbLine
 62
7
  6
CONTINUOUS
 10
4.573163959
 20
4.4651233776
 11
4.573163959
 21
4.5164159601
  0
LINE
  5
245
100
AcDbEntity
  8
THREAD
100
AcDbLine
 62
7
  6
CONTINUOUS
 10
4.573163959
 20
4.7348209051
 11
4.573163959
 21
4.7357184326
  0
LINE
  5
246
100
AcDbEntity
  8
03__ASM_ALL_CURVES
100
AcDbLine
 62
40
  6
CONTINUOUS
 10
4.5822402931
 20
4.9183764326
 11
4.5822402931
 21
4.9039964326
  0
LINE
  5
247
100
AcDbEntity
  8
03__ASM_ALL_CURVES
100
AcDbLine
 62
40
  6
CONTINUOUS
 10
4.7873765431
 20
4.9435414322
 11
4.7900727931
 21
4.9543264335
  0
LINE
  5
248
100
AcDbEntity
  8
03__ASM_ALL_CURVES
100
AcDbLine
 62
40
  6
CONTINUOUS
 10
4.7900727931
 20
4.9543264335
 11
4.7954652931
 21
4.9687064326
  0
LINE
  5
249
100
AcDbEntity
  8
03__ASM_ALL_CURVES
100
AcDbLine
 62
40
  6
CONTINUOUS
 10
4.8386052931
 20
4.9327564328
 11
4.8359090431
 21
4.9291614327
  0
LINE
  5
24A
100
AcDbEntity
  8
03__ASM_ALL_CURVES
100
AcDbLine
 62
40
  6
CONTINUOUS
 10
4.8736565431
 20
4.9687064326
 11
4.8682640431
 21
4.9615164317
  0
LINE
  5
24B
100
AcDbEntity
  8
03__ASM_ALL_CURVES
100
AcDbLine
 62
40
  6
CONTINUOUS
 10
4.6930077931
 20
4.9651114335
 11
4.6984002931
 21
4.9687064326
  0
LINE
  5
24C
100
AcDbEntity
  8
03__ASM_ALL_CURVES
100
AcDbLine
 62
40
  6
CONTINUOUS
 10
4.7037927931
 20
4.9291614327
 11
4.6984002931
 21
4.9255664326
  0
LINE
  5
24D
100
AcDbEntity
  8
03__ASM_ALL_CURVES
100
AcDbLine
 62
40
  6
CONTINUOUS
 10
4.6876152931
 20
4.939946433
 11
4.6876152931
 21
4.9543264335
  0
LINE
  5
24E
100
AcDbEntity
  8
03__ASM_ALL_CURVES
100
AcDbLine
 62
40
  6
CONTINUOUS
 10
4.7091852931
 20
4.9543264335
 11
4.7091852931
 21
4.939946433
  0
LINE
  5
24F
100
AcDbEntity
  8
03__ASM_ALL_CURVES
100
AcDbLine
 62
40
  6
CONTINUOUS
 10
4.7388440431
 20
4.9255664326
 11
4.7388440431
 21
4.9291614327
  0
LINE
  5
250
100
AcDbEntity
  8
03__ASM_ALL_CURVES
100
AcDbLine
 62
40
  6
CONTINUOUS
 10
4.7846802931
 20
4.9255664326
 11
4.7873765431
 21
4.9435414322
  0
LINE
  5
251
100
AcDbEntity
  8
03__ASM_ALL_CURVES
100
AcDbLine
 62
40
  6
CONTINUOUS
 10
4.8224277931
 20
4.9687064326
 11
4.8197315431
 21
4.9507314317
  0
LINE
  5
252
100
AcDbEntity
  8
03__ASM_ALL_CURVES
100
AcDbLine
 62
40
  6
CONTINUOUS
 10
4.8682640431
 20
4.9615164317
 11
4.8655677931
 21
4.9507314317
  0
LINE
  5
253
100
AcDbEntity
  8
03__ASM_ALL_CURVES
100
AcDbLine
 62
40
  6
CONTINUOUS
 10
4.8413015431
 20
4.939946433
 11
4.8386052931
 21
4.9327564328
  0
LINE
  5
254
100
AcDbEntity
  8
03__ASM_ALL_CURVES
100
AcDbLine
 62
40
  6
CONTINUOUS
 10
4.9491515431
 20
4.9615164317
 11
4.9518477931
 21
4.9651114335
  0
LINE
  5
255
100
AcDbEntity
  8
03__ASM_ALL_CURVES
100
AcDbLine
 62
40
  6
CONTINUOUS
 10
4.9653290431
 20
4.9327564328
 11
4.9626327931
 21
4.9291614327
  0
LINE
  5
256
100
AcDbEntity
  8
03__ASM_ALL_CURVES
100
AcDbLine
 62
40
  6
CONTINUOUS
 10
4.8197315431
 20
4.9507314317
 11
4.8251240431
 21
4.9543264335
  0
LINE
  5
257
100
AcDbEntity
  8
03__ASM_ALL_CURVES
100
AcDbLine
 62
40
  6
CONTINUOUS
 10
4.8359090431
 20
4.9291614327
 11
4.8305165431
 21
4.9255664326
  0
LINE
  5
258
100
AcDbEntity
  8
03__ASM_ALL_CURVES
100
AcDbLine
 62
40
  6
CONTINUOUS
 10
4.9464552931
 20
4.9543264335
 11
4.9491515431
 21
4.9615164317
  0
LINE
  5
259
100
AcDbEntity
  8
03__ASM_ALL_CURVES
100
AcDbLine
 62
40
  6
CONTINUOUS
 10
4.9680252931
 20
4.9543264335
 11
4.9653290431
 21
4.9471364326
  0
LINE
  5
25A
100
AcDbEntity
  8
03__ASM_ALL_CURVES
100
AcDbLine
 62
40
  6
CONTINUOUS
 10
4.9680252931
 20
4.939946433
 11
4.9653290431
 21
4.9327564328
  0
LINE
  5
25B
100
AcDbEntity
  8
03__ASM_ALL_CURVES
100
AcDbLine
 62
40
  6
CONTINUOUS
 10
5.0327352931
 20
4.9543264335
 11
5.0354315431
 21
4.9615164317
  0
LINE
  5
25C
100
AcDbEntity
  8
03__ASM_ALL_CURVES
100
AcDbLine
 62
40
  6
CONTINUOUS
 10
5.0947490431
 20
4.9687064326
 11
5.0758752931
 21
4.9363514326
  0
LINE
  5
25D
100
AcDbEntity
  8
03__ASM_ALL_CURVES
100
AcDbLine
 62
40
  6
CONTINUOUS
 10
5.0354315431
 20
4.9615164317
 11
5.0381277931
 21
4.9651114335
  0
LINE
  5
25E
100
AcDbEntity
  8
03__ASM_ALL_CURVES
100
AcDbLine
 62
40
  6
CONTINUOUS
 10
5.0516090431
 20
4.9327564328
 11
5.0489127931
 21
4.9291614327
  0
LINE
  5
25F
100
AcDbEntity
  8
03__ASM_ALL_CURVES
100
AcDbLine
 62
40
  6
CONTINUOUS
 10
4.9518477931
 20
4.9651114335
 11
4.9572402931
 21
4.9687064326
  0
LINE
  5
260
100
AcDbEntity
  8
03__ASM_ALL_CURVES
100
AcDbLine
 62
40
  6
CONTINUOUS
 10
4.9626327931
 20
4.9291614327
 11
4.9572402931
 21
4.9255664326
  0
LINE
  5
261
100
AcDbEntity
  8
03__ASM_ALL_CURVES
100
AcDbLine
 62
40
  6
CONTINUOUS
 10
5.0381277931
 20
4.9651114335
 11
5.0435202931
 21
4.9687064326
  0
LINE
  5
262
100
AcDbEntity
  8
03__ASM_ALL_CURVES
100
AcDbLine
 62
40
  6
CONTINUOUS
 10
5.0489127931
 20
4.9291614327
 11
5.0435202931
 21
4.9255664326
  0
LINE
  5
263
100
AcDbEntity
  8
03__ASM_ALL_CURVES
100
AcDbLine
 62
40
  6
CONTINUOUS
 10
4.8655677931
 20
4.9507314317
 11
4.8655677931
 21
4.9435414322
  0
LINE
  5
264
100
AcDbEntity
  8
03__ASM_ALL_CURVES
100
AcDbLine
 62
40
  6
CONTINUOUS
 10
4.9141002931
 20
4.9687064326
 11
4.9141002931
 21
4.9255664326
  0
LINE
  5
265
100
AcDbEntity
  8
03__ASM_ALL_CURVES
100
AcDbLine
 62
40
  6
CONTINUOUS
 10
5.0543052931
 20
4.939946433
 11
5.0516090431
 21
4.9327564328
  0
LINE
  5
266
100
AcDbEntity
  8
03__ASM_ALL_CURVES
100
AcDbLine
 62
40
  6
CONTINUOUS
 10
5.1324965431
 20
4.9327564328
 11
5.1271040431
 21
4.9255664326
  0
LINE
  5
267
100
AcDbEntity
  8
03__ASM_ALL_CURVES
100
AcDbLine
 62
40
  6
CONTINUOUS
 10
4.9653290431
 20
4.9471364326
 11
4.9572402931
 21
4.9435414322
  0
LINE
  5
268
100
AcDbEntity
  8
03__ASM_ALL_CURVES
100
AcDbLine
 62
40
  6
CONTINUOUS
 10
4.9680252931
 20
4.9543264335
 11
4.9680252931
 21
4.939946433
  0
LINE
  5
269
100
AcDbEntity
  8
03__ASM_ALL_CURVES
100
AcDbLine
 62
40
  6
CONTINUOUS
 10
4.9976840431
 20
4.9255664326
 11
4.9976840431
 21
4.9291614327
  0
LINE
  5
26A
100
AcDbEntity
  8
THREAD
100
AcDbLine
 62
7
  6
CONTINUOUS
 10
5.0086002931
 20
3.7577184326
 11
5.0086002931
 21
3.7586159601
  0
LINE
  5
26B
100
AcDbEntity
  8
THREAD
100
AcDbLine
 62
7
  6
CONTINUOUS
 10
5.0086002931
 20
3.9770209051
 11
5.0086002931
 21
4.0283134876
  0
LINE
  5
26C
100
AcDbEntity
  8
THREAD
100
AcDbLine
 62
7
  6
CONTINUOUS
 10
5.0086002931
 20
4.4651233776
 11
5.0086002931
 21
4.5164159601
  0
LINE
  5
26D
100
AcDbEntity
  8
THREAD
100
AcDbLine
 62
7
  6
CONTINUOUS
 10
5.0086002931
 20
4.7348209051
 11
5.0086002931
 21
4.7357184326
  0
LINE
  5
26E
100
AcDbEntity
  8
03__ASM_ALL_CURVES
100
AcDbLine
 62
40
  6
CONTINUOUS
 10
5.0327352931
 20
4.939946433
 11
5.0327352931
 21
4.9543264335
  0
LINE
  5
26F
100
AcDbEntity
  8
03__ASM_ALL_CURVES
100
AcDbLine
 62
40
  6
CONTINUOUS
 10
5.1351927931
 20
4.9435414322
 11
5.1324965431
 21
4.9327564328
  0
LINE
  5
270
100
AcDbEntity
  8
03__ASM_ALL_CURVES
100
AcDbLine
 62
40
  6
CONTINUOUS
 10
5.3924565428
 20
4.9651114335
 11
5.3978490428
 21
4.9687064326
  0
LINE
  5
271
100
AcDbEntity
  8
03__ASM_ALL_CURVES
100
AcDbLine
 62
40
  6
CONTINUOUS
 10
5.4355965428
 20
4.9651114335
 11
5.4409890428
 21
4.9687064326
  0
LINE
  5
272
100
AcDbEntity
  8
03__ASM_ALL_CURVES
100
AcDbLine
 62
40
  6
CONTINUOUS
 10
4.6903115431
 20
4.9327564328
 11
4.6876152931
 21
4.939946433
  0
LINE
  5
273
100
AcDbEntity
  8
03__ASM_ALL_CURVES
100
AcDbLine
 62
40
  6
CONTINUOUS
 10
4.7064890431
 20
4.9615164317
 11
4.7091852931
 21
4.9543264335
  0
LINE
  5
274
100
AcDbEntity
  8
03__ASM_ALL_CURVES
100
AcDbLine
 62
40
  6
CONTINUOUS
 10
5.0543052931
 20
4.9543264335
 11
5.0543052931
 21
4.939946433
  0
LINE
  5
275
100
AcDbEntity
  8
THREAD
100
AcDbLine
 62
7
  6
CONTINUOUS
 10
5.0701002931
 20
3.8192184326
 11
5.0701002931
 21
4.6742184326
  0
LINE
  5
276
100
AcDbEntity
  8
03__ASM_ALL_CURVES
100
AcDbLine
 62
40
  6
CONTINUOUS
 10
5.0947490431
 20
4.9255664326
 11
5.0947490431
 21
4.9687064326
  0
LINE
  5
277
100
AcDbEntity
  8
03__ASM_ALL_CURVES
100
AcDbLine
 62
40
  6
CONTINUOUS
 10
5.1351927931
 20
4.9507314317
 11
5.1351927931
 21
4.9435414322
  0
LINE
  5
278
100
AcDbEntity
  8
03__ASM_ALL_CURVES
100
AcDbLine
 62
40
  6
CONTINUOUS
 10
5.3870640428
 20
4.9579214326
 11
5.3924565428
 21
4.9651114335
  0
LINE
  5
279
100
AcDbEntity
  8
03__ASM_ALL_CURVES
100
AcDbLine
 62
40
  6
CONTINUOUS
 10
5.4140265428
 20
4.9363514326
 11
5.4086340428
 21
4.9291614327
  0
LINE
  5
27A
100
AcDbEntity
  8
03__ASM_ALL_CURVES
100
AcDbLine
 62
40
  6
CONTINUOUS
 10
5.4302040428
 20
4.9579214326
 11
5.4355965428
 21
4.9651114335
  0
LINE
  5
27B
100
AcDbEntity
  8
03__ASM_ALL_CURVES
100
AcDbLine
 62
40
  6
CONTINUOUS
 10
5.4544702928
 20
4.9327564328
 11
5.4517740428
 21
4.9291614327
  0
LINE
  5
27C
100
AcDbEntity
  8
03__ASM_ALL_CURVES
100
AcDbLine
 62
40
  6
CONTINUOUS
 10
5.4086340428
 20
4.9291614327
 11
5.4032415428
 21
4.9255664326
  0
LINE
  5
27D
100
AcDbEntity
  8
03__ASM_ALL_CURVES
100
AcDbLine
 62
40
  6
CONTINUOUS
 10
5.4517740428
 20
4.9291614327
 11
5.4463815428
 21
4.9255664326
  0
LINE
  5
27E
100
AcDbEntity
  8
03__ASM_ALL_CURVES
100
AcDbLine
 62
40
  6
CONTINUOUS
 10
6.3157326239
 20
3.6056284326
 11
6.2995551239
 21
3.6056284326
  0
LINE
  5
27F
100
AcDbEntity
  8
03__ASM_ALL_CURVES
100
AcDbLine
 62
40
  6
CONTINUOUS
 10
6.2126010614
 20
3.6056284326
 11
6.2085566864
 21
3.6056284326
  0
LINE
  5
280
100
AcDbEntity
  8
03__ASM_ALL_CURVES
100
AcDbLine
 62
40
  6
CONTINUOUS
 10
6.1802460614
 20
3.6056284326
 11
6.1762016864
 21
3.6056284326
  0
LINE
  5
281
100
AcDbEntity
  8
03__ASM_ALL_CURVES
100
AcDbLine
 62
40
  6
CONTINUOUS
 10
6.2672001239
 20
3.6056284326
 11
6.2833776239
 21
3.6056284326
  0
LINE
  5
282
100
AcDbEntity
  8
03__ASM_ALL_CURVES
100
AcDbLine
 62
40
  6
CONTINUOUS
 10
6.2995551239
 20
3.6218059326
 11
6.3096660614
 21
3.6218059326
  0
LINE
  5
283
100
AcDbEntity
  8
03__ASM_ALL_CURVES
100
AcDbLine
 62
40
  6
CONTINUOUS
 10
4.8386052931
 20
4.9471364326
 11
4.8413015431
 21
4.939946433
  0
LINE
  5
284
100
AcDbEntity
  8
03__ASM_ALL_CURVES
100
AcDbLine
 62
40
  6
CONTINUOUS
 10
4.8655677931
 20
4.9435414322
 11
4.8682640431
 21
4.9327564328
  0
LINE
  5
285
100
AcDbEntity
  8
03__ASM_ALL_CURVES
100
AcDbLine
 62
40
  6
CONTINUOUS
 10
5.3843677928
 20
4.9471364326
 11
5.3870640428
 21
4.9579214326
  0
LINE
  5
286
100
AcDbEntity
  8
03__ASM_ALL_CURVES
100
AcDbLine
 62
40
  6
CONTINUOUS
 10
5.6512965428
 20
4.9651114335
 11
5.6566890428
 21
4.9687064326
  0
LINE
  5
287
100
AcDbEntity
  8
03__ASM_ALL_CURVES
100
AcDbLine
 62
40
  6
CONTINUOUS
 10
5.6674740428
 20
4.9291614327
 11
5.6620815428
 21
4.9255664326
  0
LINE
  5
288
100
AcDbEntity
  8
03__ASM_ALL_CURVES
100
AcDbLine
 62
40
  6
CONTINUOUS
 10
5.7429690428
 20
4.9687064326
 11
5.7375765428
 21
4.9651114335
  0
LINE
  5
289
100
AcDbEntity
  8
03__ASM_ALL_CURVES
100
AcDbLine
 62
40
  6
CONTINUOUS
 10
6.1762016864
 20
3.6379834326
 11
6.1802460614
 21
3.6379834326
  0
LINE
  5
28A
100
AcDbEntity
  8
03__ASM_ALL_CURVES
100
AcDbLine
 62
40
  6
CONTINUOUS
 10
6.2328229364
 20
3.6379834326
 11
6.2530448114
 21
3.6379834326
  0
LINE
  5
28B
100
AcDbEntity
  8
03__ASM_ALL_CURVES
100
AcDbLine
 62
40
  6
CONTINUOUS
 10
6.2995551239
 20
3.6379834326
 11
6.3157326239
 21
3.6379834326
  0
LINE
  5
28C
100
AcDbEntity
  8
03__ASM_ALL_CURVES
100
AcDbLine
 62
40
  6
CONTINUOUS
 10
6.3298879364
 20
3.6379834326
 11
6.3501098114
 21
3.6379834326
  0
LINE
  5
28D
100
AcDbEntity
  8
03__ASM_ALL_CURVES
100
AcDbLine
 62
40
  6
CONTINUOUS
 10
6.2277674721
 20
3.6523634326
 11
6.2237230971
 21
3.6523634326
  0
LINE
  5
28E
100
AcDbEntity
  8
03__ASM_ALL_CURVES
100
AcDbLine
 62
40
  6
CONTINUOUS
 10
6.3147215346
 20
3.6523634326
 11
6.3308990346
 21
3.6523634326
  0
LINE
  5
28F
100
AcDbEntity
  8
03__ASM_ALL_CURVES
100
AcDbLine
 62
40
  6
CONTINUOUS
 10
6.2601224721
 20
3.6685409326
 11
6.2500115346
 21
3.6685409326
  0
LINE
  5
290
100
AcDbEntity
  8
03__ASM_ALL_CURVES
100
AcDbLine
 62
40
  6
CONTINUOUS
 10
6.1954124721
 20
3.6685409326
 11
6.1853015346
 21
3.6685409326
  0
LINE
  5
291
100
AcDbEntity
  8
03__ASM_ALL_CURVES
100
AcDbLine
 62
40
  6
CONTINUOUS
 10
6.1853015346
 20
3.6847184326
 11
6.1954124721
 21
3.6847184326
  0
LINE
  5
292
100
AcDbEntity
  8
03__ASM_ALL_CURVES
100
AcDbLine
 62
40
  6
CONTINUOUS
 10
6.2237230971
 20
3.6847184326
 11
6.2277674721
 21
3.6847184326
  0
LINE
  5
293
100
AcDbEntity
  8
03__ASM_ALL_CURVES
100
AcDbLine
 62
40
  6
CONTINUOUS
 10
6.2500115346
 20
3.6847184326
 11
6.2601224721
 21
3.6847184326
  0
LINE
  5
294
100
AcDbEntity
  8
03__ASM_ALL_CURVES
100
AcDbLine
 62
40
  6
CONTINUOUS
 10
6.2803443471
 20
3.6847184326
 11
6.3005662221
 21
3.6847184326
  0
LINE
  5
295
100
AcDbEntity
  8
03__ASM_ALL_CURVES
100
AcDbLine
 62
40
  6
CONTINUOUS
 10
6.3207880971
 20
3.6847184326
 11
6.3248324721
 21
3.6847184326
  0
LINE
  5
296
100
AcDbEntity
  8
03__ASM_ALL_CURVES
100
AcDbLine
 62
40
  6
CONTINUOUS
 10
4.9491515431
 20
4.9471364326
 11
4.9464552931
 21
4.9543264335
  0
LINE
  5
297
100
AcDbEntity
  8
03__ASM_ALL_CURVES
100
AcDbLine
 62
40
  6
CONTINUOUS
 10
5.2459602931
 20
4.9183764326
 11
5.2459602931
 21
4.9039964326
  0
LINE
  5
298
100
AcDbEntity
  8
0
100
AcDbLine
 62
7
  6
CONTINUOUS
 10
5.2861002931
 20
4.6742184326
 11
5.2861002931
 21
3.8192184326
  0
LINE
  5
299
100
AcDbEntity
  8
0
100
AcDbLine
 62
7
  6
CONTINUOUS
 10
5.2891002931
 20
4.6712184326
 11
5.2891002931
 21
3.8222184326
  0
LINE
  5
29A
100
AcDbEntity
  8
03__ASM_ALL_CURVES
100
AcDbLine
 62
40
  6
CONTINUOUS
 10
5.2891002931
 20
4.6814084326
 11
5.2891002931
 21
4.9255664326
  0
LINE
  5
29B
100
AcDbEntity
  8
0
100
AcDbLine
 62
7
  6
CONTINUOUS
 10
5.2916002931
 20
3.8296618083
 11
5.2916002931
 21
4.6637750569
  0
LINE
  5
29C
100
AcDbEntity
  8
0
100
AcDbLine
 62
7
  6
CONTINUOUS
 10
5.311322725
 20
3.8410485596
 11
5.311322725
 21
4.6523883056
  0
LINE
  5
29D
100
AcDbEntity
  8
0
100
AcDbLine
 62
7
  6
CONTINUOUS
 10
5.313822725
 20
3.8417184326
 11
5.313822725
 21
4.6517184326
  0
LINE
  5
29E
100
AcDbEntity
  8
03__ASM_ALL_CURVES
100
AcDbLine
 62
40
  6
CONTINUOUS
 10
5.3322402931
 20
4.9183764326
 11
5.3322402931
 21
4.9039964326
  0
LINE
  5
29F
100
AcDbEntity
  8
03__ASM_ALL_CURVES
100
AcDbLine
 62
40
  6
CONTINUOUS
 10
5.4167227928
 20
4.9471364326
 11
5.4140265428
 21
4.9363514326
  0
LINE
  5
2A0
100
AcDbEntity
  8
03__ASM_ALL_CURVES
100
AcDbLine
 62
40
  6
CONTINUOUS
 10
5.4275077928
 20
4.9471364326
 11
5.4302040428
 21
4.9579214326
  0
LINE
  5
2A1
100
AcDbEntity
  8
03__ASM_ALL_CURVES
100
AcDbLine
 62
40
  6
CONTINUOUS
 10
5.4733440428
 20
4.9255664326
 11
5.4868252928
 21
4.9687064326
  0
LINE
  5
2A2
100
AcDbEntity
  8
03__ASM_ALL_CURVES
100
AcDbLine
 62
40
  6
CONTINUOUS
 10
5.6459040428
 20
4.9579214326
 11
5.6512965428
 21
4.9651114335
  0
LINE
  5
2A3
100
AcDbEntity
  8
03__ASM_ALL_CURVES
100
AcDbLine
 62
40
  6
CONTINUOUS
 10
5.6701702928
 20
4.9327564328
 11
5.6674740428
 21
4.9291614327
  0
LINE
  5
2A4
100
AcDbEntity
  8
03__ASM_ALL_CURVES
100
AcDbLine
 62
40
  6
CONTINUOUS
 10
5.7537540428
 20
4.9291614327
 11
5.7483615428
 21
4.9255664326
  0
LINE
  5
2A5
100
AcDbEntity
  8
03__ASM_ALL_CURVES
100
AcDbLine
 62
40
  6
CONTINUOUS
 10
5.8238565428
 20
4.9651114335
 11
5.8292490428
 21
4.9687064326
  0
LINE
  5
2A6
100
AcDbEntity
  8
03__ASM_ALL_CURVES
100
AcDbLine
 62
40
  6
CONTINUOUS
 10
5.8400340428
 20
4.9291614327
 11
5.8346415428
 21
4.9255664326
  0
LINE
  5
2A7
100
AcDbEntity
  8
03__ASM_ALL_CURVES
100
AcDbLine
 62
40
  6
CONTINUOUS
 10
5.8831740428
 20
4.9291614327
 11
5.8777815428
 21
4.9255664326
  0
LINE
  5
2A8
100
AcDbEntity
  8
THREAD
100
AcDbLine
 62
7
  6
CONTINUOUS
 10
5.0086002931
 20
3.7577184326
 11
4.573163959
 21
3.7577184326
  0
LINE
  5
2A9
100
AcDbEntity
  8
THREAD
100
AcDbLine
 62
7
  6
CONTINUOUS
 10
5.0086002931
 20
3.7586159601
 11
4.573163959
 21
3.7586159601
  0
LINE
  5
2AA
100
AcDbEntity
  8
THREAD
100
AcDbLine
 62
7
  6
CONTINUOUS
 10
5.2861002931
 20
3.8192184326
 11
5.0701002931
 21
3.8192184326
  0
LINE
  5
2AB
100
AcDbEntity
  8
03__ASM_ALL_CURVES
100
AcDbLine
 62
40
  6
CONTINUOUS
 10
4.6930077931
 20
4.9291614327
 11
4.6903115431
 21
4.9327564328
  0
LINE
  5
2AC
100
AcDbEntity
  8
03__ASM_ALL_CURVES
100
AcDbLine
 62
40
  6
CONTINUOUS
 10
4.7037927931
 20
4.9651114335
 11
4.7064890431
 21
4.9615164317
  0
LINE
  5
2AD
100
AcDbEntity
  8
0
100
AcDbLine
 62
7
  6
CONTINUOUS
 10
5.4974622531
 20
3.8592184326
 11
5.4798530699
 21
3.8897184326
  0
LINE
  5
2AE
100
AcDbEntity
  8
03__ASM_ALL_CURVES
100
AcDbLine
 62
40
  6
CONTINUOUS
 10
4.9653290431
 20
4.9615164317
 11
4.9680252931
 21
4.9543264335
  0
LINE
  5
2AF
100
AcDbEntity
  8
03__ASM_ALL_CURVES
100
AcDbLine
 62
40
  6
CONTINUOUS
 10
5.0354315431
 20
4.9327564328
 11
5.0327352931
 21
4.939946433
  0
LINE
  5
2B0
100
AcDbEntity
  8
03__ASM_ALL_CURVES
100
AcDbLine
 62
40
  6
CONTINUOUS
 10
5.1324965431
 20
4.9615164317
 11
5.1351927931
 21
4.9507314317
  0
LINE
  5
2B1
100
AcDbEntity
  8
0
100
AcDbLine
 62
7
  6
CONTINUOUS
 10
5.3361002931
 20
3.8417184326
 11
5.3361002931
 21
4.6517184326
  0
LINE
  5
2B2
100
AcDbEntity
  8
03__ASM_ALL_CURVES
100
AcDbLine
 62
40
  6
CONTINUOUS
 10
5.3466202928
 20
4.9687064326
 11
5.3466202928
 21
4.9255664326
  0
LINE
  5
2B3
100
AcDbEntity
  8
0
100
AcDbLine
 62
7
  6
CONTINUOUS
 10
5.4061002931
 20
3.8422190476
 11
5.4061002931
 21
4.6512178176
  0
LINE
  5
2B4
100
AcDbEntity
  8
0
100
AcDbLine
 62
7
  6
CONTINUOUS
 10
5.4974622531
 20
4.6342184326
 11
5.4798530699
 21
4.6037184326
  0
LINE
  5
2B5
100
AcDbEntity
  8
03__ASM_ALL_CURVES
100
AcDbLine
 62
40
  6
CONTINUOUS
 10
5.7375765428
 20
4.9651114335
 11
5.7348802928
 21
4.9615164317
  0
LINE
  5
2B6
100
AcDbEntity
  8
03__ASM_ALL_CURVES
100
AcDbLine
 62
40
  6
CONTINUOUS
 10
5.7564502928
 20
4.9327564328
 11
5.7537540428
 21
4.9291614327
  0
LINE
  5
2B7
100
AcDbEntity
  8
03__ASM_ALL_CURVES
100
AcDbLine
 62
40
  6
CONTINUOUS
 10
5.8184640428
 20
4.9579214326
 11
5.8238565428
 21
4.9651114335
  0
LINE
  5
2B8
100
AcDbEntity
  8
03__ASM_ALL_CURVES
100
AcDbLine
 62
40
  6
CONTINUOUS
 10
5.9667577928
 20
4.9291614327
 11
5.9613652928
 21
4.9255664326
  0
LINE
  5
2B9
100
AcDbEntity
  8
03__ASM_ALL_CURVES
100
AcDbLine
 62
40
  6
CONTINUOUS
 10
6.0557340428
 20
4.9507314317
 11
6.0503415428
 21
4.9471364326
  0
LINE
  5
2BA
100
AcDbEntity
  8
0
100
AcDbLine
 62
7
  6
CONTINUOUS
 10
5.3361002931
 20
3.8417184326
 11
5.313822725
 21
3.8417184326
  0
LINE
  5
2BB
100
AcDbEntity
  8
0
100
AcDbLine
 62
7
  6
CONTINUOUS
 10
5.4061002931
 20
3.8422184326
 11
5.4561002931
 21
3.8422184326
  0
LINE
  5
2BC
100
AcDbEntity
  8
0
100
AcDbLine
 62
7
  6
CONTINUOUS
 10
5.7446002931
 20
3.8592184326
 11
5.4974622531
 21
3.8592184326
  0
LINE
  5
2BD
100
AcDbEntity
  8
0
100
AcDbLine
 62
7
  6
CONTINUOUS
 10
5.4685947397
 20
3.8962184326
 11
5.4561002931
 21
3.8962184326
  0
LINE
  5
2BE
100
AcDbEntity
  8
0
100
AcDbLine
 62
7
  6
CONTINUOUS
 10
5.9671002931
 20
3.9037184326
 11
5.7891002931
 21
3.9037184326
  0
LINE
  5
2BF
100
AcDbEntity
  8
0
100
AcDbLine
 62
7
  6
CONTINUOUS
 10
6.3921002931
 20
3.9042184326
 11
6.4521002931
 21
3.9042184326
  0
LINE
  5
2C0
100
AcDbEntity
  8
0
100
AcDbLine
 62
7
  6
CONTINUOUS
 10
6.5931002931
 20
3.9042184326
 11
6.6471002931
 21
3.9042184326
  0
LINE
  5
2C1
100
AcDbEntity
  8
0
100
AcDbLine
 62
7
  6
CONTINUOUS
 10
6.5221002931
 20
3.9047184326
 11
6.5721002931
 21
3.9047184326
  0
LINE
  5
2C2
100
AcDbEntity
  8
03__ASM_ALL_CURVES
100
AcDbLine
 62
40
  6
CONTINUOUS
 10
4.7388440431
 20
4.9291614327
 11
4.7415402931
 21
4.9255664326
  0
LINE
  5
2C3
100
AcDbEntity
  8
03__ASM_ALL_CURVES
100
AcDbLine
 62
40
  6
CONTINUOUS
 10
4.8197315431
 20
4.9291614327
 11
4.8170352931
 21
4.9327564328
  0
LINE
  5
2C4
100
AcDbEntity
  8
03__ASM_ALL_CURVES
100
AcDbLine
 62
40
  6
CONTINUOUS
 10
4.8359090431
 20
4.9507314317
 11
4.8386052931
 21
4.9471364326
  0
LINE
  5
2C5
100
AcDbEntity
  8
03__ASM_ALL_CURVES
100
AcDbLine
 62
40
  6
CONTINUOUS
 10
5.0516090431
 20
4.9615164317
 11
5.0543052931
 21
4.9543264335
  0
LINE
  5
2C6
100
AcDbEntity
  8
0
100
AcDbLine
 62
7
  6
CONTINUOUS
 10
5.4561002931
 20
3.8422190476
 11
5.4561002931
 21
4.6512178176
  0
LINE
  5
2C7
100
AcDbEntity
  8
0
100
AcDbLine
 62
7
  6
CONTINUOUS
 10
5.4685947397
 20
3.8962184326
 11
5.4685947397
 21
4.5972184326
  0
LINE
  5
2C8
100
AcDbEntity
  8
0
100
AcDbLine
 62
7
  6
CONTINUOUS
 10
5.4798530699
 20
3.8897184326
 11
5.4798530699
 21
4.6037184326
  0
LINE
  5
2C9
100
AcDbEntity
  8
0
100
AcDbLine
 62
7
  6
CONTINUOUS
 10
5.4974622531
 20
3.8592184326
 11
5.4974622531
 21
4.6342184326
  0
LINE
  5
2CA
100
AcDbEntity
  8
03__ASM_ALL_CURVES
100
AcDbLine
 62
40
  6
CONTINUOUS
 10
5.6432077928
 20
4.9471364326
 11
5.6459040428
 21
4.9579214326
  0
LINE
  5
2CB
100
AcDbEntity
  8
03__ASM_ALL_CURVES
100
AcDbLine
 62
40
  6
CONTINUOUS
 10
5.8454265428
 20
4.9363514326
 11
5.8400340428
 21
4.9291614327
  0
LINE
  5
2CC
100
AcDbEntity
  8
03__ASM_ALL_CURVES
100
AcDbLine
 62
40
  6
CONTINUOUS
 10
5.8858702928
 20
4.9327564328
 11
5.8831740428
 21
4.9291614327
  0
LINE
  5
2CD
100
AcDbEntity
  8
0
100
AcDbLine
 62
7
  6
CONTINUOUS
 10
6.5931002931
 20
3.9587184326
 11
6.5721002931
 21
3.9587184326
  0
LINE
  5
2CE
100
AcDbEntity
  8
0
100
AcDbLine
 62
7
  6
CONTINUOUS
 10
6.3791002931
 20
3.9662184326
 11
6.3626002931
 21
3.9662184326
  0
LINE
  5
2CF
100
AcDbEntity
  8
0
100
AcDbLine
 62
7
  6
CONTINUOUS
 10
6.2536002931
 20
3.9662184326
 11
5.9771002931
 21
3.9662184326
  0
LINE
  5
2D0
100
AcDbEntity
  8
THREAD
100
AcDbLine
 62
7
  6
CONTINUOUS
 10
5.0086002931
 20
3.9770209051
 11
4.573163959
 21
3.9770209051
  0
LINE
  5
2D1
100
AcDbEntity
  8
03__ASM_ALL_CURVES
100
AcDbLine
 62
40
  6
CONTINUOUS
 10
6.1762016864
 20
3.6056284326
 11
6.1721573114
 21
3.6083246827
  0
LINE
  5
2D2
100
AcDbEntity
  8
03__ASM_ALL_CURVES
100
AcDbLine
 62
40
  6
CONTINUOUS
 10
6.2085566864
 20
3.6056284326
 11
6.2045123114
 21
3.6083246827
  0
LINE
  5
2D3
100
AcDbEntity
  8
03__ASM_ALL_CURVES
100
AcDbLine
 62
40
  6
CONTINUOUS
 10
6.1802460614
 20
3.6379834326
 11
6.1842904364
 21
3.6352871832
  0
LINE
  5
2D4
100
AcDbEntity
  8
03__ASM_ALL_CURVES
100
AcDbLine
 62
40
  6
CONTINUOUS
 10
6.2237230971
 20
3.6523634326
 11
6.2196787221
 21
3.6550596827
  0
LINE
  5
2D5
100
AcDbEntity
  8
03__ASM_ALL_CURVES
100
AcDbLine
 62
40
  6
CONTINUOUS
 10
6.1954124721
 20
3.6847184326
 11
6.1994568471
 21
3.6820221832
  0
LINE
  5
2D6
100
AcDbEntity
  8
03__ASM_ALL_CURVES
100
AcDbLine
 62
40
  6
CONTINUOUS
 10
4.8682640431
 20
4.9327564328
 11
4.8736565431
 21
4.9255664326
  0
LINE
  5
2D7
100
AcDbEntity
  8
03__ASM_ALL_CURVES
100
AcDbLine
 62
40
  6
CONTINUOUS
 10
4.9518477931
 20
4.9291614327
 11
4.9491515431
 21
4.9327564328
  0
LINE
  5
2D8
100
AcDbEntity
  8
03__ASM_ALL_CURVES
100
AcDbLine
 62
40
  6
CONTINUOUS
 10
5.5299652928
 20
4.9687064326
 11
5.5299652928
 21
4.9255664326
  0
LINE
  5
2D9
100
AcDbEntity
  8
03__ASM_ALL_CURVES
100
AcDbLine
 62
40
  6
CONTINUOUS
 10
5.5731052928
 20
4.9687064326
 11
5.5731052928
 21
4.9255664326
  0
LINE
  5
2DA
100
AcDbEntity
  8
03__ASM_ALL_CURVES
100
AcDbLine
 62
40
  6
CONTINUOUS
 10
5.6054602928
 20
4.9255664326
 11
5.6054602928
 21
4.9687064326
  0
LINE
  5
2DB
100
AcDbEntity
  8
03__ASM_ALL_CURVES
100
AcDbLine
 62
40
  6
CONTINUOUS
 10
5.9721502928
 20
4.9363514326
 11
5.9667577928
 21
4.9291614327
  0
LINE
  5
2DC
100
AcDbEntity
  8
03__ASM_ALL_CURVES
100
AcDbLine
 62
40
  6
CONTINUOUS
 10
6.0584302928
 20
4.9543264335
 11
6.0557340428
 21
4.9507314317
  0
LINE
  5
2DD
100
AcDbEntity
  8
THREAD
100
AcDbLine
 62
7
  6
CONTINUOUS
 10
5.0701002931
 20
3.8192184326
 11
5.0090490569
 21
3.7581671963
  0
LINE
  5
2DE
100
AcDbEntity
  8
THREAD
100
AcDbLine
 62
7
  6
CONTINUOUS
 10
5.0086002931
 20
4.0283134876
 11
4.573163959
 21
4.0283134876
  0
LINE
  5
2DF
100
AcDbEntity
  8
03__ASM_ALL_CURVES
100
AcDbLine
 62
40
  6
CONTINUOUS
 10
6.2277674721
 20
3.6847184326
 11
6.2318118471
 21
3.6820221832
  0
LINE
  5
2E0
100
AcDbEntity
  8
03__ASM_ALL_CURVES
100
AcDbLine
 62
40
  6
CONTINUOUS
 10
6.2601224721
 20
3.6847184326
 11
6.2641668471
 21
3.6820221832
  0
LINE
  5
2E1
100
AcDbEntity
  8
03__ASM_ALL_CURVES
100
AcDbLine
 62
40
  6
CONTINUOUS
 10
6.3248324721
 20
3.6847184326
 11
6.3288768471
 21
3.6820221832
  0
LINE
  5
2E2
100
AcDbEntity
  8
THREAD
100
AcDbLine
 62
7
  6
CONTINUOUS
 10
5.0701002931
 20
4.6742184326
 11
5.0090490569
 21
4.7352696688
  0
LINE
  5
2E3
100
AcDbEntity
  8
03__ASM_ALL_CURVES
100
AcDbLine
 62
40
  6
CONTINUOUS
 10
4.9626327931
 20
4.9651114335
 11
4.9653290431
 21
4.9615164317
  0
LINE
  5
2E4
100
AcDbEntity
  8
03__ASM_ALL_CURVES
100
AcDbLine
 62
40
  6
CONTINUOUS
 10
4.9976840431
 20
4.9291614327
 11
5.0003802931
 21
4.9255664326
  0
LINE
  5
2E5
100
AcDbEntity
  8
03__ASM_ALL_CURVES
100
AcDbLine
 62
40
  6
CONTINUOUS
 10
5.0381277931
 20
4.9291614327
 11
5.0354315431
 21
4.9327564328
  0
LINE
  5
2E6
100
AcDbEntity
  8
03__ASM_ALL_CURVES
100
AcDbLine
 62
40
  6
CONTINUOUS
 10
5.0489127931
 20
4.9651114335
 11
5.0516090431
 21
4.9615164317
  0
LINE
  5
2E7
100
AcDbEntity
  8
03__ASM_ALL_CURVES
100
AcDbLine
 62
40
  6
CONTINUOUS
 10
5.3870640428
 20
4.9363514326
 11
5.3843677928
 21
4.9471364326
  0
LINE
  5
2E8
100
AcDbEntity
  8
03__ASM_ALL_CURVES
100
AcDbLine
 62
40
  6
CONTINUOUS
 10
5.4140265428
 20
4.9579214326
 11
5.4167227928
 21
4.9471364326
  0
LINE
  5
2E9
100
AcDbEntity
  8
03__ASM_ALL_CURVES
100
AcDbLine
 62
40
  6
CONTINUOUS
 10
5.4302040428
 20
4.9363514326
 11
5.4275077928
 21
4.9471364326
  0
LINE
  5
2EA
100
AcDbEntity
  8
03__ASM_ALL_CURVES
100
AcDbLine
 62
40
  6
CONTINUOUS
 10
5.6270302928
 20
4.9255664326
 11
5.6270302928
 21
4.9687064326
  0
LINE
  5
2EB
100
AcDbEntity
  8
03__ASM_ALL_CURVES
100
AcDbLine
 62
40
  6
CONTINUOUS
 10
5.6701702928
 20
4.9471364326
 11
5.6701702928
 21
4.9327564328
  0
LINE
  5
2EC
100
AcDbEntity
  8
03__ASM_ALL_CURVES
100
AcDbLine
 62
40
  6
CONTINUOUS
 10
5.8157677928
 20
4.9471364326
 11
5.8184640428
 21
4.9579214326
  0
LINE
  5
2ED
100
AcDbEntity
  8
03__ASM_ALL_CURVES
100
AcDbLine
 62
40
  6
CONTINUOUS
 10
5.8481227928
 20
4.9471364326
 11
5.8454265428
 21
4.9363514326
  0
LINE
  5
2EE
100
AcDbEntity
  8
03__ASM_ALL_CURVES
100
AcDbLine
 62
40
  6
CONTINUOUS
 10
5.1271040431
 20
4.9687064326
 11
5.1324965431
 21
4.9615164317
  0
LINE
  5
2EF
100
AcDbEntity
  8
03__ASM_ALL_CURVES
100
AcDbLine
 62
40
  6
CONTINUOUS
 10
6.1721573114
 20
3.6083246827
 11
6.1681129364
 21
3.6137171826
  0
LINE
  5
2F0
100
AcDbEntity
  8
03__ASM_ALL_CURVES
100
AcDbLine
 62
40
  6
CONTINUOUS
 10
6.2045123114
 20
3.6083246827
 11
6.2024901239
 21
3.6110209328
  0
LINE
  5
2F1
100
AcDbEntity
  8
03__ASM_ALL_CURVES
100
AcDbLine
 62
40
  6
CONTINUOUS
 10
6.1842904364
 20
3.6352871832
 11
6.1883348114
 21
3.6298946826
  0
LINE
  5
2F2
100
AcDbEntity
  8
03__ASM_ALL_CURVES
100
AcDbLine
 62
40
  6
CONTINUOUS
 10
5.4868252928
 20
4.9687064326
 11
5.5003065428
 21
4.9255664326
  0
LINE
  5
2F3
100
AcDbEntity
  8
03__ASM_ALL_CURVES
100
AcDbLine
 62
40
  6
CONTINUOUS
 10
5.7348802928
 20
4.9615164317
 11
5.7348802928
 21
4.9579214326
  0
LINE
  5
2F4
100
AcDbEntity
  8
0
100
AcDbLine
 62
7
  6
CONTINUOUS
 10
5.7446002931
 20
3.8592184326
 11
5.7446002931
 21
4.6342184326
  0
LINE
  5
2F5
100
AcDbEntity
  8
03__ASM_ALL_CURVES
100
AcDbLine
 62
40
  6
CONTINUOUS
 10
5.7564502928
 20
4.939946433
 11
5.7564502928
 21
4.9327564328
  0
LINE
  5
2F6
100
AcDbEntity
  8
03__ASM_ALL_CURVES
100
AcDbLine
 62
40
  6
CONTINUOUS
 10
5.7780202928
 20
4.9687064326
 11
5.7780202928
 21
4.9255664326
  0
LINE
  5
2F7
100
AcDbEntity
  8
0
100
AcDbLine
 62
7
  6
CONTINUOUS
 10
5.7891002931
 20
3.9037184326
 11
5.7891002931
 21
4.5897184326
  0
LINE
  5
2F8
100
AcDbEntity
  8
03__ASM_ALL_CURVES
100
AcDbLine
 62
40
  6
CONTINUOUS
 10
5.7995902928
 20
4.9687064326
 11
5.7995902928
 21
4.9255664326
  0
LINE
  5
2F9
100
AcDbEntity
  8
03__ASM_ALL_CURVES
100
AcDbLine
 62
40
  6
CONTINUOUS
 10
5.9748465428
 20
4.9471364326
 11
5.9721502928
 21
4.9363514326
  0
LINE
  5
2FA
100
AcDbEntity
  8
03__ASM_ALL_CURVES
100
AcDbLine
 62
40
  6
CONTINUOUS
 10
7.0292540435
 20
4.2071734326
 11
7.0130765435
 21
4.2071734326
  0
LINE
  5
2FB
100
AcDbEntity
  8
03__ASM_ALL_CURVES
100
AcDbLine
 62
40
  6
CONTINUOUS
 10
6.9807215435
 20
4.2071734326
 11
6.9968990435
 21
4.2071734326
  0
LINE
  5
2FC
100
AcDbEntity
  8
03__ASM_ALL_CURVES
100
AcDbLine
 62
40
  6
CONTINUOUS
 10
7.0130765435
 20
4.2233509326
 11
7.023187481
 21
4.2233509326
  0
LINE
  5
2FD
100
AcDbEntity
  8
03__ASM_ALL_CURVES
100
AcDbLine
 62
40
  6
CONTINUOUS
 10
7.0130765435
 20
4.2395284326
 11
7.0292540435
 21
4.2395284326
  0
LINE
  5
2FE
100
AcDbEntity
  8
03__ASM_ALL_CURVES
100
AcDbLine
 62
40
  6
CONTINUOUS
 10
7.043409356
 20
4.2395284326
 11
7.063631231
 21
4.2395284326
  0
LINE
  5
2FF
100
AcDbEntity
  8
03__ASM_ALL_CURVES
100
AcDbLine
 62
40
  6
CONTINUOUS
 10
6.9665662308
 20
4.2539084326
 11
6.9625218558
 21
4.2539084326
  0
LINE
  5
300
100
AcDbEntity
  8
03__ASM_ALL_CURVES
100
AcDbLine
 62
40
  6
CONTINUOUS
 10
6.9989212308
 20
4.2700859326
 11
6.9888102933
 21
4.2700859326
  0
LINE
  5
301
100
AcDbEntity
  8
03__ASM_ALL_CURVES
100
AcDbLine
 62
40
  6
CONTINUOUS
 10
6.9342112308
 20
4.2700859326
 11
6.9241002933
 21
4.2700859326
  0
LINE
  5
302
100
AcDbEntity
  8
03__ASM_ALL_CURVES
100
AcDbLine
 62
40
  6
CONTINUOUS
 10
6.9241002933
 20
4.2862634326
 11
6.9342112308
 21
4.2862634326
  0
LINE
  5
303
100
AcDbEntity
  8
03__ASM_ALL_CURVES
100
AcDbLine
 62
40
  6
CONTINUOUS
 10
6.9625218558
 20
4.2862634326
 11
6.9665662308
 21
4.2862634326
  0
LINE
  5
304
100
AcDbEntity
  8
03__ASM_ALL_CURVES
100
AcDbLine
 62
40
  6
CONTINUOUS
 10
6.9888102933
 20
4.2862634326
 11
6.9989212308
 21
4.2862634326
  0
LINE
  5
305
100
AcDbEntity
  8
03__ASM_ALL_CURVES
100
AcDbLine
 62
40
  6
CONTINUOUS
 10
7.0191431058
 20
4.2862634326
 11
7.0393649808
 21
4.2862634326
  0
LINE
  5
306
100
AcDbEntity
  8
03__ASM_ALL_CURVES
100
AcDbLine
 62
40
  6
CONTINUOUS
 10
4.6984002931
 20
4.9255664326
 11
4.6930077931
 21
4.9291614327
  0
LINE
  5
307
100
AcDbEntity
  8
03__ASM_ALL_CURVES
100
AcDbLine
 62
40
  6
CONTINUOUS
 10
4.6984002931
 20
4.9687064326
 11
4.7037927931
 21
4.9651114335
  0
LINE
  5
308
100
AcDbEntity
  8
03__ASM_ALL_CURVES
100
AcDbLine
 62
40
  6
CONTINUOUS
 10
4.8251240431
 20
4.9255664326
 11
4.8197315431
 21
4.9291614327
  0
LINE
  5
309
100
AcDbEntity
  8
03__ASM_ALL_CURVES
100
AcDbLine
 62
40
  6
CONTINUOUS
 10
6.2196787221
 20
3.6550596827
 11
6.2156343471
 21
3.6604521826
  0
LINE
  5
30A
100
AcDbEntity
  8
03__ASM_ALL_CURVES
100
AcDbLine
 62
40
  6
CONTINUOUS
 10
6.1994568471
 20
3.6820221832
 11
6.2014790346
 21
3.679325932
  0
LINE
  5
30B
100
AcDbEntity
  8
03__ASM_ALL_CURVES
100
AcDbLine
 62
40
  6
CONTINUOUS
 10
6.2318118471
 20
3.6820221832
 11
6.2358562221
 21
3.6766296826
  0
LINE
  5
30C
100
AcDbEntity
  8
03__ASM_ALL_CURVES
100
AcDbLine
 62
40
  6
CONTINUOUS
 10
6.2641668471
 20
3.6820221832
 11
6.2661890346
 21
3.679325932
  0
LINE
  5
30D
100
AcDbEntity
  8
03__ASM_ALL_CURVES
100
AcDbLine
 62
40
  6
CONTINUOUS
 10
5.6459040428
 20
4.9363514326
 11
5.6432077928
 21
4.9471364326
  0
LINE
  5
30E
100
AcDbEntity
  8
03__ASM_ALL_CURVES
100
AcDbLine
 62
40
  6
CONTINUOUS
 10
5.8643002928
 20
4.9327564328
 11
5.8643002928
 21
4.9687064326
  0
LINE
  5
30F
100
AcDbEntity
  8
03__ASM_ALL_CURVES
100
AcDbLine
 62
40
  6
CONTINUOUS
 10
5.8858702928
 20
4.9687064326
 11
5.8858702928
 21
4.9327564328
  0
LINE
  5
310
100
AcDbEntity
  8
03__ASM_ALL_CURVES
100
AcDbLine
 62
40
  6
CONTINUOUS
 10
5.9074402928
 20
4.9687064326
 11
5.9074402928
 21
4.9255664326
  0
LINE
  5
311
100
AcDbEntity
  8
0
100
AcDbLine
 62
7
  6
CONTINUOUS
 10
5.311322725
 20
4.6523883056
 11
5.2916002931
 21
4.6637750569
  0
LINE
  5
312
100
AcDbEntity
  8
03__ASM_ALL_CURVES
100
AcDbLine
 62
40
  6
CONTINUOUS
 10
4.8305165431
 20
4.9543264335
 11
4.8359090431
 21
4.9507314317
  0
LINE
  5
313
100
AcDbEntity
  8
03__ASM_ALL_CURVES
100
AcDbLine
 62
40
  6
CONTINUOUS
 10
4.9572402931
 20
4.9255664326
 11
4.9518477931
 21
4.9291614327
  0
LINE
  5
314
100
AcDbEntity
  8
03__ASM_ALL_CURVES
100
AcDbLine
 62
40
  6
CONTINUOUS
 10
4.9572402931
 20
4.9687064326
 11
4.9626327931
 21
4.9651114335
  0
LINE
  5
315
100
AcDbEntity
  8
03__ASM_ALL_CURVES
100
AcDbLine
 62
40
  6
CONTINUOUS
 10
5.3924565428
 20
4.9291614327
 11
5.3870640428
 21
4.9363514326
  0
LINE
  5
316
100
AcDbEntity
  8
03__ASM_ALL_CURVES
100
AcDbLine
 62
40
  6
CONTINUOUS
 10
6.3288768471
 20
3.6820221832
 11
6.3308990346
 21
3.679325932
  0
LINE
  5
317
100
AcDbEntity
  8
03__ASM_ALL_CURVES
100
AcDbLine
 62
40
  6
CONTINUOUS
 10
5.4355965428
 20
4.9291614327
 11
5.4302040428
 21
4.9363514326
  0
LINE
  5
318
100
AcDbEntity
  8
03__ASM_ALL_CURVES
100
AcDbLine
 62
40
  6
CONTINUOUS
 10
5.4086340428
 20
4.9651114335
 11
5.4140265428
 21
4.9579214326
  0
LINE
  5
319
100
AcDbEntity
  8
03__ASM_ALL_CURVES
100
AcDbLine
 62
40
  6
CONTINUOUS
 10
5.9505802928
 20
4.9255664326
 11
5.9505802928
 21
4.9687064326
  0
LINE
  5
31A
100
AcDbEntity
  8
0
100
AcDbLine
 62
7
  6
CONTINUOUS
 10
5.9671002931
 20
3.9037184326
 11
5.9671002931
 21
4.5897184326
  0
LINE
  5
31B
100
AcDbEntity
  8
0
100
AcDbLine
 62
7
  6
CONTINUOUS
 10
5.9771002931
 20
3.9137184326
 11
5.9771002931
 21
4.5797184326
  0
LINE
  5
31C
100
AcDbEntity
  8
03__ASM_ALL_CURVES
100
AcDbLine
 62
40
  6
CONTINUOUS
 10
5.9937202928
 20
4.9255664326
 11
5.9937202928
 21
4.9687064326
  0
LINE
  5
31D
100
AcDbEntity
  8
0
100
AcDbLine
 62
7
  6
CONTINUOUS
 10
5.311322725
 20
3.8410485596
 11
5.2916002931
 21
3.8296618083
  0
LINE
  5
31E
100
AcDbEntity
  8
THREAD
100
AcDbLine
 62
7
  6
CONTINUOUS
 10
5.0086002931
 20
4.4651233776
 11
4.573163959
 21
4.4651233776
  0
LINE
  5
31F
100
AcDbEntity
  8
03__ASM_ALL_CURVES
100
AcDbLine
 62
40
  6
CONTINUOUS
 10
5.0435202931
 20
4.9255664326
 11
5.0381277931
 21
4.9291614327
  0
LINE
  5
320
100
AcDbEntity
  8
03__ASM_ALL_CURVES
100
AcDbLine
 62
40
  6
CONTINUOUS
 10
5.0435202931
 20
4.9687064326
 11
5.0489127931
 21
4.9651114335
  0
LINE
  5
321
100
AcDbEntity
  8
0
100
AcDbLine
 62
7
  6
CONTINUOUS
 10
6.3791002931
 20
3.9172184326
 11
6.3921002931
 21
3.9042184326
  0
LINE
  5
322
100
AcDbEntity
  8
03__ASM_ALL_CURVES
100
AcDbLine
 62
40
  6
CONTINUOUS
 10
5.4517740428
 20
4.9651114335
 11
5.4544702928
 21
4.9615164317
  0
LINE
  5
323
100
AcDbEntity
  8
03__ASM_ALL_CURVES
100
AcDbLine
 62
40
  6
CONTINUOUS
 10
5.6054602928
 20
4.9687064326
 11
5.6270302928
 21
4.9255664326
  0
LINE
  5
324
100
AcDbEntity
  8
03__ASM_ALL_CURVES
100
AcDbLine
 62
40
  6
CONTINUOUS
 10
5.8184640428
 20
4.9363514326
 11
5.8157677928
 21
4.9471364326
  0
LINE
  5
325
100
AcDbEntity
  8
03__ASM_ALL_CURVES
100
AcDbLine
 62
40
  6
CONTINUOUS
 10
6.1681129364
 20
3.6137171826
 11
6.1660907489
 21
3.6218059326
  0
LINE
  5
326
100
AcDbEntity
  8
03__ASM_ALL_CURVES
100
AcDbLine
 62
40
  6
CONTINUOUS
 10
6.0368602928
 20
4.9255664326
 11
6.0368602928
 21
4.9687064326
  0
LINE
  5
327
100
AcDbEntity
  8
03__ASM_ALL_CURVES
100
AcDbLine
 62
40
  6
CONTINUOUS
 10
6.0584302928
 20
4.9615164317
 11
6.0584302928
 21
4.9543264335
  0
LINE
  5
328
100
AcDbEntity
  8
0
100
AcDbLine
 62
7
  6
CONTINUOUS
 10
6.3791002931
 20
4.5762184326
 11
6.3921002931
 21
4.5892184326
  0
LINE
  5
329
100
AcDbEntity
  8
0
100
AcDbLine
 62
7
  6
CONTINUOUS
 10
5.7891002931
 20
3.9037184326
 11
5.7446002931
 21
3.8592184326
  0
LINE
  5
32A
100
AcDbEntity
  8
THREAD
100
AcDbLine
 62
7
  6
CONTINUOUS
 10
5.0086002931
 20
4.5164159601
 11
4.573163959
 21
4.5164159601
  0
LINE
  5
32B
100
AcDbEntity
  8
0
100
AcDbLine
 62
7
  6
CONTINUOUS
 10
6.3791002931
 20
4.5272184326
 11
6.3626002931
 21
4.5272184326
  0
LINE
  5
32C
100
AcDbEntity
  8
0
100
AcDbLine
 62
7
  6
CONTINUOUS
 10
6.2536002931
 20
4.5272184326
 11
6.0341002931
 21
4.5272184326
  0
LINE
  5
32D
100
AcDbEntity
  8
0
100
AcDbLine
 62
7
  6
CONTINUOUS
 10
6.5931002931
 20
4.5347184326
 11
6.5721002931
 21
4.5347184326
  0
LINE
  5
32E
100
AcDbEntity
  8
03__ASM_ALL_CURVES
100
AcDbLine
 62
40
  6
CONTINUOUS
 10
4.9572402931
 20
4.9435414322
 11
4.9491515431
 21
4.9471364326
  0
LINE
  5
32F
100
AcDbEntity
  8
0
100
AcDbLine
 62
7
  6
CONTINUOUS
 10
5.7891002931
 20
4.5897184326
 11
5.7446002931
 21
4.6342184326
  0
LINE
  5
330
100
AcDbEntity
  8
03__ASM_ALL_CURVES
100
AcDbLine
 62
40
  6
CONTINUOUS
 10
5.6512965428
 20
4.9291614327
 11
5.6459040428
 21
4.9363514326
  0
LINE
  5
331
100
AcDbEntity
  8
03__ASM_ALL_CURVES
100
AcDbLine
 62
40
  6
CONTINUOUS
 10
5.6674740428
 20
4.9651114335
 11
5.6701702928
 21
4.9615164317
  0
LINE
  5
332
100
AcDbEntity
  8
03__ASM_ALL_CURVES
100
AcDbLine
 62
40
  6
CONTINUOUS
 10
6.2601224721
 20
3.6685409326
 11
6.2661890346
 21
3.6523634326
  0
LINE
  5
333
100
AcDbEntity
  8
03__ASM_ALL_CURVES
100
AcDbLine
 62
40
  6
CONTINUOUS
 10
5.8454265428
 20
4.9579214326
 11
5.8481227928
 21
4.9471364326
  0
LINE
  5
334
100
AcDbEntity
  8
03__ASM_ALL_CURVES
100
AcDbLine
 62
40
  6
CONTINUOUS
 10
6.1883348114
 20
3.6298946826
 11
6.1903569989
 21
3.6218059326
  0
LINE
  5
335
100
AcDbEntity
  8
03__ASM_ALL_CURVES
100
AcDbLine
 62
40
  6
CONTINUOUS
 10
6.2156343471
 20
3.6604521826
 11
6.2136121596
 21
3.6685409326
  0
LINE
  5
336
100
AcDbEntity
  8
03__ASM_ALL_CURVES
100
AcDbLine
 62
40
  6
CONTINUOUS
 10
6.2358562221
 20
3.6766296826
 11
6.2378784096
 21
3.6685409326
  0
LINE
  5
337
100
AcDbEntity
  8
03__ASM_ALL_CURVES
100
AcDbLine
 62
40
  6
CONTINUOUS
 10
6.1853015346
 20
3.6523634326
 11
6.1853015346
 21
3.6847184326
  0
LINE
  5
338
100
AcDbEntity
  8
0
100
AcDbLine
 62
7
  6
CONTINUOUS
 10
5.9771002931
 20
3.9137184326
 11
5.9671002931
 21
3.9037184326
  0
LINE
  5
339
100
AcDbEntity
  8
0
100
AcDbLine
 62
7
  6
CONTINUOUS
 10
6.5221002931
 20
4.5887184326
 11
6.5721002931
 21
4.5887184326
  0
LINE
  5
33A
100
AcDbEntity
  8
0
100
AcDbLine
 62
7
  6
CONTINUOUS
 10
6.3921002931
 20
4.5892184326
 11
6.4521002931
 21
4.5892184326
  0
LINE
  5
33B
100
AcDbEntity
  8
0
100
AcDbLine
 62
7
  6
CONTINUOUS
 10
6.5931002931
 20
4.5892184326
 11
6.6471002931
 21
4.5892184326
  0
LINE
  5
33C
100
AcDbEntity
  8
0
100
AcDbLine
 62
7
  6
CONTINUOUS
 10
5.9671002931
 20
4.5897184326
 11
5.7891002931
 21
4.5897184326
  0
LINE
  5
33D
100
AcDbEntity
  8
0
100
AcDbLine
 62
7
  6
CONTINUOUS
 10
5.4685947397
 20
4.5972184326
 11
5.4561002931
 21
4.5972184326
  0
LINE
  5
33E
100
AcDbEntity
  8
0
100
AcDbLine
 62
7
  6
CONTINUOUS
 10
5.7446002931
 20
4.6342184326
 11
5.4974622531
 21
4.6342184326
  0
LINE
  5
33F
100
AcDbEntity
  8
0
100
AcDbLine
 62
7
  6
CONTINUOUS
 10
5.4061002931
 20
4.6512184326
 11
5.4561002931
 21
4.6512184326
  0
LINE
  5
340
100
AcDbEntity
  8
0
100
AcDbLine
 62
7
  6
CONTINUOUS
 10
5.3361002931
 20
4.6517184326
 11
5.313822725
 21
4.6517184326
  0
LINE
  5
341
100
AcDbEntity
  8
THREAD
100
AcDbLine
 62
7
  6
CONTINUOUS
 10
5.2861002931
 20
4.6742184326
 11
5.0701002931
 21
4.6742184326
  0
LINE
  5
342
100
AcDbEntity
  8
03__ASM_ALL_CURVES
100
AcDbLine
 62
40
  6
CONTINUOUS
 10
5.3978490428
 20
4.9255664326
 11
5.3924565428
 21
4.9291614327
  0
LINE
  5
343
100
AcDbEntity
  8
03__ASM_ALL_CURVES
100
AcDbLine
 62
40
  6
CONTINUOUS
 10
5.4409890428
 20
4.9255664326
 11
5.4355965428
 21
4.9291614327
  0
LINE
  5
344
100
AcDbEntity
  8
03__ASM_ALL_CURVES
100
AcDbLine
 62
40
  6
CONTINUOUS
 10
5.4032415428
 20
4.9687064326
 11
5.4086340428
 21
4.9651114335
  0
LINE
  5
345
100
AcDbEntity
  8
03__ASM_ALL_CURVES
100
AcDbLine
 62
40
  6
CONTINUOUS
 10
5.4463815428
 20
4.9687064326
 11
5.4517740428
 21
4.9651114335
  0
LINE
  5
346
100
AcDbEntity
  8
0
100
AcDbLine
 62
7
  6
CONTINUOUS
 10
5.9771002931
 20
4.5797184326
 11
5.9671002931
 21
4.5897184326
  0
LINE
  5
347
100
AcDbEntity
  8
03__ASM_ALL_CURVES
100
AcDbLine
 62
40
  6
CONTINUOUS
 10
5.7375765428
 20
4.9291614327
 11
5.7321840428
 21
4.9363514326
  0
LINE
  5
348
100
AcDbEntity
  8
03__ASM_ALL_CURVES
100
AcDbLine
 62
40
  6
CONTINUOUS
 10
5.7348802928
 20
4.9579214326
 11
5.7375765428
 21
4.9543264335
  0
LINE
  5
349
100
AcDbEntity
  8
03__ASM_ALL_CURVES
100
AcDbLine
 62
40
  6
CONTINUOUS
 10
5.7537540428
 20
4.9435414322
 11
5.7564502928
 21
4.939946433
  0
LINE
  5
34A
100
AcDbEntity
  8
03__ASM_ALL_CURVES
100
AcDbLine
 62
40
  6
CONTINUOUS
 10
5.7564502928
 20
4.9615164317
 11
5.7537540428
 21
4.9651114335
  0
LINE
  5
34B
100
AcDbEntity
  8
03__ASM_ALL_CURVES
100
AcDbLine
 62
40
  6
CONTINUOUS
 10
5.9721502928
 20
4.9579214326
 11
5.9748465428
 21
4.9471364326
  0
LINE
  5
34C
100
AcDbEntity
  8
03__ASM_ALL_CURVES
100
AcDbLine
 62
40
  6
CONTINUOUS
 10
6.2014790346
 20
3.679325932
 11
6.2014790346
 21
3.6739334332
  0
LINE
  5
34D
100
AcDbEntity
  8
03__ASM_ALL_CURVES
100
AcDbLine
 62
40
  6
CONTINUOUS
 10
6.2024901239
 20
3.6110209328
 11
6.2024901239
 21
3.6379834326
  0
LINE
  5
34E
100
AcDbEntity
  8
03__ASM_ALL_CURVES
100
AcDbLine
 62
40
  6
CONTINUOUS
 10
6.2186676239
 20
3.6379834326
 11
6.2186676239
 21
3.6110209328
  0
LINE
  5
34F
100
AcDbEntity
  8
03__ASM_ALL_CURVES
100
AcDbLine
 62
40
  6
CONTINUOUS
 10
6.2429338739
 20
3.6379834326
 11
6.2429338739
 21
3.6056284326
  0
LINE
  5
350
100
AcDbEntity
  8
03__ASM_ALL_CURVES
100
AcDbLine
 62
40
  6
CONTINUOUS
 10
6.2500115346
 20
3.6523634326
 11
6.2500115346
 21
3.6847184326
  0
LINE
  5
351
100
AcDbEntity
  8
03__ASM_ALL_CURVES
100
AcDbLine
 62
40
  6
CONTINUOUS
 10
6.2661890346
 20
3.679325932
 11
6.2661890346
 21
3.6739334332
  0
LINE
  5
352
100
AcDbEntity
  8
03__ASM_ALL_CURVES
100
AcDbLine
 62
40
  6
CONTINUOUS
 10
6.2672001239
 20
3.6379834326
 11
6.2672001239
 21
3.6056284326
  0
LINE
  5
353
100
AcDbEntity
  8
03__ASM_ALL_CURVES
100
AcDbLine
 62
40
  6
CONTINUOUS
 10
6.2904552846
 20
3.6847184326
 11
6.2904552846
 21
3.6523634326
  0
LINE
  5
354
100
AcDbEntity
  8
THREAD
100
AcDbLine
 62
7
  6
CONTINUOUS
 10
5.0086002931
 20
4.7348209051
 11
4.573163959
 21
4.7348209051
  0
LINE
  5
355
100
AcDbEntity
  8
THREAD
100
AcDbLine
 62
7
  6
CONTINUOUS
 10
5.0086002931
 20
4.7357184326
 11
4.573163959
 21
4.7357184326
  0
LINE
  5
356
100
AcDbEntity
  8
03__ASM_ALL_CURVES
100
AcDbLine
 62
40
  6
CONTINUOUS
 10
4.5822402931
 20
4.9063930993
 11
4.5391002931
 21
4.9111864326
  0
LINE
  5
357
100
AcDbEntity
  8
03__ASM_ALL_CURVES
100
AcDbLine
 62
40
  6
CONTINUOUS
 10
4.5822402931
 20
4.9051947659
 11
4.5391002931
 21
4.9111864326
  0
LINE
  5
358
100
AcDbEntity
  8
03__ASM_ALL_CURVES
100
AcDbLine
 62
40
  6
CONTINUOUS
 10
4.5822402931
 20
4.9039964326
 11
4.5391002931
 21
4.9111864326
  0
LINE
  5
359
100
AcDbEntity
  8
03__ASM_ALL_CURVES
100
AcDbLine
 62
40
  6
CONTINUOUS
 10
5.6566890428
 20
4.9255664326
 11
5.6512965428
 21
4.9291614327
  0
LINE
  5
35A
100
AcDbEntity
  8
03__ASM_ALL_CURVES
100
AcDbLine
 62
40
  6
CONTINUOUS
 10
5.6620815428
 20
4.9687064326
 11
5.6674740428
 21
4.9651114335
  0
LINE
  5
35B
100
AcDbEntity
  8
03__ASM_ALL_CURVES
100
AcDbLine
 62
40
  6
CONTINUOUS
 10
5.8238565428
 20
4.9291614327
 11
5.8184640428
 21
4.9363514326
  0
LINE
  5
35C
100
AcDbEntity
  8
03__ASM_ALL_CURVES
100
AcDbLine
 62
40
  6
CONTINUOUS
 10
5.8669965428
 20
4.9291614327
 11
5.8643002928
 21
4.9327564328
  0
LINE
  5
35D
100
AcDbEntity
  8
03__ASM_ALL_CURVES
100
AcDbLine
 62
40
  6
CONTINUOUS
 10
5.8400340428
 20
4.9651114335
 11
5.8454265428
 21
4.9579214326
  0
LINE
  5
35E
100
AcDbEntity
  8
03__ASM_ALL_CURVES
100
AcDbLine
 62
40
  6
CONTINUOUS
 10
6.0503415428
 20
4.9471364326
 11
6.0584302928
 21
4.9255664326
  0
LINE
  5
35F
100
AcDbEntity
  8
0
100
AcDbLine
 62
7
  6
CONTINUOUS
 10
6.2947274256
 20
4.0705099214
 11
6.2947274256
 21
4.0891046275
  0
LINE
  5
360
100
AcDbEntity
  8
0
100
AcDbLine
 62
7
  6
CONTINUOUS
 10
6.2947274256
 20
4.194171853
 11
6.2947274256
 21
4.2992925752
  0
LINE
  5
361
100
AcDbEntity
  8
0
100
AcDbLine
 62
7
  6
CONTINUOUS
 10
6.2947274256
 20
4.4043035352
 11
6.2947274256
 21
4.422926842
  0
LINE
  5
362
100
AcDbEntity
  8
03__ASM_ALL_CURVES
100
AcDbLine
 62
40
  6
CONTINUOUS
 10
6.2995551239
 20
3.6056284326
 11
6.2995551239
 21
3.6379834326
  0
LINE
  5
363
100
AcDbEntity
  8
0
100
AcDbLine
 62
7
  6
CONTINUOUS
 10
6.2999774256
 20
4.0901017597
 11
6.2999774256
 21
4.0699549101
  0
LINE
  5
364
100
AcDbEntity
  8
0
100
AcDbLine
 62
7
  6
CONTINUOUS
 10
6.2999774256
 20
4.193008621
 11
6.2999774256
 21
4.3003861332
  0
LINE
  5
365
100
AcDbEntity
  8
0
100
AcDbLine
 62
7
  6
CONTINUOUS
 10
6.2999774256
 20
4.4032857028
 11
6.2999774256
 21
4.4234822207
  0
LINE
  5
366
100
AcDbEntity
  8
03__ASM_ALL_CURVES
100
AcDbLine
 62
40
  6
CONTINUOUS
 10
6.3308990346
 20
3.679325932
 11
6.3308990346
 21
3.6739334332
  0
LINE
  5
367
100
AcDbEntity
  8
03__ASM_ALL_CURVES
100
AcDbLine
 62
40
  6
CONTINUOUS
 10
6.3399988739
 20
3.6379834326
 11
6.3399988739
 21
3.6056284326
  0
LINE
  5
368
100
AcDbEntity
  8
0
100
AcDbLine
 62
7
  6
CONTINUOUS
 10
6.3471671625
 20
4.2843576589
 11
6.3471671625
 21
4.2091112186
  0
LINE
  5
369
100
AcDbEntity
  8
0
100
AcDbLine
 62
7
  6
CONTINUOUS
 10
6.3791002931
 20
4.5762184326
 11
6.3791002931
 21
3.9172184326
  0
LINE
  5
36A
100
AcDbEntity
  8
03__ASM_ALL_CURVES
100
AcDbLine
 62
40
  6
CONTINUOUS
 10
6.1660907489
 20
3.6218059326
 11
6.1681129364
 21
3.6298946826
  0
LINE
  5
36B
100
AcDbEntity
  8
03__ASM_ALL_CURVES
100
AcDbLine
 62
40
  6
CONTINUOUS
 10
6.1903569989
 20
3.6218059326
 11
6.1883348114
 21
3.6137171826
  0
LINE
  5
36C
100
AcDbEntity
  8
03__ASM_ALL_CURVES
100
AcDbLine
 62
40
  6
CONTINUOUS
 10
6.2136121596
 20
3.6685409326
 11
6.2156343471
 21
3.6766296826
  0
LINE
  5
36D
100
AcDbEntity
  8
03__ASM_ALL_CURVES
100
AcDbLine
 62
40
  6
CONTINUOUS
 10
6.2378784096
 20
3.6685409326
 11
6.2358562221
 21
3.6604521826
  0
LINE
  5
36E
100
AcDbEntity
  8
03__ASM_ALL_CURVES
100
AcDbLine
 62
40
  6
CONTINUOUS
 10
4.5822402931
 20
4.9087897659
 11
4.5391002931
 21
4.9111864326
  0
LINE
  5
36F
100
AcDbEntity
  8
03__ASM_ALL_CURVES
100
AcDbLine
 62
40
  6
CONTINUOUS
 10
4.5822402931
 20
4.9075914326
 11
4.5391002931
 21
4.9111864326
  0
LINE
  5
370
100
AcDbEntity
  8
03__ASM_ALL_CURVES
100
AcDbLine
 62
40
  6
CONTINUOUS
 10
5.2459602931
 20
4.9147814326
 11
5.3322402931
 21
4.9075914326
  0
LINE
  5
371
100
AcDbEntity
  8
03__ASM_ALL_CURVES
100
AcDbLine
 62
40
  6
CONTINUOUS
 10
5.2459602931
 20
4.9159797659
 11
5.3322402931
 21
4.9063930993
  0
LINE
  5
372
100
AcDbEntity
  8
03__ASM_ALL_CURVES
100
AcDbLine
 62
40
  6
CONTINUOUS
 10
5.2459602931
 20
4.9171780993
 11
5.3322402931
 21
4.9051947659
  0
LINE
  5
373
100
AcDbEntity
  8
03__ASM_ALL_CURVES
100
AcDbLine
 62
40
  6
CONTINUOUS
 10
5.3322402931
 20
4.9039964326
 11
5.2459602931
 21
4.9183764326
  0
LINE
  5
374
100
AcDbEntity
  8
03__ASM_ALL_CURVES
100
AcDbLine
 62
40
  6
CONTINUOUS
 10
5.7429690428
 20
4.9255664326
 11
5.7375765428
 21
4.9291614327
  0
LINE
  5
375
100
AcDbEntity
  8
03__ASM_ALL_CURVES
100
AcDbLine
 62
40
  6
CONTINUOUS
 10
5.7375765428
 20
4.9543264335
 11
5.7537540428
 21
4.9435414322
  0
LINE
  5
376
100
AcDbEntity
  8
03__ASM_ALL_CURVES
100
AcDbLine
 62
40
  6
CONTINUOUS
 10
5.7537540428
 20
4.9651114335
 11
5.7483615428
 21
4.9687064326
  0
LINE
  5
377
100
AcDbEntity
  8
03__ASM_ALL_CURVES
100
AcDbLine
 62
40
  6
CONTINUOUS
 10
5.8292490428
 20
4.9255664326
 11
5.8238565428
 21
4.9291614327
  0
LINE
  5
378
100
AcDbEntity
  8
03__ASM_ALL_CURVES
100
AcDbLine
 62
40
  6
CONTINUOUS
 10
5.8723890428
 20
4.9255664326
 11
5.8669965428
 21
4.9291614327
  0
LINE
  5
379
100
AcDbEntity
  8
03__ASM_ALL_CURVES
100
AcDbLine
 62
40
  6
CONTINUOUS
 10
5.8346415428
 20
4.9687064326
 11
5.8400340428
 21
4.9651114335
  0
LINE
  5
37A
100
AcDbEntity
  8
03__ASM_ALL_CURVES
100
AcDbLine
 62
40
  6
CONTINUOUS
 10
5.9667577928
 20
4.9651114335
 11
5.9721502928
 21
4.9579214326
  0
LINE
  5
37B
100
AcDbEntity
  8
0
100
AcDbLine
 62
7
  6
CONTINUOUS
 10
6.3921002931
 20
4.5892184326
 11
6.3921002931
 21
3.9042184326
  0
LINE
  5
37C
100
AcDbEntity
  8
0
100
AcDbLine
 62
7
  6
CONTINUOUS
 10
6.4521002931
 20
4.5892144195
 11
6.4521002931
 21
3.9042224457
  0
LINE
  5
37D
100
AcDbEntity
  8
03__ASM_ALL_CURVES
100
AcDbLine
 62
40
  6
CONTINUOUS
 10
6.3167437221
 20
3.6604521826
 11
6.3147215346
 21
3.6523634326
  0
LINE
  5
37E
100
AcDbEntity
  8
03__ASM_ALL_CURVES
100
AcDbLine
 62
40
  6
CONTINUOUS
 10
6.9382556058
 20
4.272782182
 11
6.9342112308
 21
4.2700859326
  0
LINE
  5
37F
100
AcDbEntity
  8
03__ASM_ALL_CURVES
100
AcDbLine
 62
40
  6
CONTINUOUS
 10
6.9584774808
 20
4.2835671832
 11
6.9625218558
 21
4.2862634326
  0
LINE
  5
380
100
AcDbEntity
  8
03__ASM_ALL_CURVES
100
AcDbLine
 62
40
  6
CONTINUOUS
 10
6.9706106058
 20
4.2566046827
 11
6.9665662308
 21
4.2539084326
  0
LINE
  5
381
100
AcDbEntity
  8
03__ASM_ALL_CURVES
100
AcDbLine
 62
40
  6
CONTINUOUS
 10
7.0029656058
 20
4.272782182
 11
6.9989212308
 21
4.2700859326
  0
LINE
  5
382
100
AcDbEntity
  8
03__ASM_ALL_CURVES
100
AcDbLine
 62
40
  6
CONTINUOUS
 10
5.2459602931
 20
4.9063930993
 11
5.3322402931
 21
4.9159797659
  0
LINE
  5
383
100
AcDbEntity
  8
03__ASM_ALL_CURVES
100
AcDbLine
 62
40
  6
CONTINUOUS
 10
5.2459602931
 20
4.9075914326
 11
5.3322402931
 21
4.9147814326
  0
LINE
  5
384
100
AcDbEntity
  8
03__ASM_ALL_CURVES
100
AcDbLine
 62
40
  6
CONTINUOUS
 10
5.2459602931
 20
4.9087897659
 11
5.3322402931
 21
4.9135830993
  0
LINE
  5
385
100
AcDbEntity
  8
03__ASM_ALL_CURVES
100
AcDbLine
 62
40
  6
CONTINUOUS
 10
5.2459602931
 20
4.9099880993
 11
5.3322402931
 21
4.9123847659
  0
LINE
  5
386
100
AcDbEntity
  8
03__ASM_ALL_CURVES
100
AcDbLine
 62
40
  6
CONTINUOUS
 10
4.5822402931
 20
4.9123847659
 11
4.5391002931
 21
4.9111864326
  0
LINE
  5
387
100
AcDbEntity
  8
03__ASM_ALL_CURVES
100
AcDbLine
 62
40
  6
CONTINUOUS
 10
4.5391002931
 20
4.9111864326
 11
6.1087602931
 21
4.9111864326
  0
LINE
  5
388
100
AcDbEntity
  8
03__ASM_ALL_CURVES
100
AcDbLine
 62
40
  6
CONTINUOUS
 10
6.0152902928
 20
4.9255664326
 11
5.9937202928
 21
4.9255664326
  0
LINE
  5
389
100
AcDbEntity
  8
03__ASM_ALL_CURVES
100
AcDbLine
 62
40
  6
CONTINUOUS
 10
5.9613652928
 20
4.9255664326
 11
5.9505802928
 21
4.9255664326
  0
LINE
  5
38A
100
AcDbEntity
  8
03__ASM_ALL_CURVES
100
AcDbLine
 62
40
  6
CONTINUOUS
 10
5.8777815428
 20
4.9255664326
 11
5.8723890428
 21
4.9255664326
  0
LINE
  5
38B
100
AcDbEntity
  8
03__ASM_ALL_CURVES
100
AcDbLine
 62
40
  6
CONTINUOUS
 10
5.8346415428
 20
4.9255664326
 11
5.8292490428
 21
4.9255664326
  0
LINE
  5
38C
100
AcDbEntity
  8
03__ASM_ALL_CURVES
100
AcDbLine
 62
40
  6
CONTINUOUS
 10
5.7483615428
 20
4.9255664326
 11
5.7429690428
 21
4.9255664326
  0
LINE
  5
38D
100
AcDbEntity
  8
03__ASM_ALL_CURVES
100
AcDbLine
 62
40
  6
CONTINUOUS
 10
5.6620815428
 20
4.9255664326
 11
5.6566890428
 21
4.9255664326
  0
LINE
  5
38E
100
AcDbEntity
  8
03__ASM_ALL_CURVES
100
AcDbLine
 62
40
  6
CONTINUOUS
 10
5.4463815428
 20
4.9255664326
 11
5.4409890428
 21
4.9255664326
  0
LINE
  5
38F
100
AcDbEntity
  8
03__ASM_ALL_CURVES
100
AcDbLine
 62
40
  6
CONTINUOUS
 10
5.4032415428
 20
4.9255664326
 11
5.3978490428
 21
4.9255664326
  0
LINE
  5
390
100
AcDbEntity
  8
03__ASM_ALL_CURVES
100
AcDbLine
 62
40
  6
CONTINUOUS
 10
5.0003802931
 20
4.9255664326
 11
4.9976840431
 21
4.9255664326
  0
LINE
  5
391
100
AcDbEntity
  8
03__ASM_ALL_CURVES
100
AcDbLine
 62
40
  6
CONTINUOUS
 10
4.8305165431
 20
4.9255664326
 11
4.8251240431
 21
4.9255664326
  0
LINE
  5
392
100
AcDbEntity
  8
03__ASM_ALL_CURVES
100
AcDbLine
 62
40
  6
CONTINUOUS
 10
4.7415402931
 20
4.9255664326
 11
4.7388440431
 21
4.9255664326
  0
LINE
  5
393
100
AcDbEntity
  8
03__ASM_ALL_CURVES
100
AcDbLine
 62
40
  6
CONTINUOUS
 10
5.3466202928
 20
4.9255664326
 11
5.3681902928
 21
4.9255664326
  0
LINE
  5
394
100
AcDbEntity
  8
03__ASM_ALL_CURVES
100
AcDbLine
 62
40
  6
CONTINUOUS
 10
5.9074402928
 20
4.9255664326
 11
5.9290102928
 21
4.9255664326
  0
LINE
  5
395
100
AcDbEntity
  8
03__ASM_ALL_CURVES
100
AcDbLine
 62
40
  6
CONTINUOUS
 10
5.0758752931
 20
4.9363514326
 11
5.1001415431
 21
4.9363514326
  0
LINE
  5
396
100
AcDbEntity
  8
03__ASM_ALL_CURVES
100
AcDbLine
 62
40
  6
CONTINUOUS
 10
5.4787365428
 20
4.939946433
 11
5.4949140428
 21
4.939946433
  0
LINE
  5
397
100
AcDbEntity
  8
03__ASM_ALL_CURVES
100
AcDbLine
 62
40
  6
CONTINUOUS
 10
6.0503415428
 20
4.9471364326
 11
6.0368602928
 21
4.9471364326
  0
LINE
  5
398
100
AcDbEntity
  8
03__ASM_ALL_CURVES
100
AcDbLine
 62
40
  6
CONTINUOUS
 10
5.6593852928
 20
4.9471364326
 11
5.6701702928
 21
4.9471364326
  0
LINE
  5
399
100
AcDbEntity
  8
03__ASM_ALL_CURVES
100
AcDbLine
 62
40
  6
CONTINUOUS
 10
5.7780202928
 20
4.9471364326
 11
5.7995902928
 21
4.9471364326
  0
LINE
  5
39A
100
AcDbEntity
  8
03__ASM_ALL_CURVES
100
AcDbLine
 62
40
  6
CONTINUOUS
 10
5.9937202928
 20
4.9471364326
 11
6.0072015428
 21
4.9471364326
  0
LINE
  5
39B
100
AcDbEntity
  8
03__ASM_ALL_CURVES
100
AcDbLine
 62
40
  6
CONTINUOUS
 10
4.8251240431
 20
4.9543264335
 11
4.8305165431
 21
4.9543264335
  0
LINE
  5
39C
100
AcDbEntity
  8
03__ASM_ALL_CURVES
100
AcDbLine
 62
40
  6
CONTINUOUS
 10
5.7483615428
 20
4.9687064326
 11
5.7429690428
 21
4.9687064326
  0
LINE
  5
39D
100
AcDbEntity
  8
03__ASM_ALL_CURVES
100
AcDbLine
 62
40
  6
CONTINUOUS
 10
4.8386052931
 20
4.9687064326
 11
4.8224277931
 21
4.9687064326
  0
LINE
  5
39E
100
AcDbEntity
  8
03__ASM_ALL_CURVES
100
AcDbLine
 62
40
  6
CONTINUOUS
 10
4.7954652931
 20
4.9687064326
 11
4.7738952931
 21
4.9687064326
  0
LINE
  5
39F
100
AcDbEntity
  8
03__ASM_ALL_CURVES
100
AcDbLine
 62
40
  6
CONTINUOUS
 10
5.3978490428
 20
4.9687064326
 11
5.4032415428
 21
4.9687064326
  0
LINE
  5
3A0
100
AcDbEntity
  8
03__ASM_ALL_CURVES
100
AcDbLine
 62
40
  6
CONTINUOUS
 10
5.4409890428
 20
4.9687064326
 11
5.4463815428
 21
4.9687064326
  0
LINE
  5
3A1
100
AcDbEntity
  8
03__ASM_ALL_CURVES
100
AcDbLine
 62
40
  6
CONTINUOUS
 10
5.5164840428
 20
4.9687064326
 11
5.5434465428
 21
4.9687064326
  0
LINE
  5
3A2
100
AcDbEntity
  8
03__ASM_ALL_CURVES
100
AcDbLine
 62
40
  6
CONTINUOUS
 10
5.6566890428
 20
4.9687064326
 11
5.6620815428
 21
4.9687064326
  0
LINE
  5
3A3
100
AcDbEntity
  8
03__ASM_ALL_CURVES
100
AcDbLine
 62
40
  6
CONTINUOUS
 10
5.8292490428
 20
4.9687064326
 11
5.8346415428
 21
4.9687064326
  0
LINE
  5
3A4
100
AcDbEntity
  8
03__ASM_ALL_CURVES
100
AcDbLine
 62
40
  6
CONTINUOUS
 10
5.9505802928
 20
4.9687064326
 11
5.9613652928
 21
4.9687064326
  0
LINE
  5
3A5
100
AcDbEntity
  8
03__ASM_ALL_CURVES
100
AcDbLine
 62
40
  6
CONTINUOUS
 10
5.9937202928
 20
4.9687064326
 11
6.0152902928
 21
4.9687064326
  0
LINE
  5
3A6
100
AcDbEntity
  8
03__ASM_ALL_CURVES
100
AcDbLine
 62
40
  6
CONTINUOUS
 10
6.0368602928
 20
4.9687064326
 11
6.0503415428
 21
4.9687064326
  0
LINE
  5
3A7
100
AcDbEntity
  8
03__ASM_ALL_CURVES
100
AcDbLine
 62
40
  6
CONTINUOUS
 10
4.5822402931
 20
4.9099880993
 11
4.5391002931
 21
4.9111864326
  0
LINE
  5
3A8
100
AcDbEntity
  8
03__ASM_ALL_CURVES
100
AcDbLine
 62
40
  6
CONTINUOUS
 10
5.2459602931
 20
4.9123847659
 11
5.3322402931
 21
4.9099880993
  0
LINE
  5
3A9
100
AcDbEntity
  8
03__ASM_ALL_CURVES
100
AcDbLine
 62
40
  6
CONTINUOUS
 10
5.2459602931
 20
4.9135830993
 11
5.3322402931
 21
4.9087897659
  0
LINE
  5
3AA
100
AcDbEntity
  8
03__ASM_ALL_CURVES
100
AcDbLine
 62
40
  6
CONTINUOUS
 10
6.9625218558
 20
4.2539084326
 11
6.9584774808
 21
4.2566046827
  0
LINE
  5
3AB
100
AcDbEntity
  8
03__ASM_ALL_CURVES
100
AcDbLine
 62
40
  6
CONTINUOUS
 10
6.9342112308
 20
4.2862634326
 11
6.9382556058
 21
4.2835671832
  0
LINE
  5
3AC
100
AcDbEntity
  8
03__ASM_ALL_CURVES
100
AcDbLine
 62
40
  6
CONTINUOUS
 10
6.9665662308
 20
4.2862634326
 11
6.9706106058
 21
4.2835671832
  0
LINE
  5
3AD
100
AcDbEntity
  8
03__ASM_ALL_CURVES
100
AcDbLine
 62
40
  6
CONTINUOUS
 10
5.9613652928
 20
4.9687064326
 11
5.9667577928
 21
4.9651114335
  0
LINE
  5
3AE
100
AcDbEntity
  8
03__ASM_ALL_CURVES
100
AcDbLine
 62
40
  6
CONTINUOUS
 10
6.9989212308
 20
4.2862634326
 11
7.0029656058
 21
4.2835671832
  0
LINE
  5
3AF
100
AcDbEntity
  8
03__ASM_ALL_CURVES
100
AcDbLine
 62
40
  6
CONTINUOUS
 10
6.0557340428
 20
4.9651114335
 11
6.0584302928
 21
4.9615164317
  0
LINE
  5
3B0
100
AcDbEntity
  8
0
100
AcDbLine
 62
7
  6
CONTINUOUS
 10
6.5221002931
 20
3.9047189526
 11
6.5221002931
 21
4.5887179126
  0
LINE
  5
3B1
100
AcDbEntity
  8
0
100
AcDbLine
 62
7
  6
CONTINUOUS
 10
6.5721002931
 20
3.9047189526
 11
6.5721002931
 21
4.5887179126
  0
LINE
  5
3B2
100
AcDbEntity
  8
03__ASM_ALL_CURVES
100
AcDbLine
 62
40
  6
CONTINUOUS
 10
6.1681129364
 20
3.6298946826
 11
6.1721573114
 21
3.6352871832
  0
LINE
  5
3B3
100
AcDbEntity
  8
03__ASM_ALL_CURVES
100
AcDbLine
 62
40
  6
CONTINUOUS
 10
6.2014790346
 20
3.6739334332
 11
6.1994568471
 21
3.671237182
  0
LINE
  5
3B4
100
AcDbEntity
  8
03__ASM_ALL_CURVES
100
AcDbLine
 62
40
  6
CONTINUOUS
 10
6.2156343471
 20
3.6766296826
 11
6.2196787221
 21
3.6820221832
  0
LINE
  5
3B5
100
AcDbEntity
  8
03__ASM_ALL_CURVES
100
AcDbLine
 62
40
  6
CONTINUOUS
 10
6.1883348114
 20
3.6137171826
 11
6.1842904364
 21
3.6083246827
  0
LINE
  5
3B6
100
AcDbEntity
  8
03__ASM_ALL_CURVES
100
AcDbLine
 62
40
  6
CONTINUOUS
 10
6.2358562221
 20
3.6604521826
 11
6.2318118471
 21
3.6550596827
  0
LINE
  5
3B7
100
AcDbEntity
  8
03__ASM_ALL_CURVES
100
AcDbLine
 62
40
  6
CONTINUOUS
 10
6.2186676239
 20
3.6110209328
 11
6.2166454364
 21
3.6083246827
  0
LINE
  5
3B8
100
AcDbEntity
  8
03__ASM_ALL_CURVES
100
AcDbLine
 62
40
  6
CONTINUOUS
 10
6.2661890346
 20
3.6739334332
 11
6.2641668471
 21
3.671237182
  0
LINE
  5
3B9
100
AcDbEntity
  8
03__ASM_ALL_CURVES
100
AcDbLine
 62
40
  6
CONTINUOUS
 10
6.3147215346
 20
3.679325932
 11
6.3167437221
 21
3.6820221832
  0
LINE
  5
3BA
100
AcDbEntity
  8
03__ASM_ALL_CURVES
100
AcDbLine
 62
40
  6
CONTINUOUS
 10
6.1994568471
 20
3.671237182
 11
6.1954124721
 21
3.6685409326
  0
LINE
  5
3BB
100
AcDbEntity
  8
03__ASM_ALL_CURVES
100
AcDbLine
 62
40
  6
CONTINUOUS
 10
6.2196787221
 20
3.6820221832
 11
6.2237230971
 21
3.6847184326
  0
LINE
  5
3BC
100
AcDbEntity
  8
03__ASM_ALL_CURVES
100
AcDbLine
 62
40
  6
CONTINUOUS
 10
6.1721573114
 20
3.6352871832
 11
6.1762016864
 21
3.6379834326
  0
LINE
  5
3BD
100
AcDbEntity
  8
03__ASM_ALL_CURVES
100
AcDbLine
 62
40
  6
CONTINUOUS
 10
6.2318118471
 20
3.6550596827
 11
6.2277674721
 21
3.6523634326
  0
LINE
  5
3BE
100
AcDbEntity
  8
03__ASM_ALL_CURVES
100
AcDbLine
 62
40
  6
CONTINUOUS
 10
6.2641668471
 20
3.671237182
 11
6.2601224721
 21
3.6685409326
  0
LINE
  5
3BF
100
AcDbEntity
  8
03__ASM_ALL_CURVES
100
AcDbLine
 62
40
  6
CONTINUOUS
 10
6.1842904364
 20
3.6083246827
 11
6.1802460614
 21
3.6056284326
  0
LINE
  5
3C0
100
AcDbEntity
  8
03__ASM_ALL_CURVES
100
AcDbLine
 62
40
  6
CONTINUOUS
 10
5.2459602931
 20
4.9039964326
 11
5.3322402931
 21
4.9183764326
  0
LINE
  5
3C1
100
AcDbEntity
  8
03__ASM_ALL_CURVES
100
AcDbLine
 62
40
  6
CONTINUOUS
 10
5.2459602931
 20
4.9051947659
 11
5.3322402931
 21
4.9171780993
  0
LINE
  5
3C2
100
AcDbEntity
  8
03__ASM_ALL_CURVES
100
AcDbLine
 62
40
  6
CONTINUOUS
 10
4.5822402931
 20
4.9159797659
 11
4.5391002931
 21
4.9111864326
  0
LINE
  5
3C3
100
AcDbEntity
  8
03__ASM_ALL_CURVES
100
AcDbLine
 62
40
  6
CONTINUOUS
 10
4.5822402931
 20
4.9147814326
 11
4.5391002931
 21
4.9111864326
  0
LINE
  5
3C4
100
AcDbEntity
  8
03__ASM_ALL_CURVES
100
AcDbLine
 62
40
  6
CONTINUOUS
 10
4.5822402931
 20
4.9135830993
 11
4.5391002931
 21
4.9111864326
  0
LINE
  5
3C5
100
AcDbEntity
  8
03__ASM_ALL_CURVES
100
AcDbLine
 62
40
  6
CONTINUOUS
 10
6.0503415428
 20
4.9687064326
 11
6.0557340428
 21
4.9651114335
  0
LINE
  5
3C6
100
AcDbEntity
  8
0
100
AcDbLine
 62
7
  6
CONTINUOUS
 10
6.5931002931
 20
4.5892144195
 11
6.5931002931
 21
3.9042224457
  0
LINE
  5
3C7
100
AcDbEntity
  8
0
100
AcDbLine
 62
7
  6
CONTINUOUS
 10
6.6471002931
 20
3.9042184326
 11
6.6471002931
 21
4.5892184326
  0
LINE
  5
3C8
100
AcDbEntity
  8
0
100
AcDbLine
 62
7
  6
CONTINUOUS
 10
6.6601002931
 20
3.9172184326
 11
6.6601002931
 21
4.5762184326
  0
LINE
  5
3C9
100
AcDbEntity
  8
03__ASM_ALL_CURVES
100
AcDbLine
 62
40
  6
CONTINUOUS
 10
6.3207880971
 20
3.6658446823
 11
6.3167437221
 21
3.6604521826
  0
LINE
  5
3CA
100
AcDbEntity
  8
03__ASM_ALL_CURVES
100
AcDbLine
 62
40
  6
CONTINUOUS
 10
6.3308990346
 20
3.6739334332
 11
6.3288768471
 21
3.671237182
  0
LINE
  5
3CB
100
AcDbEntity
  8
0
100
AcDbLine
 62
7
  6
CONTINUOUS
 10
6.6471002931
 20
3.9042184326
 11
6.6601002931
 21
3.9172184326
  0
LINE
  5
3CC
100
AcDbEntity
  8
03__ASM_ALL_CURVES
100
AcDbLine
 62
40
  6
CONTINUOUS
 10
6.3167437221
 20
3.6820221832
 11
6.3207880971
 21
3.6847184326
  0
LINE
  5
3CD
100
AcDbEntity
  8
03__ASM_ALL_CURVES
100
AcDbLine
 62
40
  6
CONTINUOUS
 10
6.2166454364
 20
3.6083246827
 11
6.2126010614
 21
3.6056284326
  0
LINE
  5
3CE
100
AcDbEntity
  8
03__ASM_ALL_CURVES
100
AcDbLine
 62
40
  6
CONTINUOUS
 10
6.3288768471
 20
3.671237182
 11
6.3207880971
 21
3.6658446823
  0
LINE
  5
3CF
100
AcDbEntity
  8
03__ASM_ALL_CURVES
100
AcDbLine
 62
40
  6
CONTINUOUS
 10
4.5391002931
 20
4.9111864326
 11
4.5822402931
 21
4.9183764326
  0
LINE
  5
3D0
100
AcDbEntity
  8
03__ASM_ALL_CURVES
100
AcDbLine
 62
40
  6
CONTINUOUS
 10
4.5822402931
 20
4.9171780993
 11
4.5391002931
 21
4.9111864326
  0
LINE
  5
3D1
100
AcDbEntity
  8
0
100
AcDbLine
 62
7
  6
CONTINUOUS
 10
6.6471002931
 20
4.5892184326
 11
6.6601002931
 21
4.5762184326
  0
LINE
  5
3D2
100
AcDbEntity
  8
03__ASM_ALL_CURVES
100
AcDbLine
 62
40
  6
CONTINUOUS
 10
6.9402777933
 20
4.2754784332
 11
6.9382556058
 21
4.272782182
  0
LINE
  5
3D3
100
AcDbEntity
  8
03__ASM_ALL_CURVES
100
AcDbLine
 62
40
  6
CONTINUOUS
 10
6.9544331058
 20
4.2781746826
 11
6.9584774808
 21
4.2835671832
  0
LINE
  5
3D4
100
AcDbEntity
  8
03__ASM_ALL_CURVES
100
AcDbLine
 62
40
  6
CONTINUOUS
 10
6.9746549808
 20
4.2619971826
 11
6.9706106058
 21
4.2566046827
  0
LINE
  5
3D5
100
AcDbEntity
  8
03__ASM_ALL_CURVES
100
AcDbLine
 62
40
  6
CONTINUOUS
 10
6.9584774808
 20
4.2566046827
 11
6.9544331058
 21
4.2619971826
  0
LINE
  5
3D6
100
AcDbEntity
  8
03__ASM_ALL_CURVES
100
AcDbLine
 62
40
  6
CONTINUOUS
 10
6.9382556058
 20
4.2835671832
 11
6.9402777933
 21
4.280870932
  0
LINE
  5
3D7
100
AcDbEntity
  8
03__ASM_ALL_CURVES
100
AcDbLine
 62
40
  6
CONTINUOUS
 10
6.9706106058
 20
4.2835671832
 11
6.9746549808
 21
4.2781746826
  0
LINE
  5
3D8
100
AcDbEntity
  8
03__ASM_ALL_CURVES
100
AcDbLine
 62
40
  6
CONTINUOUS
 10
7.0029656058
 20
4.2835671832
 11
7.0049877933
 21
4.280870932
  0
LINE
  5
3D9
100
AcDbEntity
  8
03__ASM_ALL_CURVES
100
AcDbLine
 62
40
  6
CONTINUOUS
 10
7.0049877933
 20
4.2754784332
 11
7.0029656058
 21
4.272782182
  0
LINE
  5
3DA
100
AcDbEntity
  8
03__ASM_ALL_CURVES
100
AcDbLine
 62
40
  6
CONTINUOUS
 10
6.9483665435
 20
4.2395284326
 11
6.9645440435
 21
4.2071734326
  0
LINE
  5
3DB
100
AcDbEntity
  8
03__ASM_ALL_CURVES
100
AcDbLine
 62
40
  6
CONTINUOUS
 10
6.9241002935
 20
4.2395284326
 11
6.9241002935
 21
4.2071734326
  0
LINE
  5
3DC
100
AcDbEntity
  8
03__ASM_ALL_CURVES
100
AcDbLine
 62
40
  6
CONTINUOUS
 10
6.9241002933
 20
4.2539084326
 11
6.9241002933
 21
4.2862634326
  0
LINE
  5
3DD
100
AcDbEntity
  8
03__ASM_ALL_CURVES
100
AcDbLine
 62
40
  6
CONTINUOUS
 10
6.9402777933
 20
4.280870932
 11
6.9402777933
 21
4.2754784332
  0
LINE
  5
3DE
100
AcDbEntity
  8
03__ASM_ALL_CURVES
100
AcDbLine
 62
40
  6
CONTINUOUS
 10
6.9483665435
 20
4.2071734326
 11
6.9483665435
 21
4.2395284326
  0
LINE
  5
3DF
100
AcDbEntity
  8
03__ASM_ALL_CURVES
100
AcDbLine
 62
40
  6
CONTINUOUS
 10
6.9524109183
 20
4.2700859326
 11
6.9544331058
 21
4.2781746826
  0
LINE
  5
3E0
100
AcDbEntity
  8
03__ASM_ALL_CURVES
100
AcDbLine
 62
40
  6
CONTINUOUS
 10
6.9766771683
 20
4.2700859326
 11
6.9746549808
 21
4.2619971826
  0
LINE
  5
3E1
100
AcDbEntity
  8
03__ASM_ALL_CURVES
100
AcDbLine
 62
40
  6
CONTINUOUS
 10
6.9989212308
 20
4.2700859326
 11
7.0049877933
 21
4.2539084326
  0
LINE
  5
3E2
100
AcDbEntity
  8
03__ASM_ALL_CURVES
100
AcDbLine
 62
40
  6
CONTINUOUS
 10
6.9544331058
 20
4.2619971826
 11
6.9524109183
 21
4.2700859326
  0
LINE
  5
3E3
100
AcDbEntity
  8
03__ASM_ALL_CURVES
100
AcDbLine
 62
40
  6
CONTINUOUS
 10
6.9746549808
 20
4.2781746826
 11
6.9766771683
 21
4.2700859326
  0
LINE
  5
3E4
100
AcDbEntity
  8
03__ASM_ALL_CURVES
100
AcDbLine
 62
40
  6
CONTINUOUS
 10
6.9645440435
 20
4.2071734326
 11
6.9645440435
 21
4.2395284326
  0
LINE
  5
3E5
100
AcDbEntity
  8
03__ASM_ALL_CURVES
100
AcDbLine
 62
40
  6
CONTINUOUS
 10
6.9807215435
 20
4.2395284326
 11
6.9807215435
 21
4.2071734326
  0
LINE
  5
3E6
100
AcDbEntity
  8
03__ASM_ALL_CURVES
100
AcDbLine
 62
40
  6
CONTINUOUS
 10
6.9888102933
 20
4.2539084326
 11
6.9888102933
 21
4.2862634326
  0
LINE
  5
3E7
100
AcDbEntity
  8
03__ASM_ALL_CURVES
100
AcDbLine
 62
40
  6
CONTINUOUS
 10
7.0049877933
 20
4.280870932
 11
7.0049877933
 21
4.2754784332
  0
LINE
  5
3E8
100
AcDbEntity
  8
03__ASM_ALL_CURVES
100
AcDbLine
 62
40
  6
CONTINUOUS
 10
7.0130765435
 20
4.2071734326
 11
7.0130765435
 21
4.2395284326
  0
LINE
  5
3E9
100
AcDbEntity
  8
03__ASM_ALL_CURVES
100
AcDbLine
 62
40
  6
CONTINUOUS
 10
7.0292540433
 20
4.2862634326
 11
7.0292540433
 21
4.2539084326
  0
LINE
  5
3EA
100
AcDbEntity
  8
03__ASM_ALL_CURVES
100
AcDbLine
 62
40
  6
CONTINUOUS
 10
7.0535202935
 20
4.2395284326
 11
7.0535202935
 21
4.2071734326
  0
LINE
  5
3EB
100
AcDbEntity
  8
03__ASM_ALL_CURVES
100
AcDbLine
 62
40
  6
CONTINUOUS
 10
7.0616090433
 20
4.2862634326
 11
7.0616090433
 21
4.2539084326
  0
CIRCLE
  5
3EC
100
AcDbEntity
  8
0
100
AcDbCircle
 62
7
  6
CONTINUOUS
 10
6.3081002931
 20
4.2467184326
 40
0.0545
  0
ARC
  5
3ED
100
AcDbEntity
  8
0
100
AcDbCircle
 62
7
  6
CONTINUOUS
 10
5.4685947397
 20
3.8832184326
 40
0.013
100
AcDbArc
 50
29.999999997
 51
90.0
  0
ARC
  5
3EE
100
AcDbEntity
  8
0
100
AcDbCircle
 62
7
  6
CONTINUOUS
 10
5.4685947397
 20
4.6102184326
 40
0.013
100
AcDbArc
 50
270.0
 51
330.0000000004
  0
ARC
  5
3EF
100
AcDbEntity
  8
0
100
AcDbCircle
 62
7
  6
CONTINUOUS
 10
5.2941002931
 20
3.8253316812
 40
0.005
100
AcDbArc
 50
120.0000000123
 51
179.9999999997
  0
ARC
  5
3F0
100
AcDbEntity
  8
0
100
AcDbCircle
 62
7
  6
CONTINUOUS
 10
5.2941002931
 20
4.6681051839
 40
0.005
100
AcDbArc
 50
180.0000000002
 51
239.9999999914
  0
ARC
  5
3F1
100
AcDbEntity
  8
0
100
AcDbCircle
 62
7
  6
CONTINUOUS
 10
5.313822725
 20
3.8367184326
 40
0.005
100
AcDbArc
 50
90.0
 51
120.0000000158
  0
ARC
  5
3F2
100
AcDbEntity
  8
0
100
AcDbCircle
 62
7
  6
CONTINUOUS
 10
5.313822725
 20
4.6567184326
 40
0.005
100
AcDbArc
 50
239.9999999852
 51
270.0
  0
ARC
  5
3F3
100
AcDbEntity
  8
0
100
AcDbCircle
 62
7
  6
CONTINUOUS
 10
5.2861002931
 20
3.8222184326
 40
0.003
100
AcDbArc
 50
270.0
 51
360.0
  0
ARC
  5
3F4
100
AcDbEntity
  8
0
100
AcDbCircle
 62
7
  6
CONTINUOUS
 10
5.2861002931
 20
4.6712184326
 40
0.003
100
AcDbArc
 50
0.0
 51
90.0
  0
SPLINE
  5
3F5
100
AcDbEntity
  8
0
100
AcDbSpline
 62
7
  6
CONTINUOUS
 70
0
 71
3
 72
15
 73
11
 74
9
 42
0.0000001
 43
0.0000001
 44
0.0000000001
 12
0.0
 22
0.1099409465
 32
0.0
 13
0.0
 23
-0.1099409465
 33
0.0
 40
0.0
 40
0.0
 40
0.0
 40
0.0
 40
0.125
 40
0.25
 40
0.375
 40
0.5
 40
0.625
 40
0.75
 40
0.875
 40
1.0
 40
1.0
 40
1.0
 40
1.0
 10
6.5221002931
 20
4.5697184326
 30
0.0
 10
6.5221002931
 20
4.5742993054
 30
0.0
 10
6.5202779087
 20
4.5834610509
 30
0.0
 10
6.5124933407
 20
4.5951114802
 30
0.0
 10
6.5008429115
 20
4.6028960481
 30
0.0
 10
6.4871002931
 20
4.6056296248
 30
0.0
 10
6.4733576748
 20
4.6028960481
 30
0.0
 10
6.4617072456
 20
4.5951114802
 30
0.0
 10
6.4539226776
 20
4.5834610509
 30
0.0
 10
6.4521002931
 20
4.5742993054
 30
0.0
 10
6.4521002931
 20
4.5697184326
 30
0.0
 11
6.5221002931
 21
4.5697184326
 31
0.0
 11
6.5194360768
 21
4.5831123527
 31
0.0
 11
6.5118490305
 21
4.5944671699
 31
0.0
 11
6.5004942133
 21
4.6020542162
 31
0.0
 11
6.4871002931
 21
4.6047184326
 31
0.0
 11
6.473706373
 21
4.6020542162
 31
0.0
 11
6.4623515558
 21
4.5944671699
 31
0.0
 11
6.4547645095
 21
4.5831123527
 31
0.0
 11
6.4521002931
 21
4.5697184326
 31
0.0
  0
SPLINE
  5
3F6
100
AcDbEntity
  8
0
100
AcDbSpline
 62
7
  6
CONTINUOUS
 70
0
 71
3
 72
15
 73
11
 74
9
 42
0.0000001
 43
0.0000001
 44
0.0000000001
 12
0.0
 22
-0.1099409465
 32
0.0
 13
0.0
 23
0.1099409465
 33
0.0
 40
0.0
 40
0.0
 40
0.0
 40
0.0
 40
0.125
 40
0.25
 40
0.375
 40
0.5
 40
0.625
 40
0.75
 40
0.875
 40
1.0
 40
1.0
 40
1.0
 40
1.0
 10
6.5221002931
 20
3.9237184326
 30
0.0
 10
6.5221002931
 20
3.9191375598
 30
0.0
 10
6.5202779087
 20
3.9099758143
 30
0.0
 10
6.5124933407
 20
3.898325385
 30
0.0
 10
6.5008429115
 20
3.8905408171
 30
0.0
 10
6.4871002931
 20
3.8878072403
 30
0.0
 10
6.4733576748
 20
3.8905408171
 30
0.0
 10
6.4617072456
 20
3.898325385
 30
0.0
 10
6.4539226776
 20
3.9099758143
 30
0.0
 10
6.4521002931
 20
3.9191375598
 30
0.0
 10
6.4521002931
 20
3.9237184326
 30
0.0
 11
6.5221002931
 21
3.9237184326
 31
0.0
 11
6.5194360768
 21
3.9103245125
 31
0.0
 11
6.5118490305
 21
3.8989696953
 31
0.0
 11
6.5004942133
 21
3.891382649
 31
0.0
 11
6.4871002931
 21
3.8887184326
 31
0.0
 11
6.473706373
 21
3.891382649
 31
0.0
 11
6.4623515558
 21
3.8989696953
 31
0.0
 11
6.4547645095
 21
3.9103245125
 31
0.0
 11
6.4521002931
 21
3.9237184326
 31
0.0
  0
SPLINE
  5
3F7
100
AcDbEntity
  8
0
100
AcDbSpline
 62
7
  6
CONTINUOUS
 70
0
 71
3
 72
15
 73
11
 74
9
 42
0.0000001
 43
0.0000001
 44
0.0000000001
 12
0.0
 22
0.1099409465
 32
0.0
 13
0.0
 23
-0.1099409465
 33
0.0
 40
0.0
 40
0.0
 40
0.0
 40
0.0
 40
0.125
 40
0.25
 40
0.375
 40
0.5
 40
0.625
 40
0.75
 40
0.875
 40
1.0
 40
1.0
 40
1.0
 40
1.0
 10
5.4061002931
 20
4.6322184326
 30
0.0
 10
5.4061002931
 20
4.6367993054
 30
0.0
 10
5.4042779087
 20
4.6459610509
 30
0.0
 10
5.3964933407
 20
4.6576114802
 30
0.0
 10
5.3848429115
 20
4.6653960481
 30
0.0
 10
5.3711002931
 20
4.6681296248
 30
0.0
 10
5.3573576748
 20
4.6653960481
 30
0.0
 10
5.3457072456
 20
4.6576114802
 30
0.0
 10
5.3379226776
 20
4.6459610509
 30
0.0
 10
5.3361002931
 20
4.6367993054
 30
0.0
 10
5.3361002931
 20
4.6322184326
 30
0.0
 11
5.4061002931
 21
4.6322184326
 31
0.0
 11
5.4034360768
 21
4.6456123527
 31
0.0
 11
5.3958490305
 21
4.6569671699
 31
0.0
 11
5.3844942133
 21
4.6645542162
 31
0.0
 11
5.3711002931
 21
4.6672184326
 31
0.0
 11
5.357706373
 21
4.6645542162
 31
0.0
 11
5.3463515558
 21
4.6569671699
 31
0.0
 11
5.3387645095
 21
4.6456123527
 31
0.0
 11
5.3361002931
 21
4.6322184326
 31
0.0
  0
SPLINE
  5
3F8
100
AcDbEntity
  8
0
100
AcDbSpline
 62
7
  6
CONTINUOUS
 70
0
 71
3
 72
15
 73
11
 74
9
 42
0.0000001
 43
0.0000001
 44
0.0000000001
 12
0.0
 22
-0.1099409465
 32
0.0
 13
0.0
 23
0.1099409465
 33
0.0
 40
0.0
 40
0.0
 40
0.0
 40
0.0
 40
0.125
 40
0.25
 40
0.375
 40
0.5
 40
0.625
 40
0.75
 40
0.875
 40
1.0
 40
1.0
 40
1.0
 40
1.0
 10
5.4061002931
 20
3.8612184326
 30
0.0
 10
5.4061002931
 20
3.8566375598
 30
0.0
 10
5.4042779087
 20
3.8474758143
 30
0.0
 10
5.3964933407
 20
3.835825385
 30
0.0
 10
5.3848429115
 20
3.8280408171
 30
0.0
 10
5.3711002931
 20
3.8253072403
 30
0.0
 10
5.3573576748
 20
3.8280408171
 30
0.0
 10
5.3457072456
 20
3.835825385
 30
0.0
 10
5.3379226776
 20
3.8474758143
 30
0.0
 10
5.3361002931
 20
3.8566375598
 30
0.0
 10
5.3361002931
 20
3.8612184326
 30
0.0
 11
5.4061002931
 21
3.8612184326
 31
0.0
 11
5.4034360768
 21
3.8478245125
 31
0.0
 11
5.3958490305
 21
3.8364696953
 31
0.0
 11
5.3844942133
 21
3.828882649
 31
0.0
 11
5.3711002931
 21
3.8262184326
 31
0.0
 11
5.357706373
 21
3.828882649
 31
0.0
 11
5.3463515558
 21
3.8364696953
 31
0.0
 11
5.3387645095
 21
3.8478245125
 31
0.0
 11
5.3361002931
 21
3.8612184326
 31
0.0
  0
SPLINE
  5
3F9
100
AcDbEntity
  8
0
100
AcDbSpline
 62
7
  6
CONTINUOUS
 70
0
 71
3
 72
17
 73
13
 74
11
 42
0.0000001
 43
0.0000001
 44
0.0000000001
 12
0.0757283284
 22
0.0
 32
0.0
 13
-0.0000298617
 23
-0.0759724546
 33
0.0
 40
0.0
 40
0.0
 40
0.0
 40
0.0
 40
0.1134748756
 40
0.2296907681
 40
0.3429433689
 40
0.4487986757
 40
0.5513646818
 40
0.6653395907
 40
0.7817398301
 40
0.8910524796
 40
0.9937143237
 40
1.0
 40
1.0
 40
1.0
 40
1.0
 10
6.3081002931
 20
4.0906921379
 30
0.0
 10
6.310964714
 20
4.0906921379
 30
0.0
 10
6.3167701144
 20
4.0903040373
 30
0.0
 10
6.3252758842
 20
4.0885570135
 30
0.0
 10
6.3332809174
 20
4.0857237655
 30
0.0
 10
6.3405210597
 20
4.0819944876
 30
0.0
 10
6.3472070731
 20
4.0773109013
 30
0.0
 10
6.3533109701
 20
4.0714757349
 30
0.0
 10
6.3583589132
 20
4.0644722931
 30
0.0
 10
6.3616854829
 20
4.0567993787
 30
0.0
 10
6.3625768565
 20
4.0512967471
 30
0.0
 10
6.362600144
 20
4.0485379581
 30
0.0
 10
6.3626000814
 20
4.0483787787
 30
0.0
 11
6.3081002931
 21
4.0906921379
 31
0.0
 11
6.3166743417
 21
4.090117809
 31
0.0
 11
6.3252946593
 21
4.0883444431
 31
0.0
 11
6.3333776146
 21
4.0854772165
 31
0.0
 11
6.3404999764
 21
4.0817986091
 31
0.0
 11
6.3468536207
 21
4.0773309634
 31
0.0
 11
6.3530706877
 21
4.0713439382
 31
0.0
 11
6.3581803
 21
4.0641611474
 31
0.0
 11
6.3614120149
 21
4.0565399686
 31
0.0
 11
6.3625960533
 21
4.048856252
 31
0.0
 11
6.3626000814
 21
4.0483787787
 31
0.0
  0
SPLINE
  5
3FA
100
AcDbEntity
  8
0
100
AcDbSpline
 62
7
  6
CONTINUOUS
 70
0
 71
3
 72
13
 73
9
 74
7
 42
0.0000001
 43
0.0000001
 44
0.0000000001
 12
0.0459044343
 22
0.0
 32
0.0
 13
-0.0000074609
 23
-0.046070983
 33
0.0
 40
0.0
 40
0.0
 40
0.0
 40
0.0
 40
0.1750151593
 40
0.3495459655
 40
0.5204622028
 40
0.6861000275
 40
0.8457058113
 40
1.0
 40
1.0
 40
1.0
 40
1.0
 10
6.0031002931
 20
4.1341743578
 30
0.0
 10
6.0057782838
 20
4.1341743578
 30
0.0
 10
6.0111490263
 20
4.1335304856
 30
0.0
 10
6.0186714551
 20
4.1306939506
 30
0.0
 10
6.0251670502
 20
4.1261931774
 30
0.0
 10
6.030175853
 20
4.120373635
 30
0.0
 10
6.0333544501
 20
4.1136548013
 30
0.0
 10
6.0341006779
 20
4.1088378562
 30
0.0
 10
6.0341002942
 20
4.1064683613
 30
0.0
 11
6.0031002931
 21
4.1341743578
 31
0.0
 11
6.0110765904
 21
4.133213428
 31
0.0
 11
6.01856992
 21
4.1303782991
 31
0.0
 11
6.0250072199
 21
4.1258929948
 31
0.0
 11
6.029944316
 21
4.1201103953
 31
0.0
 11
6.0330446606
 21
4.113472088
 31
0.0
 11
6.0341002942
 21
4.1064683613
 31
0.0
  0
SPLINE
  5
3FB
100
AcDbEntity
  8
0
100
AcDbSpline
 62
7
  6
CONTINUOUS
 70
0
 71
3
 72
17
 73
13
 74
11
 42
0.0000001
 43
0.0000001
 44
0.0000000001
 12
-0.0757272126
 22
0.0
 32
0.0
 13
0.0000299482
 23
0.075977252
 33
0.0
 40
0.0
 40
0.0
 40
0.0
 40
0.0
 40
0.1128273099
 40
0.2282803953
 40
0.3408097489
 40
0.4460988183
 40
0.5482958963
 40
0.661901209
 40
0.7784114467
 40
0.8880453297
 40
0.991103023
 40
1.0
 40
1.0
 40
1.0
 40
1.0
 10
6.3081002931
 20
4.4027447273
 30
0.0
 10
6.3052522606
 20
4.4027447273
 30
0.0
 10
6.299482672
 20
4.4031282235
 30
0.0
 10
6.2910281768
 20
4.4048539287
 30
0.0
 10
6.2830665594
 20
4.4076525433
 30
0.0
 10
6.2758528426
 20
4.4113403911
 30
0.0
 10
6.2691761757
 20
4.4159789571
 30
0.0
 10
6.2630563544
 20
4.4217732382
 30
0.0
 10
6.2579669224
 20
4.4287477377
 30
0.0
 10
6.2545805769
 20
4.4364168136
 30
0.0
 10
6.2536347755
 20
4.4419963627
 30
0.0
 10
6.2536005286
 20
4.4448314129
 30
0.0
 10
6.2536006175
 20
4.4450567356
 30
0.0
 11
6.3081002931
 21
4.4027447273
 31
0.0
 11
6.2995750811
 21
4.4033124985
 31
0.0
 11
6.2910093083
 21
4.4050636533
 31
0.0
 11
6.2829719316
 21
4.4078951054
 31
0.0
 11
6.2758765436
 21
4.4115321577
 31
0.0
 11
6.2695284739
 21
4.4159588582
 31
0.0
 11
6.2633025555
 21
4.4218960111
 31
0.0
 11
6.2581456446
 21
4.4290550278
 31
0.0
 11
6.2548530333
 21
4.4366764693
 31
0.0
 11
6.2536087734
 21
4.4443809145
 31
0.0
 11
6.2536006175
 21
4.4450567356
 31
0.0
  0
SPLINE
  5
3FC
100
AcDbEntity
  8
0
100
AcDbSpline
 62
7
  6
CONTINUOUS
 70
0
 71
3
 72
11
 73
7
 74
5
 42
0.0000001
 43
0.0000001
 44
0.0000000001
 12
-0.0392352439
 22
0.0
 32
0.0
 13
-0.034387224
 23
-0.0190033947
 33
0.0
 40
0.0
 40
0.0
 40
0.0
 40
0.0
 40
0.2734455198
 40
0.5393590625
 40
0.7900275691
 40
1.0
 40
1.0
 40
1.0
 40
1.0
 10
6.3081002931
 20
4.4238955733
 30
0.0
 10
6.3045240593
 20
4.4238955733
 30
0.0
 10
6.2974645769
 20
4.423544476
 30
0.0
 10
6.2872350924
 20
4.4219517124
 30
0.0
 10
6.2780637961
 20
4.4193606943
 30
0.0
 10
6.2725343458
 20
4.4169081124
 30
0.0
 10
6.2701275561
 20
4.4155780494
 30
0.0
 11
6.3081002931
 21
4.4238955733
 31
0.0
 11
6.2973854558
 21
4.4233503218
 31
0.0
 11
6.287082218
 21
4.4217088005
 31
0.0
 11
6.2776345502
 21
4.4189757464
 31
0.0
 11
6.2701275561
 21
4.4155780494
 31
0.0
  0
SPLINE
  5
3FD
100
AcDbEntity
  8
0
100
AcDbSpline
 62
7
  6
CONTINUOUS
 70
0
 71
3
 72
11
 73
7
 74
5
 42
0.0000001
 43
0.0000001
 44
0.0000000001
 12
0.0392200789
 22
0.0
 32
0.0
 13
0.034379849
 23
0.0189849164
 33
0.0
 40
0.0
 40
0.0
 40
0.0
 40
0.0
 40
0.2736165691
 40
0.5396973624
 40
0.7905170383
 40
1.0
 40
1.0
 40
1.0
 40
1.0
 10
6.3081002931
 20
4.0695412919
 30
0.0
 10
6.311677381
 20
4.0695412919
 30
0.0
 10
6.3187385637
 20
4.0698925559
 30
0.0
 10
6.328970379
 20
4.0714860963
 30
0.0
 10
6.3381357838
 20
4.0740762495
 30
0.0
 10
6.343659087
 20
4.076525806
 30
0.0
 10
6.3460597512
 20
4.0778514781
 30
0.0
 11
6.3081002931
 21
4.0695412919
 31
0.0
 11
6.3188176822
 21
4.0700868068
 31
0.0
 11
6.3291233462
 21
4.0717291609
 31
0.0
 11
6.3385728229
 21
4.0744636177
 31
0.0
 11
6.3460597512
 21
4.0778514781
 31
0.0
  0
SPLINE
  5
3FE
100
AcDbEntity
  8
0
100
AcDbSpline
 62
7
  6
CONTINUOUS
 70
0
 71
3
 72
10
 73
6
 74
4
 42
0.0000001
 43
0.0000001
 44
0.0000000001
 12
0.0228512954
 22
0.0
 32
0.0
 13
0.0181095152
 23
0.0140359854
 33
0.0
 40
0.0
 40
0.0
 40
0.0
 40
0.0
 40
0.3550134993
 40
0.7136163256
 40
1.0
 40
1.0
 40
1.0
 40
1.0
 10
6.0031002931
 20
4.1193091645
 30
0.0
 10
6.0058044659
 20
4.1193091645
 30
0.0
 10
6.0112573438
 20
4.1198694942
 30
0.0
 10
6.0185521927
 20
4.122278982
 30
0.0
 10
6.022794689
 20
4.1248425158
 30
0.0
 10
6.0245234455
 20
4.1261824082
 30
0.0
 11
6.0031002931
 21
4.1193091645
 31
0.0
 11
6.0111687484
 21
4.1201535482
 31
0.0
 11
6.0189360272
 21
4.1227650326
 31
0.0
 11
6.0245234455
 21
4.1261824082
 31
0.0
  0
SPLINE
  5
3FF
100
AcDbEntity
  8
0
100
AcDbSpline
 62
7
  6
CONTINUOUS
 70
0
 71
3
 72
10
 73
6
 74
4
 42
0.0000001
 43
0.0000001
 44
0.0000000001
 12
0.0181105463
 22
-0.0140399311
 32
0.0
 13
0.0228544212
 23
0.0
 33
0.0
 40
0.0
 40
0.0
 40
0.0
 40
0.0
 40
0.2891670656
 40
0.6468096572
 40
1.0
 40
1.0
 40
1.0
 40
1.0
 10
5.9816748843
 20
4.1261841593
 30
0.0
 10
5.9834205421
 20
4.1248308641
 30
0.0
 10
5.987678679
 20
4.12226394
 30
0.0
 10
5.9949774874
 20
4.1198646062
 30
0.0
 10
6.0004096395
 20
4.1193091645
 30
0.0
 10
6.0031002931
 20
4.1193091645
 30
0.0
 11
5.9816748843
 21
4.1261841593
 31
0.0
 11
5.9873203844
 21
4.1227385605
 31
0.0
 11
5.9950717295
 21
4.1201450577
 31
0.0
 11
6.0031002931
 21
4.1193091645
 31
0.0
  0
SPLINE
  5
400
100
AcDbEntity
  8
0
100
AcDbSpline
 62
7
  6
CONTINUOUS
 70
0
 71
3
 72
11
 73
7
 74
5
 42
0.0000001
 43
0.0000001
 44
0.0000000001
 12
0.0175989151
 22
0.0246487644
 32
0.0
 13
0.0302020042
 23
0.0
 33
0.0
 40
0.0
 40
0.0
 40
0.0
 40
0.0
 40
0.2092357727
 40
0.4689097702
 40
0.7341079576
 40
1.0
 40
1.0
 40
1.0
 40
1.0
 10
5.9769851738
 20
4.1211828812
 30
0.0
 10
5.9782126146
 20
4.1229020156
 30
0.0
 10
5.9813951747
 20
4.1264446554
 30
0.0
 10
5.987534663
 20
4.1306965871
 30
0.0
 10
5.9950546631
 20
4.1335310012
 30
0.0
 10
6.000423469
 20
4.1341743578
 30
0.0
 10
6.0031002931
 20
4.1341743578
 30
0.0
 11
5.9769851738
 21
4.1211828812
 31
0.0
 11
5.9811999901
 21
4.1258989818
 31
0.0
 11
5.9876357664
 21
4.1303809833
 31
0.0
 11
5.9951274195
 21
4.1332142662
 31
0.0
 11
6.0031002931
 21
4.1341743578
 31
0.0
  0
SPLINE
  5
401
100
AcDbEntity
  8
0
100
AcDbSpline
 62
7
  6
CONTINUOUS
 70
0
 71
3
 72
17
 73
13
 74
11
 42
0.0000001
 43
0.0000001
 44
0.0000000001
 12
-0.05675433
 22
-0.0062723244
 32
0.0
 13
-0.0568558515
 23
0.0052797331
 33
0.0
 40
0.0
 40
0.0
 40
0.0
 40
0.0
 40
0.0183890957
 40
0.0728189
 40
0.1594991281
 40
0.2723388679
 40
0.4035204932
 40
0.5441294297
 40
0.6847155654
 40
0.8158353892
 40
0.9286055735
 40
1.0
 40
1.0
 40
1.0
 40
1.0
 10
6.0341002931
 20
4.5272184326
 30
0.0
 10
6.0337524062
 20
4.5271799851
 30
0.0
 10
6.0323745321
 20
4.5270302384
 30
0.0
 10
6.0293541635
 20
4.526723992
 30
0.0
 10
6.0245386938
 20
4.5263040379
 30
0.0
 10
6.0182578938
 20
4.525883061
 30
0.0
 10
6.0109427364
 20
4.5255744888
 30
0.0
 10
6.0030935655
 20
4.5254616044
 30
0.0
 10
5.9952455769
 20
4.5255748567
 30
0.0
 10
5.9879333646
 20
4.5258835988
 30
0.0
 10
5.981945384
 20
4.5262851088
 30
0.0
 10
5.9784527827
 20
4.526584356
 30
0.0
 10
5.977099719
 20
4.5267100038
 30
0.0
 11
6.0341002931
 21
4.5272184326
 31
0.0
 11
6.0330564238
 21
4.5271049868
 31
0.0
 11
6.0299643366
 21
4.5267915067
 31
0.0
 11
6.0250336062
 21
4.5263616342
 31
0.0
 11
6.0186048758
 21
4.5259309719
 31
0.0
 11
6.0111210619
 21
4.5256155153
 31
0.0
 11
6.0030931325
 21
4.5255001573
 31
0.0
 11
5.9950665106
 21
4.5256158898
 31
0.0
 11
5.9875862352
 21
4.5259314982
 31
0.0
 11
5.9811614789
 21
4.5263620658
 31
0.0
 11
5.977099719
 21
4.5267100038
 31
0.0
  0
SPLINE
  5
402
100
AcDbEntity
  8
0
100
AcDbSpline
 62
7
  6
CONTINUOUS
 70
0
 71
3
 72
11
 73
7
 74
5
 42
0.0000001
 43
0.0000001
 44
0.0000000001
 12
0.0343192501
 22
-0.0188333643
 32
0.0
 13
0.0390954445
 23
0.0
 33
0.0
 40
0.0
 40
0.0
 40
0.0
 40
0.0
 40
0.2067639559
 40
0.4584166446
 40
0.7254047084
 40
1.0
 40
1.0
 40
1.0
 40
1.0
 10
6.2702501607
 20
4.0777912941
 30
0.0
 10
6.2726154887
 20
4.0764932738
 30
0.0
 10
6.2781004223
 20
4.074066618
 30
0.0
 10
6.2872241679
 20
4.0714873057
 30
0.0
 10
6.2974584721
 20
4.0698927967
 30
0.0
 10
6.3045218182
 20
4.0695412919
 30
0.0
 10
6.3081002931
 20
4.0695412919
 30
0.0
 11
6.2702501607
 21
4.0777912941
 31
0.0
 11
6.2776204519
 21
4.0744663109
 31
0.0
 11
6.2870709125
 21
4.0717305549
 31
0.0
 11
6.2973787589
 21
4.0700872347
 31
0.0
 11
6.3081002931
 21
4.0695412919
 31
0.0
  0
SPLINE
  5
403
100
AcDbEntity
  8
0
100
AcDbSpline
 62
7
  6
CONTINUOUS
 70
0
 71
3
 72
16
 73
12
 74
10
 42
0.0000001
 43
0.0000001
 44
0.0000000001
 12
0.0000139659
 22
0.0759992494
 32
0.0
 13
0.0757127255
 23
0.0
 33
0.0
 40
0.0
 40
0.0
 40
0.0
 40
0.0
 40
0.0476675084
 40
0.1589855637
 40
0.2789963605
 40
0.403834128
 40
0.5182455422
 40
0.6304000143
 40
0.7512112517
 40
0.8769139322
 40
1.0
 40
1.0
 40
1.0
 40
1.0
 10
6.2536017473
 20
4.0483793666
 30
0.0
 10
6.2536019692
 20
4.0495869315
 30
0.0
 10
6.2538678573
 20
4.0536153293
 30
0.0
 10
6.2558009367
 20
4.0604716992
 30
0.0
 10
6.2603145086
 20
4.0683358614
 30
0.0
 10
6.2664140233
 20
4.0751237428
 30
0.0
 10
6.2734289094
 20
4.0806088527
 30
0.0
 10
6.2810917601
 20
4.0849291681
 30
0.0
 10
6.2895691355
 20
4.0881969712
 30
0.0
 10
6.2987056814
 20
4.0902361716
 30
0.0
 10
6.3049938993
 20
4.0906921379
 30
0.0
 10
6.3081002931
 20
4.0906921379
 30
0.0
 11
6.2536017473
 21
4.0483793666
 31
0.0
 11
6.2538365297
 21
4.0519916383
 31
0.0
 11
6.2560483965
 21
4.060124417
 31
0.0
 11
6.2605065896
 21
4.0680418768
 31
0.0
 11
6.2667854479
 21
4.0751067622
 31
0.0
 11
6.2735951013
 21
4.0804608069
 31
0.0
 11
6.2809859209
 21
4.0846419204
 31
0.0
 11
6.289517727
 21
4.0879396384
 31
0.0
 11
6.2988056288
 21
4.0900165924
 31
0.0
 11
6.3081002931
 21
4.0906921379
 31
0.0
  0
SPLINE
  5
404
100
AcDbEntity
  8
0
100
AcDbSpline
 62
7
  6
CONTINUOUS
 70
0
 71
3
 72
11
 73
7
 74
5
 42
0.0000001
 43
0.0000001
 44
0.0000000001
 12
-0.0343202775
 22
0.0188357756
 32
0.0
 13
-0.0390974466
 23
-0.0
 33
0.0
 40
0.0
 40
0.0
 40
0.0
 40
0.0
 40
0.2069865195
 40
0.4585719748
 40
0.7254829715
 40
1.0
 40
1.0
 40
1.0
 40
1.0
 10
6.3459521696
 20
4.4156446117
 30
0.0
 10
6.3435842247
 20
4.4169441956
 30
0.0
 10
6.3380969984
 20
4.4193714947
 30
0.0
 10
6.3289716169
 20
4.4219504866
 30
0.0
 10
6.3187396106
 20
4.423544232
 30
0.0
 10
6.3116779314
 20
4.4238955733
 30
0.0
 10
6.3081002931
 20
4.4238955733
 30
0.0
 11
6.3459521696
 21
4.4156446117
 31
0.0
 11
6.3385734445
 21
4.4189730186
 31
0.0
 11
6.3291247939
 21
4.4217073854
 31
0.0
 11
6.3188193271
 21
4.4233498886
 31
0.0
 11
6.3081002931
 21
4.4238955733
 31
0.0
  0
SPLINE
  5
405
100
AcDbEntity
  8
0
100
AcDbSpline
 62
7
  6
CONTINUOUS
 70
0
 71
3
 72
16
 73
12
 74
10
 42
0.0000001
 43
0.0000001
 44
0.0000000001
 12
-0.0000204394
 22
-0.075997623
 32
0.0
 13
-0.075712571
 23
0.0
 33
0.0
 40
0.0
 40
0.0
 40
0.0
 40
0.0
 40
0.0503359856
 40
0.1620458259
 40
0.2823563257
 40
0.4070599677
 40
0.5210516964
 40
0.6326727146
 40
0.7527374537
 40
0.8776167489
 40
1.0
 40
1.0
 40
1.0
 40
1.0
 10
6.3625988728
 20
4.4450571335
 30
0.0
 10
6.3625985298
 20
4.4437819951
 30
0.0
 10
6.3623119806
 20
4.439675979
 30
0.0
 10
6.3603083754
 20
4.4327509134
 30
0.0
 10
6.3557398995
 20
4.4249027119
 30
0.0
 10
6.3496102285
 20
4.4181516877
 30
0.0
 10
6.3425947216
 20
4.4127129837
 30
0.0
 10
6.3349557757
 20
4.4084387683
 30
0.0
 10
6.3265210527
 20
4.4052098178
 30
0.0
 10
6.3174384715
 20
4.4031952947
 30
0.0
 10
6.3111889433
 20
4.4027447273
 30
0.0
 10
6.3081002931
 20
4.4027447273
 30
0.0
 11
6.3625988728
 21
4.4450571335
 31
0.0
 11
6.3623372067
 21
4.4412438133
 31
0.0
 11
6.360062257
 21
4.4330976702
 31
0.0
 11
6.3555440659
 21
4.425188173
 31
0.0
 11
6.3492349981
 21
4.418163922
 31
0.0
 11
6.3424278931
 21
4.412858199
 31
0.0
 11
6.335058638
 21
4.4087211213
 31
0.0
 11
6.3265719342
 21
4.4054636048
 31
0.0
 11
6.317342145
 21
4.4034125711
 31
0.0
 11
6.3081002931
 21
4.4027447273
 31
0.0
  0
SPLINE
  5
406
100
AcDbEntity
  8
0
100
AcDbSpline
 62
7
  6
CONTINUOUS
 70
0
 71
3
 72
22
 73
18
 74
16
 42
0.0000001
 43
0.0000001
 44
0.0000000001
 12
-0.1076738041
 22
-0.0209205978
 32
0.0
 13
-0.1076738041
 23
0.0209205978
 33
0.0
 40
0.0
 40
0.0
 40
0.0
 40
0.0
 40
0.0110483624
 40
0.0436802716
 40
0.0963399339
 40
0.1662801092
 40
0.2508908116
 40
0.3458883784
 40
0.4480912632
 40
0.5520689454
 40
0.6542879736
 40
0.7493163605
 40
0.8338983884
 40
0.9038037311
 40
0.9563885737
 40
0.9889766636
 40
1.0
 40
1.0
 40
1.0
 40
1.0
 10
6.3626002931
 20
4.5272184326
 30
0.0
 10
6.3622037534
 20
4.5271413865
 30
0.0
 10
6.3606354117
 20
4.5268398632
 30
0.0
 10
6.3571711643
 20
4.5262018566
 30
0.0
 10
6.3515738076
 20
4.5252602142
 30
0.0
 10
6.34407523
 20
4.524172922
 30
0.0
 10
6.3350095161
 20
4.5231281623
 30
0.0
 10
6.3247363428
 20
4.5223051046
 30
0.0
 10
6.3137307598
 20
4.5218530796
 30
0.0
 10
6.3024516615
 20
4.5218534402
 30
0.0
 10
6.2914443919
 20
4.5223062715
 30
0.0
 10
6.281170612
 20
4.5231301546
 30
0.0
 10
6.2721061643
 20
4.5241754468
 30
0.0
 10
6.2646126589
 20
4.5252624644
 30
0.0
 10
6.2590208736
 20
4.5262033925
 30
0.0
 10
6.2555618031
 20
4.526840506
 30
0.0
 10
6.2539959347
 20
4.527141561
 30
0.0
 10
6.2536002931
 20
4.5272184326
 30
0.0
 11
6.3626002931
 21
4.5272184326
 31
0.0
 11
6.3614102201
 21
4.5269896375
 31
0.0
 11
6.3578900919
 21
4.526341436
 31
0.0
 11
6.3521939659
 21
4.5253835578
 31
0.0
 11
6.3446016905
 21
4.5242834736
 31
0.0
 11
6.3353818475
 21
4.5232221093
 31
0.0
 11
6.3249949943
 21
4.5223911206
 31
0.0
 11
6.3137940321
 21
4.5219318383
 31
0.0
 11
6.3023889847
 21
4.5219322023
 31
0.0
 11
6.2911862839
 21
4.5223923046
 31
0.0
 11
6.2807961232
 21
4.5232243416
 31
0.0
 11
6.2715794832
 21
4.5242860272
 31
0.0
 11
6.2639910554
 21
4.5253860211
 31
0.0
 11
6.2583030598
 21
4.5263427599
 31
0.0
 11
6.2547876695
 21
4.5269901505
 31
0.0
 11
6.2536002931
 21
4.5272184326
 31
0.0
  0
SPLINE
  5
407
100
AcDbEntity
  8
0
100
AcDbSpline
 62
7
  6
CONTINUOUS
 70
0
 71
3
 72
22
 73
18
 74
16
 42
0.0000001
 43
0.0000001
 44
0.0000000001
 12
0.1076738041
 22
0.0209205978
 32
0.0
 13
0.1076738041
 23
-0.0209205978
 33
0.0
 40
0.0
 40
0.0
 40
0.0
 40
0.0
 40
0.0110483624
 40
0.0436802716
 40
0.0963399339
 40
0.1662801092
 40
0.2508908116
 40
0.3458883784
 40
0.4480912632
 40
0.5520689454
 40
0.6542879736
 40
0.7493163605
 40
0.8338983884
 40
0.9038037311
 40
0.9563885737
 40
0.9889766636
 40
1.0
 40
1.0
 40
1.0
 40
1.0
 10
6.2536002931
 20
3.9662184326
 30
0.0
 10
6.2539968329
 20
3.9662954787
 30
0.0
 10
6.2555651746
 20
3.966597002
 30
0.0
 10
6.259029422
 20
3.9672350086
 30
0.0
 10
6.2646267787
 20
3.968176651
 30
0.0
 10
6.2721253563
 20
3.9692639431
 30
0.0
 10
6.2811910702
 20
3.9703087029
 30
0.0
 10
6.2914642435
 20
3.9711317605
 30
0.0
 10
6.3024698265
 20
3.9715837856
 30
0.0
 10
6.3137489248
 20
3.971583425
 30
0.0
 10
6.3247561944
 20
3.9711305937
 30
0.0
 10
6.3350299743
 20
3.9703067106
 30
0.0
 10
6.344094422
 20
3.9692614183
 30
0.0
 10
6.3515879274
 20
3.9681744008
 30
0.0
 10
6.3571797127
 20
3.9672334727
 30
0.0
 10
6.3606387832
 20
3.9665963592
 30
0.0
 10
6.3622046516
 20
3.9662953042
 30
0.0
 10
6.3626002931
 20
3.9662184326
 30
0.0
 11
6.2536002931
 21
3.9662184326
 31
0.0
 11
6.2547903662
 21
3.9664472277
 31
0.0
 11
6.2583104944
 21
3.9670954291
 31
0.0
 11
6.2640066204
 21
3.9680533074
 31
0.0
 11
6.2715988958
 21
3.9691533916
 31
0.0
 11
6.2808187388
 21
3.9702147559
 31
0.0
 11
6.291205592
 21
3.9710457446
 31
0.0
 11
6.3024065542
 21
3.9715050269
 31
0.0
 11
6.3138116016
 21
3.9715046629
 31
0.0
 11
6.3250143024
 21
3.9710445606
 31
0.0
 11
6.3354044631
 21
3.9702125236
 31
0.0
 11
6.3446211031
 21
3.969150838
 31
0.0
 11
6.3522095309
 21
3.9680508441
 31
0.0
 11
6.3578975265
 21
3.9670941052
 31
0.0
 11
6.3614129168
 21
3.9664467147
 31
0.0
 11
6.3626002931
 21
3.9662184326
 31
0.0
  0
SPLINE
  5
408
100
AcDbEntity
  8
0
100
AcDbSpline
 62
7
  6
CONTINUOUS
 70
0
 71
3
 72
13
 73
9
 74
7
 42
0.0000001
 43
0.0000001
 44
0.0000000001
 12
-0.0000072862
 22
-0.0449918515
 32
0.0
 13
-0.0448292039
 23
-0.0
 33
0.0
 40
0.0
 40
0.0
 40
0.0
 40
0.0
 40
0.1557305928
 40
0.3127934441
 40
0.4752520575
 40
0.6452745283
 40
0.8213774322
 40
1.0
 40
1.0
 40
1.0
 40
1.0
 10
6.0341002942
 20
4.1064683613
 30
0.0
 10
6.0340999159
 20
4.1041328254
 30
0.0
 10
6.0333825364
 20
4.0994382768
 30
0.0
 10
6.0301805589
 20
4.0929778258
 30
0.0
 10
6.025118506
 20
4.0875662967
 30
0.0
 10
6.0185917529
 20
4.0835197708
 30
0.0
 10
6.0110876835
 20
4.0810357243
 30
0.0
 10
6.0057694623
 20
4.0804807828
 30
0.0
 10
6.0031002931
 20
4.0804807828
 30
0.0
 11
6.0341002942
 21
4.1064683613
 31
0.0
 11
6.0330410347
 21
4.0995679608
 31
0.0
 11
6.0299387485
 21
4.0932472379
 31
0.0
 11
6.0249988337
 21
4.0878958145
 31
0.0
 11
6.0185472514
 21
4.0838372995
 31
0.0
 11
6.0110632021
 21
4.0813247367
 31
0.0
 11
6.0031002931
 21
4.0804807828
 31
0.0
  0
SPLINE
  5
409
100
AcDbEntity
  8
0
100
AcDbSpline
 62
7
  6
CONTINUOUS
 70
0
 71
3
 72
15
 73
11
 74
9
 42
0.0000001
 43
0.0000001
 44
0.0000000001
 12
0.0714065844
 22
0.0
 32
0.0
 13
-0.000019277
 23
-0.0716754247
 33
0.0
 40
0.0
 40
0.0
 40
0.0
 40
0.0
 40
0.1583204444
 40
0.3122202719
 40
0.4577088347
 40
0.591873334
 40
0.715518254
 40
0.8302009617
 40
0.9415002283
 40
1.0
 40
1.0
 40
1.0
 40
1.0
 10
6.3081002931
 20
4.4798193664
 30
0.0
 10
6.3118686672
 20
4.4798193664
 30
0.0
 10
6.3193081325
 20
4.4793857174
 30
0.0
 10
6.3300544942
 20
4.4774280455
 30
0.0
 10
6.3398918006
 20
4.4741816222
 30
0.0
 10
6.3484277952
 20
4.4696715961
 30
0.0
 10
6.3552994912
 20
4.4639420059
 30
0.0
 10
6.3601716092
 20
4.4570585045
 30
0.0
 10
6.362291142
 20
4.4505105395
 30
0.0
 10
6.3625992487
 20
4.4464547988
 30
0.0
 10
6.3625988728
 20
4.4450571335
 30
0.0
 11
6.3081002931
 21
4.4798193664
 31
0.0
 11
6.3193854456
 21
4.4791477106
 31
0.0
 11
6.3301895899
 21
4.4771380542
 31
0.0
 11
6.340033354
 21
4.4738171606
 31
0.0
 11
6.3484607071
 21
4.4692607913
 31
0.0
 11
6.3551753475
 21
4.46352791
 31
0.0
 11
6.3598413501
 21
4.4567981413
 31
0.0
 11
6.3622733583
 21
4.4492318939
 31
0.0
 11
6.3625988728
 21
4.4450571335
 31
0.0
  0
SPLINE
  5
40A
100
AcDbEntity
  8
0
100
AcDbSpline
 62
7
  6
CONTINUOUS
 70
0
 71
3
 72
15
 73
11
 74
9
 42
0.0000001
 43
0.0000001
 44
0.0000000001
 12
-0.0000281619
 22
-0.0716480845
 32
0.0
 13
-0.071417854
 23
0.0
 33
0.0
 40
0.0
 40
0.0
 40
0.0
 40
0.0
 40
0.098605897
 40
0.2047378912
 40
0.315660454
 40
0.4350553427
 40
0.564402092
 40
0.7033995378
 40
0.8498846531
 40
1.0
 40
1.0
 40
1.0
 40
1.0
 10
6.3626000814
 20
4.0483787787
 30
0.0
 10
6.3625991558
 20
4.0460238041
 30
0.0
 10
6.3619582077
 20
4.0411284878
 30
0.0
 10
6.3588686787
 20
4.0341618171
 30
0.0
 10
6.3536888512
 20
4.0279381521
 30
0.0
 10
6.3467861041
 20
4.0227665805
 30
0.0
 10
6.3384501371
 20
4.0187008931
 30
0.0
 10
6.3289847422
 20
4.0157729937
 30
0.0
 10
6.3187415147
 20
4.0140085386
 30
0.0
 10
6.3116739318
 20
4.0136174987
 30
0.0
 10
6.3081002931
 20
4.0136174987
 30
0.0
 11
6.3626000814
 21
4.0483787787
 31
0.0
 11
6.3616656273
 21
4.0413958218
 31
0.0
 11
6.3586245378
 21
4.0344529176
 31
0.0
 11
6.3536164667
 21
4.0283149249
 31
0.0
 11
6.346844907
 21
4.0231327962
 31
0.0
 11
6.3385754016
 21
4.0190157854
 31
0.0
 11
6.3291083709
 21
4.0160293729
 31
0.0
 11
6.3188042145
 21
4.0142209107
 31
0.0
 11
6.3081002931
 21
4.0136174987
 31
0.0
  0
SPLINE
  5
40B
100
AcDbEntity
  8
0
100
AcDbSpline
 62
7
  6
CONTINUOUS
 70
0
 71
3
 72
15
 73
11
 74
9
 42
0.0000001
 43
0.0000001
 44
0.0000000001
 12
0.0000282442
 22
0.0716542344
 32
0.0
 13
0.0714184219
 23
0.0
 33
0.0
 40
0.0
 40
0.0
 40
0.0
 40
0.0
 40
0.0961703534
 40
0.2026250671
 40
0.3137779361
 40
0.433434125
 40
0.5630741986
 40
0.7024650788
 40
0.8493996714
 40
1.0
 40
1.0
 40
1.0
 40
1.0
 10
6.2536006175
 20
4.4450567356
 30
0.0
 10
6.2536015229
 20
4.4473537399
 30
0.0
 10
6.2542187972
 20
4.4521983618
 30
0.0
 10
6.2572469
 20
4.4591436932
 30
0.0
 10
6.2624112795
 20
4.4654071507
 30
0.0
 10
6.2693139583
 20
4.4706116478
 30
0.0
 10
6.2776630222
 20
4.4747034402
 30
0.0
 10
6.2871514301
 20
4.4776500692
 30
0.0
 10
6.2974251278
 20
4.4794258391
 30
0.0
 10
6.3045150805
 20
4.4798193664
 30
0.0
 10
6.3081002931
 20
4.4798193664
 30
0.0
 11
6.2536006175
 21
4.4450567356
 31
0.0
 11
6.2544889074
 21
4.4518714624
 31
0.0
 11
6.2574964334
 21
4.4588541392
 31
0.0
 11
6.2624864961
 21
4.4650280256
 31
0.0
 11
6.2692565786
 21
4.4702428336
 31
0.0
 11
6.2775366841
 21
4.4743856808
 31
0.0
 11
6.2870270613
 21
4.4773917237
 31
0.0
 11
6.2973618177
 21
4.4792120035
 31
0.0
 11
6.3081002931
 21
4.4798193664
 31
0.0
  0
SPLINE
  5
40C
100
AcDbEntity
  8
0
100
AcDbSpline
 62
7
  6
CONTINUOUS
 70
0
 71
3
 72
15
 73
11
 74
9
 42
0.0000001
 43
0.0000001
 44
0.0000000001
 12
-0.0714069838
 22
0.0
 32
0.0
 13
0.0000131716
 23
0.0716772132
 33
0.0
 40
0.0
 40
0.0
 40
0.0
 40
0.0
 40
0.1578317394
 40
0.3112850682
 40
0.4563881409
 40
0.5902671798
 40
0.7136634978
 40
0.8280911631
 40
0.9390574287
 40
1.0
 40
1.0
 40
1.0
 40
1.0
 10
6.3081002931
 20
4.0136174987
 30
0.0
 10
6.3043435303
 20
4.0136174987
 30
0.0
 10
6.2969263595
 20
4.0140485401
 30
0.0
 10
6.2862100216
 20
4.0159943502
 30
0.0
 10
6.2763946773
 20
4.019221136
 30
0.0
 10
6.2678697307
 20
4.0237037791
 30
0.0
 10
6.2609950331
 20
4.0293986022
 30
0.0
 10
6.2561021227
 20
4.036240964
 30
0.0
 10
6.2539267648
 20
4.0428169744
 30
0.0
 10
6.2536014797
 20
4.046923302
 30
0.0
 10
6.2536017473
 20
4.0483793666
 30
0.0
 11
6.3081002931
 21
4.0136174987
 31
0.0
 11
6.2968497878
 21
4.01428498
 31
0.0
 11
6.2860757029
 21
4.016282217
 31
0.0
 11
6.2762539848
 21
4.0195825047
 31
0.0
 11
6.2678351314
 21
4.0241118053
 31
0.0
 11
6.2611151496
 21
4.0298110939
 31
0.0
 11
6.2564271595
 21
4.0365033968
 31
0.0
 11
6.2539553639
 21
4.0440317631
 31
0.0
 11
6.2536017473
 21
4.0483793666
 31
0.0
  0
SPLINE
  5
40D
100
AcDbEntity
  8
0
100
AcDbSpline
 62
7
  6
CONTINUOUS
 70
0
 71
3
 72
11
 73
7
 74
5
 42
0.0000001
 43
0.0000001
 44
0.0000000001
 12
-0.0295810411
 22
0.0
 32
0.0
 13
-0.0180296038
 23
0.0235659144
 33
0.0
 40
0.0
 40
0.0
 40
0.0
 40
0.0
 40
0.270477114
 40
0.5368095621
 40
0.7953904019
 40
1.0
 40
1.0
 40
1.0
 40
1.0
 10
6.0031002931
 20
4.0804807828
 30
0.0
 10
6.0004332949
 20
4.0804807828
 30
0.0
 10
5.9951226474
 20
4.0810345017
 30
0.0
 10
5.9876165502
 20
4.0835158366
 30
0.0
 10
5.9814370718
 20
4.0873441998
 30
0.0
 10
5.9782142798
 20
4.0906452756
 30
0.0
 10
5.9769846032
 20
4.0922525463
 30
0.0
 11
6.0031002931
 21
4.0804807828
 31
0.0
 11
5.9951437872
 21
4.0813233549
 31
0.0
 11
5.9876739936
 21
4.0838275974
 31
0.0
 11
5.9811982799
 21
4.0878986804
 31
0.0
 11
5.9769846032
 21
4.0922525463
 31
0.0
  0
SPLINE
  5
40E
100
AcDbEntity
  8
THREAD
100
AcDbSpline
 62
7
  6
CONTINUOUS
 70
0
 71
3
 72
15
 73
11
 74
9
 42
0.0000001
 43
0.0000001
 44
0.0000000001
 12
-0.1047017673
 22
0.2030163597
 32
0.0
 13
0.1047017673
 23
0.2030163597
 33
0.0
 40
0.0
 40
0.0
 40
0.0
 40
0.0
 40
0.1346257358
 40
0.2606745914
 40
0.3815608613
 40
0.5000347823
 40
0.6185057449
 40
0.7393842591
 40
0.8653963
 40
1.0
 40
1.0
 40
1.0
 40
1.0
 10
4.573163959
 20
3.7586159601
 30
0.0
 10
4.5684654415
 20
3.767726369
 30
0.0
 10
4.5600765038
 20
3.7857514227
 30
0.0
 10
4.5505763769
 20
3.8132697542
 30
0.0
 10
4.5447565336
 20
3.8405587481
 30
0.0
 10
4.542787335
 20
3.8678261966
 30
0.0
 10
4.5447587314
 20
3.8950928807
 30
0.0
 10
4.550579659
 20
3.9223779096
 30
0.0
 10
4.5600790532
 20
3.9498910662
 30
0.0
 10
4.5684662106
 20
3.9679119874
 30
0.0
 10
4.573163959
 20
3.9770209051
 30
0.0
 11
4.573163959
 21
3.7586159601
 31
0.0
 11
4.560306896
 21
3.7865511796
 31
0.0
 11
4.55102506
 21
3.8138068138
 31
0.0
 11
4.5453545078
 21
3.8408317842
 31
0.0
 11
4.5434396776
 21
3.8678263934
 31
0.0
 11
4.5453566422
 21
3.8948201735
 31
0.0
 11
4.551028652
 21
3.9218430279
 31
0.0
 11
4.5603087762
 21
3.9490903613
 31
0.0
 11
4.573163959
 21
3.9770209051
 31
0.0
  0
SPLINE
  5
40F
100
AcDbEntity
  8
THREAD
100
AcDbSpline
 62
7
  6
CONTINUOUS
 70
0
 71
3
 72
15
 73
11
 74
9
 42
0.0000001
 43
0.0000001
 44
0.0000000001
 12
0.1643031241
 22
0.1839340856
 32
0.0
 13
-0.1643031241
 23
0.1839340856
 33
0.0
 40
0.0
 40
0.0
 40
0.0
 40
0.0
 40
0.1498215377
 40
0.2783315905
 40
0.3927788038
 40
0.5000592815
 40
0.6073304266
 40
0.7217569014
 40
0.8502022558
 40
1.0
 40
1.0
 40
1.0
 40
1.0
 10
5.0086002931
 20
3.7586159601
 30
0.0
 10
5.0168056754
 20
3.7678017226
 30
0.0
 10
5.0312374549
 20
3.7856446812
 30
0.0
 10
5.0478351836
 20
3.8135030953
 30
0.0
 10
5.0578202906
 20
3.8407301693
 30
0.0
 10
5.0611813137
 20
3.867832525
 30
0.0
 10
5.05781354
 20
3.8949321888
 30
0.0
 10
5.0478264227
 20
3.9221499654
 30
0.0
 10
5.0312316932
 20
3.9499994258
 30
0.0
 10
5.0168043723
 20
3.9678366014
 30
0.0
 10
5.0086002931
 20
3.9770209051
 30
0.0
 11
5.0086002931
 21
3.7586159601
 31
0.0
 11
5.0315687669
 21
3.7875608731
 31
0.0
 11
5.0474949518
 21
3.8149635881
 31
0.0
 11
5.0569439492
 21
3.8415613695
 31
0.0
 11
5.0600842582
 21
3.8678331334
 31
0.0
 11
5.05693767
 21
3.8941018279
 31
0.0
 11
5.0474856378
 21
3.9206931027
 31
0.0
 11
5.0315654303
 21
3.9480808357
 31
0.0
 11
5.0086002931
 21
3.9770209051
 31
0.0
  0
SPLINE
  5
410
100
AcDbEntity
  8
THREAD
100
AcDbSpline
 62
7
  6
CONTINUOUS
 70
0
 71
3
 72
15
 73
11
 74
9
 42
0.0000001
 43
0.0000001
 44
0.0000000001
 12
-0.1103563678
 22
0.4279612204
 32
0.0
 13
0.1103563678
 23
0.4279612204
 33
0.0
 40
0.0
 40
0.0
 40
0.0
 40
0.0
 40
0.1297189924
 40
0.2548338227
 40
0.3778008073
 40
0.5000360058
 40
0.6222676266
 40
0.7452254315
 40
0.8703025816
 40
1.0
 40
1.0
 40
1.0
 40
1.0
 10
4.573163959
 20
4.0283134876
 30
0.0
 10
4.5683921868
 20
4.046818387
 30
0.0
 10
4.5599094603
 20
4.083411409
 30
0.0
 10
4.5504843233
 20
4.138299217
 30
0.0
 10
4.5447338449
 20
4.1925923534
 30
0.0
 10
4.5427939771
 20
4.246733841
 30
0.0
 10
4.5447360139
 20
4.3008738915
 30
0.0
 10
4.5504876043
 20
4.3551594231
 30
0.0
 10
4.5599120789
 20
4.410037083
 30
0.0
 10
4.5683929804
 20
4.4466215558
 30
0.0
 10
4.573163959
 20
4.4651233776
 30
0.0
 11
4.573163959
 21
4.0283134876
 31
0.0
 11
4.560306896
 21
4.0841839266
 31
0.0
 11
4.55102506
 21
4.1386951949
 31
0.0
 11
4.5453545078
 21
4.1927451359
 31
0.0
 11
4.5434396776
 21
4.2467343541
 31
0.0
 11
4.5453566422
 21
4.3007219144
 31
0.0
 11
4.551028652
 21
4.3547676231
 31
0.0
 11
4.5603087762
 21
4.40926229
 31
0.0
 11
4.573163959
 21
4.4651233776
 31
0.0
  0
SPLINE
  5
411
100
AcDbEntity
  8
THREAD
100
AcDbSpline
 62
7
  6
CONTINUOUS
 70
0
 71
3
 72
15
 73
11
 74
9
 42
0.0000001
 43
0.0000001
 44
0.0000000001
 12
0.1843202379
 22
0.4126856942
 32
0.0
 13
-0.1843202379
 23
0.4126856942
 33
0.0
 40
0.0
 40
0.0
 40
0.0
 40
0.0
 40
0.1377942686
 40
0.2640673782
 40
0.3836049145
 40
0.5000649493
 40
0.6165122554
 40
0.736022619
 40
0.8622283762
 40
1.0
 40
1.0
 40
1.0
 40
1.0
 10
5.0086002931
 20
4.0283134876
 30
0.0
 10
5.0170663839
 20
4.0472687287
 30
0.0
 10
5.0318979267
 20
4.0842496676
 30
0.0
 10
5.0482350419
 20
4.1397859487
 30
0.0
 10
5.0579282114
 20
4.193616688
 30
0.0
 10
5.0611498679
 20
4.2467459909
 30
0.0
 10
5.0579216778
 20
4.2998707415
 30
0.0
 10
5.0482261562
 20
4.3536845241
 30
0.0
 10
5.0318917068
 20
4.4092030193
 30
0.0
 10
5.0170649926
 20
4.4461712515
 30
0.0
 10
5.0086002931
 20
4.4651233776
 30
0.0
 11
5.0086002931
 21
4.0283134876
 31
0.0
 11
5.0315687669
 21
4.0862033136
 31
0.0
 11
5.0474949518
 21
4.1410087437
 31
0.0
 11
5.0569439492
 21
4.1942043063
 31
0.0
 11
5.0600842582
 21
4.2467478343
 31
0.0
 11
5.05693767
 21
4.2992852232
 31
0.0
 11
5.0474856378
 21
4.3524677729
 31
0.0
 11
5.0315654303
 21
4.4072432389
 31
0.0
 11
5.0086002931
 21
4.4651233776
 31
0.0
  0
SPLINE
  5
412
100
AcDbEntity
  8
THREAD
100
AcDbSpline
 62
7
  6
CONTINUOUS
 70
0
 71
3
 72
15
 73
11
 74
9
 42
0.0000001
 43
0.0000001
 44
0.0000000001
 12
-0.1047017673
 22
0.2030163597
 32
0.0
 13
0.1047017673
 23
0.2030163597
 33
0.0
 40
0.0
 40
0.0
 40
0.0
 40
0.0
 40
0.1346257358
 40
0.2606745914
 40
0.3815608613
 40
0.5000347823
 40
0.6185057449
 40
0.7393842591
 40
0.8653963
 40
1.0
 40
1.0
 40
1.0
 40
1.0
 10
4.573163959
 20
4.5164159601
 30
0.0
 10
4.5684654415
 20
4.525526369
 30
0.0
 10
4.5600765038
 20
4.5435514227
 30
0.0
 10
4.5505763769
 20
4.5710697542
 30
0.0
 10
4.5447565336
 20
4.5983587481
 30
0.0
 10
4.542787335
 20
4.6256261966
 30
0.0
 10
4.5447587314
 20
4.6528928807
 30
0.0
 10
4.550579659
 20
4.6801779096
 30
0.0
 10
4.5600790532
 20
4.7076910662
 30
0.0
 10
4.5684662106
 20
4.7257119874
 30
0.0
 10
4.573163959
 20
4.7348209051
 30
0.0
 11
4.573163959
 21
4.5164159601
 31
0.0
 11
4.560306896
 21
4.5443511796
 31
0.0
 11
4.55102506
 21
4.5716068138
 31
0.0
 11
4.5453545078
 21
4.5986317842
 31
0.0
 11
4.5434396776
 21
4.6256263934
 31
0.0
 11
4.5453566422
 21
4.6526201735
 31
0.0
 11
4.551028652
 21
4.6796430279
 31
0.0
 11
4.5603087762
 21
4.7068903613
 31
0.0
 11
4.573163959
 21
4.7348209051
 31
0.0
  0
SPLINE
  5
413
100
AcDbEntity
  8
THREAD
100
AcDbSpline
 62
7
  6
CONTINUOUS
 70
0
 71
3
 72
15
 73
11
 74
9
 42
0.0000001
 43
0.0000001
 44
0.0000000001
 12
0.1643031241
 22
0.1839340856
 32
0.0
 13
-0.1643031241
 23
0.1839340856
 33
0.0
 40
0.0
 40
0.0
 40
0.0
 40
0.0
 40
0.1498215377
 40
0.2783315905
 40
0.3927788038
 40
0.5000592815
 40
0.6073304266
 40
0.7217569014
 40
0.8502022558
 40
1.0
 40
1.0
 40
1.0
 40
1.0
 10
5.0086002931
 20
4.5164159601
 30
0.0
 10
5.0168056754
 20
4.5256017226
 30
0.0
 10
5.0312374549
 20
4.5434446812
 30
0.0
 10
5.0478351836
 20
4.5713030953
 30
0.0
 10
5.0578202906
 20
4.5985301693
 30
0.0
 10
5.0611813137
 20
4.625632525
 30
0.0
 10
5.05781354
 20
4.6527321888
 30
0.0
 10
5.0478264227
 20
4.6799499654
 30
0.0
 10
5.0312316932
 20
4.7077994258
 30
0.0
 10
5.0168043723
 20
4.7256366014
 30
0.0
 10
5.0086002931
 20
4.7348209051
 30
0.0
 11
5.0086002931
 21
4.5164159601
 31
0.0
 11
5.0315687669
 21
4.5453608731
 31
0.0
 11
5.0474949518
 21
4.5727635881
 31
0.0
 11
5.0569439492
 21
4.5993613695
 31
0.0
 11
5.0600842582
 21
4.6256331334
 31
0.0
 11
5.05693767
 21
4.6519018279
 31
0.0
 11
5.0474856378
 21
4.6784931027
 31
0.0
 11
5.0315654303
 21
4.7058808357
 31
0.0
 11
5.0086002931
 21
4.7348209051
 31
0.0
  0
ENDSEC
  0
SECTION
  2
OBJECTS
  0
DICTIONARY
  5
C
100
AcDbDictionary
280
0
281
1
  3
ACAD_GROUP
350
D
  3
ACAD_MLINESTYLE
350
17
  3
ACAD_LAYOUT
350
1A
  3
ACAD_PLOTSETTINGS
350
19
  3
ACAD_PLOTSTYLENAME
350
E
  0
DICTIONARY
  5
D
102
{ACAD_REACTORS
330
C
102
}
100
AcDbDictionary
280
0
281
1
  0
ACDBDICTIONARYWDFLT
  5
E
102
{ACAD_REACTORS
330
C
102
}
100
AcDbDictionary
281
1
  3
Normal
350
F
100
AcDbDictionaryWithDefault
340
F
  0
DICTIONARY
  5
17
102
{ACAD_REACTORS
330
C
102
}
100
AcDbDictionary
280
0
281
1
  3
Standard
350
18
  0
DICTIONARY
  5
19
102
{ACAD_REACTORS
330
C
102
}
100
AcDbDictionary
281
1
  0
DICTIONARY
  5
1A
102
{ACAD_REACTORS
330
C
102
}
100
AcDbDictionary
281
1
  3
Layout1
350
1E
  3
Model
350
22
  0
ACDBPLACEHOLDER
  5
F
102
{ACAD_REACTORS
330
E
102
}
  0
MLINESTYLE
  5
18
102
{ACAD_REACTORS
330
17
102
}
100
AcDbMlineStyle
  2
STANDARD
 70
0
  3

 62
256
 51
90.0
 52
90.0
 71
2
 49
0.5
 62
256
  6
BYLAYER
 49
-0.5
 62
256
  6
BYLAYER
  0
LAYOUT
  5
1E
102
{ACAD_REACTORS
330
1A
102
}
100
AcDbPlotSettings
  1

  2

  4

  6

 40
0.0
 41
0.0
 42
0.0
 43
0.0
 44
0.0
 45
0.0
 46
0.0
 47
0.0
 48
0.0
 49
0.0
140
0.0
141
0.0
142
1.0
143
1.0
 70
0
 72
0
 73
0
 74
0
  7

 75
0
147
1.0
148
0.0
149
0.0
100
AcDbLayout
  1
Layout1
 70
0
 71
0
 10
0.0
 20
0.0
 11
0.0
 21
0.0
 12
0.0
 22
0.0
 32
0.0
 14
0.0
 24
0.0
 34
0.0
 15
0.0
 25
0.0
 35
0.0
146
0.0
 13
0.0
 23
0.0
 33
0.0
 16
0.0
 26
0.0
 36
0.0
 17
0.0
 27
0.0
 37
0.0
 76
0
330
1B
331
0
345
0
346
0
  0
LAYOUT
  5
22
102
{ACAD_REACTORS
330
1A
102
}
100
AcDbPlotSettings
  1

  2

  4

  6

 40
0.0
 41
0.0
 42
0.0
 43
0.0
 44
0.0
 45
0.0
 46
0.0
 47
0.0
 48
0.0
 49
0.0
140
0.0
141
0.0
142
1.0
143
1.0
 70
0
 72
0
 73
0
 74
0
  7

 75
0
147
1.0
148
0.0
149
0.0
100
AcDbLayout
  1
Model
 70
0
 71
0
 10
0.0
 20
0.0
 11
0.0
 21
0.0
 12
0.0
 22
0.0
 32
0.0
 14
0.0
 24
0.0
 34
0.0
 15
0.0
 25
0.0
 35
0.0
146
0.0
 13
0.0
 23
0.0
 33
0.0
 16
0.0
 26
0.0
 36
0.0
 17
0.0
 27
0.0
 37
0.0
 76
0
330
1F
331
0
345
0
346
0
  0
ENDSEC
  0
EOF
