999
DXF file: CXCD-XCN.dxf
999
Pro/ENGINEER 2006240 by Parametric Technology Corporation
  0
SECTION
  2
HEADER
  9
$ACADVER
  1
AC1015
  9
$DWGCODEPAGE
  3
ANSI_1252
  9
$EXTMAX
 10
11.6929133858
 20
8.2677165354
 30
0.0
  9
$EXTMIN
 10
0.0
 20
0.0
 30
0.0
  9
$LIMMIN
 10
0.0
 20
0.0
  9
$LIMMAX
 10
11.6929133858
 20
8.2677165354
  9
$VIEWCTR
 10
5.8464566929
 20
4.1338582677
  9
$VIEWSIZE
 40
8.2677165354
  9
$CLAYER
  8
0
  9
$LTSCALE
 40
0.6431102362
  9
$CELTYPE
  6
BYLAYER
  9
$DIMSCALE
 40
1.0
  9
$DIMASZ
 40
0.1875
  9
$DIMEXO
 40
0.0730807087
  9
$DIMDLI
 40
0.4443307087
  9
$DIMEXE
 40
0.2104724409
  9
$DIMCEN
 40
0.1052362205
  9
$DIMLFAC
 40
1.0
  9
$DIMBLK
  1
_CLOSED
  9
$DIMTXT
 40
0.15625
  9
$DIMTOL
 70
0
  9
$DIMLIM
 70
0
  9
$DIMTFAC
 40
1.0
  9
$PDMODE
 70
3
  9
$PDSIZE
 40
0.3125
  9
$HANDSEED
  5
412
  9
$MEASUREMENT
 70
0
  9
$INSUNITS
 70
1
  0
ENDSEC
  0
SECTION
  2
CLASSES
  0
CLASS
  1
ACDBDICTIONARYWDFLT
  2
AcDbDictionaryWithDefault
  3
AutoCAD 2000
 90
0
280
0
281
0
  0
CLASS
  1
ACDBPLACEHOLDER
  2
AcDbPlaceHolder
  3
AutoCAD 2000
 90
0
280
0
281
0
  0
CLASS
  1
LAYOUT
  2
AcDbLayout
  3
AutoCAD 2000
 90
0
280
0
281
0
  0
ENDSEC
  0
SECTION
  2
TABLES
  0
TABLE
  2
VPORT
  5
8
100
AcDbSymbolTable
 70
2
  0
VPORT
  5
1F4
100
AcDbSymbolTableRecord
100
AcDbViewportTableRecord
  2
*ACTIVE
 70
0
 10
0.0
 20
0.0
 11
1.0
 21
1.0
 12
5.8464566929
 22
4.1338582677
 13
0.0
 23
0.0
 14
1.0
 24
1.0
 15
0.0
 25
0.0
 16
0.0
 26
0.0
 36
1.0
 17
0.0
 27
0.0
 37
0.0
 40
8.2677165354
 41
1.4142857143
 42
50.0
 43
0.0
 44
0.0
 50
0.0
 51
0.0
 71
0
 72
100
 73
1
 74
1
 75
0
 76
0
 77
0
 78
0
  0
ENDTAB
  0
TABLE
  2
LTYPE
  5
5
100
AcDbSymbolTable
 70
6
  0
LTYPE
  5
14
100
AcDbSymbolTableRecord
100
AcDbLinetypeTableRecord
  2
BYBLOCK
 70
0
  3

 72
65
 73
0
 40
0.0
  0
LTYPE
  5
15
100
AcDbSymbolTableRecord
100
AcDbLinetypeTableRecord
  2
BYLAYER
 70
0
  3

 72
65
 73
0
 40
0.0
  0
LTYPE
  5
16
100
AcDbSymbolTableRecord
100
AcDbLinetypeTableRecord
  2
CONTINUOUS
 70
64
  3
Solid line
 72
65
 73
0
 40
0.0
  0
LTYPE
  5
1F5
100
AcDbSymbolTableRecord
100
AcDbLinetypeTableRecord
  2
CENTER
 70
64
  3
____ _ ____ _ ____ _ ____ _ ____ _ ____ _ ____
 72
65
 73
4
 40
0.6
 49
0.375
 74
0
 49
-0.075
 74
0
 49
0.075
 74
0
 49
-0.075
 74
0
  0
LTYPE
  5
1F6
100
AcDbSymbolTableRecord
100
AcDbLinetypeTableRecord
  2
HIDDEN
 70
64
  3
- - - - - - - - - - - - - - - - - - - -
 72
65
 73
2
 40
0.2
 49
0.1
 74
0
 49
-0.1
 74
0
  0
LTYPE
  5
1F7
100
AcDbSymbolTableRecord
100
AcDbLinetypeTableRecord
  2
PHANTOM
 70
64
  3
_____ _ _ _____ _ _ _____ _ _ _____
 72
65
 73
6
 40
0.8
 49
0.45
 74
0
 49
-0.05
 74
0
 49
0.1
 74
0
 49
-0.05
 74
0
 49
0.1
 74
0
 49
-0.05
 74
0
  0
LTYPE
  5
1F8
100
AcDbSymbolTableRecord
100
AcDbLinetypeTableRecord
  2
DOT
 70
64
  3
. . . . . . . . . . . . . . . . . . . .
 72
65
 73
2
 40
0.2
 49
0.1
 74
0
 49
-0.1
 74
0
  0
LTYPE
  5
1F9
100
AcDbSymbolTableRecord
100
AcDbLinetypeTableRecord
  2
DASHED
 70
64
  3
- - - - - - - - - - - - - - - - - - - -
 72
65
 73
2
 40
0.2
 49
0.1
 74
0
 49
-0.1
 74
0
  0
ENDTAB
  0
TABLE
  2
LAYER
  5
2
100
AcDbSymbolTable
 70
36
  0
LAYER
  5
10
100
AcDbSymbolTableRecord
100
AcDbLayerTableRecord
  2
0
 70
0
 62
7
  6
CONTINUOUS
370
-3
390
F
  0
LAYER
  5
1FA
100
AcDbSymbolTableRecord
100
AcDbLayerTableRecord
  2
DEFAULT_1
 70
0
 62
7
  6
CENTER
370
-3
390
F
  0
LAYER
  5
1FB
100
AcDbSymbolTableRecord
100
AcDbLayerTableRecord
  2
DEFAULT_2
 70
0
 62
8
  6
HIDDEN
370
-3
390
F
  0
LAYER
  5
1FC
100
AcDbSymbolTableRecord
100
AcDbLayerTableRecord
  2
DEFAULT_3
 70
0
 62
7
  6
PHANTOM
370
-3
390
F
  0
LAYER
  5
1FD
100
AcDbSymbolTableRecord
100
AcDbLayerTableRecord
  2
_BLACK_HOLE
 70
0
 62
7
  6
CONTINUOUS
370
-3
390
F
  0
LAYER
  5
1FE
100
AcDbSymbolTableRecord
100
AcDbLayerTableRecord
  2
01_ALL_DTM_PLN
 70
0
 62
7
  6
CONTINUOUS
370
-3
390
F
  0
LAYER
  5
1FF
100
AcDbSymbolTableRecord
100
AcDbLayerTableRecord
  2
01__ASM_ALL_DTM_PLN
 70
0
 62
7
  6
CONTINUOUS
370
-3
390
F
  0
LAYER
  5
200
100
AcDbSymbolTableRecord
100
AcDbLayerTableRecord
  2
01__ASM_DEF_DTM_PLN
 70
0
 62
7
  6
CONTINUOUS
370
-3
390
F
  0
LAYER
  5
201
100
AcDbSymbolTableRecord
100
AcDbLayerTableRecord
  2
01___PRT_ALL_DTM_PLN
 70
0
 62
7
  6
CONTINUOUS
370
-3
390
F
  0
LAYER
  5
202
100
AcDbSymbolTableRecord
100
AcDbLayerTableRecord
  2
01___PRT_DEF_DTM_PLN
 70
0
 62
7
  6
CONTINUOUS
370
-3
390
F
  0
LAYER
  5
203
100
AcDbSymbolTableRecord
100
AcDbLayerTableRecord
  2
02_ALL_AXES
 70
0
 62
7
  6
CONTINUOUS
370
-3
390
F
  0
LAYER
  5
204
100
AcDbSymbolTableRecord
100
AcDbLayerTableRecord
  2
02__ASM_ALL_AXES
 70
0
 62
7
  6
CONTINUOUS
370
-3
390
F
  0
LAYER
  5
205
100
AcDbSymbolTableRecord
100
AcDbLayerTableRecord
  2
02___PRT_ALL_AXES
 70
0
 62
7
  6
CONTINUOUS
370
-3
390
F
  0
LAYER
  5
206
100
AcDbSymbolTableRecord
100
AcDbLayerTableRecord
  2
03_ALL_CURVES
 70
0
 62
7
  6
CONTINUOUS
370
-3
390
F
  0
LAYER
  5
207
100
AcDbSymbolTableRecord
100
AcDbLayerTableRecord
  2
03__ASM_ALL_CURVES
 70
0
 62
7
  6
CONTINUOUS
370
-3
390
F
  0
LAYER
  5
208
100
AcDbSymbolTableRecord
100
AcDbLayerTableRecord
  2
03___PRT_ALL_CURVES
 70
0
 62
7
  6
CONTINUOUS
370
-3
390
F
  0
LAYER
  5
209
100
AcDbSymbolTableRecord
100
AcDbLayerTableRecord
  2
04_ALL_DTM_PNT
 70
0
 62
7
  6
CONTINUOUS
370
-3
390
F
  0
LAYER
  5
20A
100
AcDbSymbolTableRecord
100
AcDbLayerTableRecord
  2
04__ASM_ALL_DTM_PNT
 70
0
 62
7
  6
CONTINUOUS
370
-3
390
F
  0
LAYER
  5
20B
100
AcDbSymbolTableRecord
100
AcDbLayerTableRecord
  2
04___PRT_ALL_DTM_PNT
 70
0
 62
7
  6
CONTINUOUS
370
-3
390
F
  0
LAYER
  5
20C
100
AcDbSymbolTableRecord
100
AcDbLayerTableRecord
  2
05_ALL_DTM_CSYS
 70
0
 62
7
  6
CONTINUOUS
370
-3
390
F
  0
LAYER
  5
20D
100
AcDbSymbolTableRecord
100
AcDbLayerTableRecord
  2
05__ASM_ALL_DTM_CSYS
 70
0
 62
7
  6
CONTINUOUS
370
-3
390
F
  0
LAYER
  5
20E
100
AcDbSymbolTableRecord
100
AcDbLayerTableRecord
  2
05__ASM_DEF_DTM_CSYS
 70
0
 62
7
  6
CONTINUOUS
370
-3
390
F
  0
LAYER
  5
20F
100
AcDbSymbolTableRecord
100
AcDbLayerTableRecord
  2
05___PRT_ALL_DTM_CSYS
 70
0
 62
7
  6
CONTINUOUS
370
-3
390
F
  0
LAYER
  5
210
100
AcDbSymbolTableRecord
100
AcDbLayerTableRecord
  2
05___PRT_DEF_DTM_CSYS
 70
0
 62
7
  6
CONTINUOUS
370
-3
390
F
  0
LAYER
  5
211
100
AcDbSymbolTableRecord
100
AcDbLayerTableRecord
  2
06_ALL_SURFS
 70
0
 62
7
  6
CONTINUOUS
370
-3
390
F
  0
LAYER
  5
212
100
AcDbSymbolTableRecord
100
AcDbLayerTableRecord
  2
06__ASM_ALL_SURFS
 70
0
 62
7
  6
CONTINUOUS
370
-3
390
F
  0
LAYER
  5
213
100
AcDbSymbolTableRecord
100
AcDbLayerTableRecord
  2
06___PRT_ALL_SURFS
 70
0
 62
7
  6
CONTINUOUS
370
-3
390
F
  0
LAYER
  5
214
100
AcDbSymbolTableRecord
100
AcDbLayerTableRecord
  2
07__ASM_ALL_SKELETONS
 70
0
 62
7
  6
CONTINUOUS
370
-3
390
F
  0
LAYER
  5
215
100
AcDbSymbolTableRecord
100
AcDbLayerTableRecord
  2
126-002_HEX_FEATURES
 70
0
 62
7
  6
CONTINUOUS
370
-3
390
F
  0
LAYER
  5
216
100
AcDbSymbolTableRecord
100
AcDbLayerTableRecord
  2
126-002_REF_GEOMETRY
 70
0
 62
7
  6
CONTINUOUS
370
-3
390
F
  0
LAYER
  5
217
100
AcDbSymbolTableRecord
100
AcDbLayerTableRecord
  2
126-100_HEX_FEATURES
 70
0
 62
7
  6
CONTINUOUS
370
-3
390
F
  0
LAYER
  5
218
100
AcDbSymbolTableRecord
100
AcDbLayerTableRecord
  2
126-100_REF_GEOMETRY
 70
0
 62
7
  6
CONTINUOUS
370
-3
390
F
  0
LAYER
  5
219
100
AcDbSymbolTableRecord
100
AcDbLayerTableRecord
  2
126-101_HEX_FEATURES
 70
0
 62
7
  6
CONTINUOUS
370
-3
390
F
  0
LAYER
  5
21A
100
AcDbSymbolTableRecord
100
AcDbLayerTableRecord
  2
126-101_REF_GEOMETRY
 70
0
 62
7
  6
CONTINUOUS
370
-3
390
F
  0
LAYER
  5
21B
100
AcDbSymbolTableRecord
100
AcDbLayerTableRecord
  2
126-102_HEX_FEATURES
 70
0
 62
7
  6
CONTINUOUS
370
-3
390
F
  0
LAYER
  5
21C
100
AcDbSymbolTableRecord
100
AcDbLayerTableRecord
  2
126-102_REF_GEOMETRY
 70
0
 62
7
  6
CONTINUOUS
370
-3
390
F
  0
LAYER
  5
21D
100
AcDbSymbolTableRecord
100
AcDbLayerTableRecord
  2
126-103_HEX_FEATURES
 70
0
 62
7
  6
CONTINUOUS
370
-3
390
F
  0
LAYER
  5
21E
100
AcDbSymbolTableRecord
100
AcDbLayerTableRecord
  2
126-103_REF_GEOMETRY
 70
0
 62
7
  6
CONTINUOUS
370
-3
390
F
  0
LAYER
  5
21F
100
AcDbSymbolTableRecord
100
AcDbLayerTableRecord
  2
126-104_HEX_FEATURES
 70
0
 62
7
  6
CONTINUOUS
370
-3
390
F
  0
LAYER
  5
220
100
AcDbSymbolTableRecord
100
AcDbLayerTableRecord
  2
126-104_REF_GEOMETRY
 70
0
 62
7
  6
CONTINUOUS
370
-3
390
F
  0
LAYER
  5
221
100
AcDbSymbolTableRecord
100
AcDbLayerTableRecord
  2
250-19_BSPP_PORT_PER_S-186
 70
0
 62
7
  6
CONTINUOUS
370
-3
390
F
  0
LAYER
  5
222
100
AcDbSymbolTableRecord
100
AcDbLayerTableRecord
  2
COPY_GEO_FET
 70
0
 62
7
  6
CONTINUOUS
370
-3
390
F
  0
LAYER
  5
223
100
AcDbSymbolTableRecord
100
AcDbLayerTableRecord
  2
COSMESTIC
 70
0
 62
7
  6
CONTINUOUS
370
-3
390
F
  0
LAYER
  5
224
100
AcDbSymbolTableRecord
100
AcDbLayerTableRecord
  2
COSMETIC
 70
0
 62
7
  6
CONTINUOUS
370
-3
390
F
  0
LAYER
  5
225
100
AcDbSymbolTableRecord
100
AcDbLayerTableRecord
  2
CROSS_HOLE_DATUMS
 70
0
 62
7
  6
CONTINUOUS
370
-3
390
F
  0
LAYER
  5
226
100
AcDbSymbolTableRecord
100
AcDbLayerTableRecord
  2
CUT_REF_SURF
 70
0
 62
7
  6
CONTINUOUS
370
-3
390
F
  0
LAYER
  5
227
100
AcDbSymbolTableRecord
100
AcDbLayerTableRecord
  2
DATUM
 70
0
 62
7
  6
CONTINUOUS
370
-3
390
F
  0
LAYER
  5
228
100
AcDbSymbolTableRecord
100
AcDbLayerTableRecord
  2
DIMENSIONS
 70
0
 62
7
  6
CONTINUOUS
370
-3
390
F
  0
LAYER
  5
229
100
AcDbSymbolTableRecord
100
AcDbLayerTableRecord
  2
DRAWINGNOTES
 70
0
 62
7
  6
CONTINUOUS
370
-3
390
F
  0
LAYER
  5
22A
100
AcDbSymbolTableRecord
100
AcDbLayerTableRecord
  2
DTM
 70
0
 62
7
  6
CONTINUOUS
370
-3
390
F
  0
LAYER
  5
22B
100
AcDbSymbolTableRecord
100
AcDbLayerTableRecord
  2
DTM230
 70
0
 62
7
  6
CONTINUOUS
370
-3
390
F
  0
LAYER
  5
22C
100
AcDbSymbolTableRecord
100
AcDbLayerTableRecord
  2
DTM_500002
 70
0
 62
7
  6
CONTINUOUS
370
-3
390
F
  0
LAYER
  5
22D
100
AcDbSymbolTableRecord
100
AcDbLayerTableRecord
  2
DTM_515002
 70
0
 62
7
  6
CONTINUOUS
370
-3
390
F
  0
LAYER
  5
22E
100
AcDbSymbolTableRecord
100
AcDbLayerTableRecord
  2
DTM_SPRING_RH
 70
0
 62
7
  6
CONTINUOUS
370
-3
390
F
  0
LAYER
  5
22F
100
AcDbSymbolTableRecord
100
AcDbLayerTableRecord
  2
DTM_SP_RH_CONSTR
 70
0
 62
7
  6
CONTINUOUS
370
-3
390
F
  0
LAYER
  5
230
100
AcDbSymbolTableRecord
100
AcDbLayerTableRecord
  2
FLUTE_DATUMS
 70
0
 62
7
  6
CONTINUOUS
370
-3
390
F
  0
LAYER
  5
231
100
AcDbSymbolTableRecord
100
AcDbLayerTableRecord
  2
GEOMETRICTOLERANCES
 70
0
 62
7
  6
CONTINUOUS
370
-3
390
F
  0
LAYER
  5
232
100
AcDbSymbolTableRecord
100
AcDbLayerTableRecord
  2
PARAMETERDIMENSIONS
 70
0
 62
7
  6
CONTINUOUS
370
-3
390
F
  0
LAYER
  5
233
100
AcDbSymbolTableRecord
100
AcDbLayerTableRecord
  2
PLANE
 70
0
 62
7
  6
CONTINUOUS
370
-3
390
F
  0
LAYER
  5
234
100
AcDbSymbolTableRecord
100
AcDbLayerTableRecord
  2
STD_SAE-4_PORT
 70
0
 62
7
  6
CONTINUOUS
370
-3
390
F
  0
LAYER
  5
235
100
AcDbSymbolTableRecord
100
AcDbLayerTableRecord
  2
STD_SAE-6_PORT
 70
0
 62
7
  6
CONTINUOUS
370
-3
390
F
  0
LAYER
  5
236
100
AcDbSymbolTableRecord
100
AcDbLayerTableRecord
  2
T-8A_CAVITY
 70
0
 62
7
  6
CONTINUOUS
370
-3
390
F
  0
LAYER
  5
237
100
AcDbSymbolTableRecord
100
AcDbLayerTableRecord
  2
T-8A_CAVITY_REF_GEOMETRY
 70
0
 62
7
  6
CONTINUOUS
370
-3
390
F
  0
LAYER
  5
238
100
AcDbSymbolTableRecord
100
AcDbLayerTableRecord
  2
TEXT
 70
0
 62
7
  6
CONTINUOUS
370
-3
390
F
  0
LAYER
  5
239
100
AcDbSymbolTableRecord
100
AcDbLayerTableRecord
  2
THREAD
 70
0
 62
7
  6
CONTINUOUS
370
-3
390
F
  0
LAYER
  5
23A
100
AcDbSymbolTableRecord
100
AcDbLayerTableRecord
  2
XSEC_DATUMS
 70
0
 62
7
  6
CONTINUOUS
370
-3
390
F
  0
ENDTAB
  0
TABLE
  2
STYLE
  5
3
100
AcDbSymbolTable
 70
1
  0
STYLE
  5
11
100
AcDbSymbolTableRecord
100
AcDbTextStyleTableRecord
  2
STANDARD
 70
0
 40
0.0
 41
0.8
 50
0.0
 71
0
 42
0.2
  3
txt
  4

  0
ENDTAB
  0
TABLE
  2
VIEW
  5
6
100
AcDbSymbolTable
 70
0
  0
ENDTAB
  0
TABLE
  2
UCS
  5
7
100
AcDbSymbolTable
 70
0
  0
ENDTAB
  0
TABLE
  2
APPID
  5
9
100
AcDbSymbolTable
 70
1
  0
APPID
  5
23B
100
AcDbSymbolTableRecord
100
AcDbRegAppTableRecord
  2
ACAD
 70
0
  0
ENDTAB
  0
TABLE
  2
BLOCK_RECORD
  5
1
100
AcDbSymbolTable
 70
0
  0
BLOCK_RECORD
  5
1F
100
AcDbSymbolTableRecord
100
AcDbBlockTableRecord
  2
*MODEL_SPACE
  0
BLOCK_RECORD
  5
1B
100
AcDbSymbolTableRecord
100
AcDbBlockTableRecord
  2
*PAPER_SPACE
  0
ENDTAB
  0
TABLE
  2
DIMSTYLE
  5
A
100
AcDbSymbolTable
 70
1
100
AcDbDimStyleTable
 71
0
  0
DIMSTYLE
105
23C
100
AcDbSymbolTableRecord
100
AcDbDimStyleTableRecord
  2
STANDARD
 70
0
  3

  4

 40
1.0
 41
0.1875
 42
0.0625
 43
0.38
 44
0.18
 45
0.0
 46
0.0
 47
0.01
 48
0.01
140
0.15625
141
0.09
142
0.0
143
25.4
144
1.0
145
0.0
146
1.0
147
0.09
 71
0.0
 72
0.0
 73
1
 74
1
 75
0
 76
0
 77
0
 78
4
170
0
171
2
172
0
173
0
174
0
175
0
176
0
177
0
178
0
270
2
271
2
272
2
273
2
274
2
275
0
280
0
281
0
282
0
283
1
284
4
285
0
286
0
287
3
288
0
340
11
  0
ENDTAB
  0
ENDSEC
  0
SECTION
  2
BLOCKS
  0
BLOCK
  5
20
100
AcDbEntity
  8
0
100
AcDbBlockBegin
  2
*MODEL_SPACE
 70
0
 10
0.0
 20
0.0
 30
0.0
  3
*MODEL_SPACE
  1

  0
ENDBLK
  5
21
100
AcDbEntity
  8
0
100
AcDbBlockEnd
  0
BLOCK
  5
1C
100
AcDbEntity
  8
0
100
AcDbBlockBegin
  2
*PAPER_SPACE
 70
0
 10
0.0
 20
0.0
 30
0.0
  3
*PAPER_SPACE
  1

  0
ENDBLK
  5
1D
100
AcDbEntity
  8
0
100
AcDbBlockEnd
  0
ENDSEC
  0
SECTION
  2
ENTITIES
  0
LINE
  5
23D
100
AcDbEntity
  8
THREAD
100
AcDbLine
 62
7
  6
CONTINUOUS
 10
4.5509198967
 20
3.7577184326
 11
4.5168562308
 21
3.8167184326
  0
LINE
  5
23E
100
AcDbEntity
  8
THREAD
100
AcDbLine
 62
7
  6
CONTINUOUS
 10
4.5168562308
 20
3.8167184326
 11
4.5168562308
 21
4.6767184326
  0
LINE
  5
23F
100
AcDbEntity
  8
03__ASM_ALL_CURVES
100
AcDbLine
 62
40
  6
CONTINUOUS
 10
4.5168562308
 20
4.6767184326
 11
4.5168562308
 21
4.9255664326
  0
LINE
  5
240
100
AcDbEntity
  8
THREAD
100
AcDbLine
 62
7
  6
CONTINUOUS
 10
4.5509198967
 20
3.7577184326
 11
4.5509198967
 21
3.7586159601
  0
LINE
  5
241
100
AcDbEntity
  8
THREAD
100
AcDbLine
 62
7
  6
CONTINUOUS
 10
4.5509198967
 20
3.9770209051
 11
4.5509198967
 21
4.0283134876
  0
LINE
  5
242
100
AcDbEntity
  8
THREAD
100
AcDbLine
 62
7
  6
CONTINUOUS
 10
4.5509198967
 20
4.4651233776
 11
4.5509198967
 21
4.5164159601
  0
LINE
  5
243
100
AcDbEntity
  8
THREAD
100
AcDbLine
 62
7
  6
CONTINUOUS
 10
4.5509198967
 20
4.7348209051
 11
4.5509198967
 21
4.7357184326
  0
LINE
  5
244
100
AcDbEntity
  8
03__ASM_ALL_CURVES
100
AcDbLine
 62
40
  6
CONTINUOUS
 10
4.6653712308
 20
4.9543264335
 11
4.6680674808
 21
4.9615164317
  0
LINE
  5
245
100
AcDbEntity
  8
03__ASM_ALL_CURVES
100
AcDbLine
 62
40
  6
CONTINUOUS
 10
4.6869412308
 20
4.939946433
 11
4.6842449808
 21
4.9327564328
  0
LINE
  5
246
100
AcDbEntity
  8
THREAD
100
AcDbLine
 62
7
  6
CONTINUOUS
 10
4.5509198967
 20
4.7357184326
 11
4.5168562308
 21
4.6767184326
  0
LINE
  5
247
100
AcDbEntity
  8
03__ASM_ALL_CURVES
100
AcDbLine
 62
40
  6
CONTINUOUS
 10
4.6680674808
 20
4.9615164317
 11
4.6707637308
 21
4.9651114335
  0
LINE
  5
248
100
AcDbEntity
  8
03__ASM_ALL_CURVES
100
AcDbLine
 62
40
  6
CONTINUOUS
 10
4.6842449808
 20
4.9327564328
 11
4.6815487308
 21
4.9291614327
  0
LINE
  5
249
100
AcDbEntity
  8
03__ASM_ALL_CURVES
100
AcDbLine
 62
40
  6
CONTINUOUS
 10
4.5599962308
 20
4.9183764326
 11
4.5599962308
 21
4.9039964326
  0
LINE
  5
24A
100
AcDbEntity
  8
03__ASM_ALL_CURVES
100
AcDbLine
 62
40
  6
CONTINUOUS
 10
4.7651324808
 20
4.9435414322
 11
4.7678287308
 21
4.9543264335
  0
LINE
  5
24B
100
AcDbEntity
  8
03__ASM_ALL_CURVES
100
AcDbLine
 62
40
  6
CONTINUOUS
 10
4.7678287308
 20
4.9543264335
 11
4.7732212308
 21
4.9687064326
  0
LINE
  5
24C
100
AcDbEntity
  8
03__ASM_ALL_CURVES
100
AcDbLine
 62
40
  6
CONTINUOUS
 10
4.8163612308
 20
4.9327564328
 11
4.8136649808
 21
4.9291614327
  0
LINE
  5
24D
100
AcDbEntity
  8
03__ASM_ALL_CURVES
100
AcDbLine
 62
40
  6
CONTINUOUS
 10
4.8514124808
 20
4.9687064326
 11
4.8460199808
 21
4.9615164317
  0
LINE
  5
24E
100
AcDbEntity
  8
03__ASM_ALL_CURVES
100
AcDbLine
 62
40
  6
CONTINUOUS
 10
4.6707637308
 20
4.9651114335
 11
4.6761562308
 21
4.9687064326
  0
LINE
  5
24F
100
AcDbEntity
  8
03__ASM_ALL_CURVES
100
AcDbLine
 62
40
  6
CONTINUOUS
 10
4.6815487308
 20
4.9291614327
 11
4.6761562308
 21
4.9255664326
  0
LINE
  5
250
100
AcDbEntity
  8
03__ASM_ALL_CURVES
100
AcDbLine
 62
40
  6
CONTINUOUS
 10
4.6653712308
 20
4.939946433
 11
4.6653712308
 21
4.9543264335
  0
LINE
  5
251
100
AcDbEntity
  8
03__ASM_ALL_CURVES
100
AcDbLine
 62
40
  6
CONTINUOUS
 10
4.6869412308
 20
4.9543264335
 11
4.6869412308
 21
4.939946433
  0
LINE
  5
252
100
AcDbEntity
  8
03__ASM_ALL_CURVES
100
AcDbLine
 62
40
  6
CONTINUOUS
 10
4.7165999808
 20
4.9255664326
 11
4.7165999808
 21
4.9291614327
  0
LINE
  5
253
100
AcDbEntity
  8
03__ASM_ALL_CURVES
100
AcDbLine
 62
40
  6
CONTINUOUS
 10
4.7624362308
 20
4.9255664326
 11
4.7651324808
 21
4.9435414322
  0
LINE
  5
254
100
AcDbEntity
  8
03__ASM_ALL_CURVES
100
AcDbLine
 62
40
  6
CONTINUOUS
 10
4.8001837308
 20
4.9687064326
 11
4.7974874808
 21
4.9507314317
  0
LINE
  5
255
100
AcDbEntity
  8
03__ASM_ALL_CURVES
100
AcDbLine
 62
40
  6
CONTINUOUS
 10
4.8460199808
 20
4.9615164317
 11
4.8433237308
 21
4.9507314317
  0
LINE
  5
256
100
AcDbEntity
  8
03__ASM_ALL_CURVES
100
AcDbLine
 62
40
  6
CONTINUOUS
 10
4.8190574808
 20
4.939946433
 11
4.8163612308
 21
4.9327564328
  0
LINE
  5
257
100
AcDbEntity
  8
03__ASM_ALL_CURVES
100
AcDbLine
 62
40
  6
CONTINUOUS
 10
4.9242112308
 20
4.9543264335
 11
4.9269074808
 21
4.9615164317
  0
LINE
  5
258
100
AcDbEntity
  8
03__ASM_ALL_CURVES
100
AcDbLine
 62
40
  6
CONTINUOUS
 10
4.9269074808
 20
4.9615164317
 11
4.9296037308
 21
4.9651114335
  0
LINE
  5
259
100
AcDbEntity
  8
03__ASM_ALL_CURVES
100
AcDbLine
 62
40
  6
CONTINUOUS
 10
4.9430849808
 20
4.9327564328
 11
4.9403887308
 21
4.9291614327
  0
LINE
  5
25A
100
AcDbEntity
  8
03__ASM_ALL_CURVES
100
AcDbLine
 62
40
  6
CONTINUOUS
 10
4.7974874808
 20
4.9507314317
 11
4.8028799808
 21
4.9543264335
  0
LINE
  5
25B
100
AcDbEntity
  8
03__ASM_ALL_CURVES
100
AcDbLine
 62
40
  6
CONTINUOUS
 10
4.8136649808
 20
4.9291614327
 11
4.8082724808
 21
4.9255664326
  0
LINE
  5
25C
100
AcDbEntity
  8
03__ASM_ALL_CURVES
100
AcDbLine
 62
40
  6
CONTINUOUS
 10
4.8433237308
 20
4.9507314317
 11
4.8433237308
 21
4.9435414322
  0
LINE
  5
25D
100
AcDbEntity
  8
03__ASM_ALL_CURVES
100
AcDbLine
 62
40
  6
CONTINUOUS
 10
4.9457812308
 20
4.9543264335
 11
4.9430849808
 21
4.9471364326
  0
LINE
  5
25E
100
AcDbEntity
  8
03__ASM_ALL_CURVES
100
AcDbLine
 62
40
  6
CONTINUOUS
 10
4.9457812308
 20
4.939946433
 11
4.9430849808
 21
4.9327564328
  0
LINE
  5
25F
100
AcDbEntity
  8
03__ASM_ALL_CURVES
100
AcDbLine
 62
40
  6
CONTINUOUS
 10
5.0104912308
 20
4.9543264335
 11
5.0131874808
 21
4.9615164317
  0
LINE
  5
260
100
AcDbEntity
  8
03__ASM_ALL_CURVES
100
AcDbLine
 62
40
  6
CONTINUOUS
 10
5.0725049808
 20
4.9687064326
 11
5.0536312308
 21
4.9363514326
  0
LINE
  5
261
100
AcDbEntity
  8
03__ASM_ALL_CURVES
100
AcDbLine
 62
40
  6
CONTINUOUS
 10
5.0131874808
 20
4.9615164317
 11
5.0158837308
 21
4.9651114335
  0
LINE
  5
262
100
AcDbEntity
  8
03__ASM_ALL_CURVES
100
AcDbLine
 62
40
  6
CONTINUOUS
 10
5.0293649808
 20
4.9327564328
 11
5.0266687308
 21
4.9291614327
  0
LINE
  5
263
100
AcDbEntity
  8
03__ASM_ALL_CURVES
100
AcDbLine
 62
40
  6
CONTINUOUS
 10
4.9296037308
 20
4.9651114335
 11
4.9349962308
 21
4.9687064326
  0
LINE
  5
264
100
AcDbEntity
  8
03__ASM_ALL_CURVES
100
AcDbLine
 62
40
  6
CONTINUOUS
 10
4.9403887308
 20
4.9291614327
 11
4.9349962308
 21
4.9255664326
  0
LINE
  5
265
100
AcDbEntity
  8
03__ASM_ALL_CURVES
100
AcDbLine
 62
40
  6
CONTINUOUS
 10
5.0158837308
 20
4.9651114335
 11
5.0212762308
 21
4.9687064326
  0
LINE
  5
266
100
AcDbEntity
  8
03__ASM_ALL_CURVES
100
AcDbLine
 62
40
  6
CONTINUOUS
 10
5.0266687308
 20
4.9291614327
 11
5.0212762308
 21
4.9255664326
  0
LINE
  5
267
100
AcDbEntity
  8
03__ASM_ALL_CURVES
100
AcDbLine
 62
40
  6
CONTINUOUS
 10
4.8918562308
 20
4.9687064326
 11
4.8918562308
 21
4.9255664326
  0
LINE
  5
268
100
AcDbEntity
  8
03__ASM_ALL_CURVES
100
AcDbLine
 62
40
  6
CONTINUOUS
 10
5.0320612308
 20
4.939946433
 11
5.0293649808
 21
4.9327564328
  0
LINE
  5
269
100
AcDbEntity
  8
03__ASM_ALL_CURVES
100
AcDbLine
 62
40
  6
CONTINUOUS
 10
5.1102524808
 20
4.9327564328
 11
5.1048599808
 21
4.9255664326
  0
LINE
  5
26A
100
AcDbEntity
  8
03__ASM_ALL_CURVES
100
AcDbLine
 62
40
  6
CONTINUOUS
 10
4.9430849808
 20
4.9471364326
 11
4.9349962308
 21
4.9435414322
  0
LINE
  5
26B
100
AcDbEntity
  8
03__ASM_ALL_CURVES
100
AcDbLine
 62
40
  6
CONTINUOUS
 10
4.9457812308
 20
4.9543264335
 11
4.9457812308
 21
4.939946433
  0
LINE
  5
26C
100
AcDbEntity
  8
03__ASM_ALL_CURVES
100
AcDbLine
 62
40
  6
CONTINUOUS
 10
4.9754399808
 20
4.9255664326
 11
4.9754399808
 21
4.9291614327
  0
LINE
  5
26D
100
AcDbEntity
  8
THREAD
100
AcDbLine
 62
7
  6
CONTINUOUS
 10
4.9863562308
 20
3.7577184326
 11
4.9863562308
 21
3.7586159601
  0
LINE
  5
26E
100
AcDbEntity
  8
THREAD
100
AcDbLine
 62
7
  6
CONTINUOUS
 10
4.9863562308
 20
3.9770209051
 11
4.9863562308
 21
4.0283134876
  0
LINE
  5
26F
100
AcDbEntity
  8
THREAD
100
AcDbLine
 62
7
  6
CONTINUOUS
 10
4.9863562308
 20
4.4651233776
 11
4.9863562308
 21
4.5164159601
  0
LINE
  5
270
100
AcDbEntity
  8
THREAD
100
AcDbLine
 62
7
  6
CONTINUOUS
 10
4.9863562308
 20
4.7348209051
 11
4.9863562308
 21
4.7357184326
  0
LINE
  5
271
100
AcDbEntity
  8
03__ASM_ALL_CURVES
100
AcDbLine
 62
40
  6
CONTINUOUS
 10
5.0104912308
 20
4.939946433
 11
5.0104912308
 21
4.9543264335
  0
LINE
  5
272
100
AcDbEntity
  8
03__ASM_ALL_CURVES
100
AcDbLine
 62
40
  6
CONTINUOUS
 10
5.0320612308
 20
4.9543264335
 11
5.0320612308
 21
4.939946433
  0
LINE
  5
273
100
AcDbEntity
  8
03__ASM_ALL_CURVES
100
AcDbLine
 62
40
  6
CONTINUOUS
 10
5.1129487308
 20
4.9435414322
 11
5.1102524808
 21
4.9327564328
  0
LINE
  5
274
100
AcDbEntity
  8
03__ASM_ALL_CURVES
100
AcDbLine
 62
40
  6
CONTINUOUS
 10
5.3702124804
 20
4.9651114335
 11
5.3756049804
 21
4.9687064326
  0
LINE
  5
275
100
AcDbEntity
  8
03__ASM_ALL_CURVES
100
AcDbLine
 62
40
  6
CONTINUOUS
 10
5.4133524804
 20
4.9651114335
 11
5.4187449804
 21
4.9687064326
  0
LINE
  5
276
100
AcDbEntity
  8
03__ASM_ALL_CURVES
100
AcDbLine
 62
40
  6
CONTINUOUS
 10
5.3863899804
 20
4.9291614327
 11
5.3809974804
 21
4.9255664326
  0
LINE
  5
277
100
AcDbEntity
  8
03__ASM_ALL_CURVES
100
AcDbLine
 62
40
  6
CONTINUOUS
 10
4.6680674808
 20
4.9327564328
 11
4.6653712308
 21
4.939946433
  0
LINE
  5
278
100
AcDbEntity
  8
03__ASM_ALL_CURVES
100
AcDbLine
 62
40
  6
CONTINUOUS
 10
4.6842449808
 20
4.9615164317
 11
4.6869412308
 21
4.9543264335
  0
LINE
  5
279
100
AcDbEntity
  8
03__ASM_ALL_CURVES
100
AcDbLine
 62
40
  6
CONTINUOUS
 10
4.8433237308
 20
4.9435414322
 11
4.8460199808
 21
4.9327564328
  0
LINE
  5
27A
100
AcDbEntity
  8
THREAD
100
AcDbLine
 62
7
  6
CONTINUOUS
 10
5.0478562308
 20
3.8192184326
 11
5.0478562308
 21
4.6742184326
  0
LINE
  5
27B
100
AcDbEntity
  8
03__ASM_ALL_CURVES
100
AcDbLine
 62
40
  6
CONTINUOUS
 10
5.0725049808
 20
4.9255664326
 11
5.0725049808
 21
4.9687064326
  0
LINE
  5
27C
100
AcDbEntity
  8
03__ASM_ALL_CURVES
100
AcDbLine
 62
40
  6
CONTINUOUS
 10
5.1129487308
 20
4.9507314317
 11
5.1129487308
 21
4.9435414322
  0
LINE
  5
27D
100
AcDbEntity
  8
03__ASM_ALL_CURVES
100
AcDbLine
 62
40
  6
CONTINUOUS
 10
5.3648199804
 20
4.9579214326
 11
5.3702124804
 21
4.9651114335
  0
LINE
  5
27E
100
AcDbEntity
  8
03__ASM_ALL_CURVES
100
AcDbLine
 62
40
  6
CONTINUOUS
 10
5.3917824804
 20
4.9363514326
 11
5.3863899804
 21
4.9291614327
  0
LINE
  5
27F
100
AcDbEntity
  8
03__ASM_ALL_CURVES
100
AcDbLine
 62
40
  6
CONTINUOUS
 10
5.4079599804
 20
4.9579214326
 11
5.4133524804
 21
4.9651114335
  0
LINE
  5
280
100
AcDbEntity
  8
03__ASM_ALL_CURVES
100
AcDbLine
 62
40
  6
CONTINUOUS
 10
5.4322262304
 20
4.9327564328
 11
5.4295299804
 21
4.9291614327
  0
LINE
  5
281
100
AcDbEntity
  8
0
100
AcDbLine
 62
7
  6
CONTINUOUS
 10
5.2138562308
 20
4.6742184326
 11
5.2053341928
 21
4.6648709801
  0
LINE
  5
282
100
AcDbEntity
  8
03__ASM_ALL_CURVES
100
AcDbLine
 62
40
  6
CONTINUOUS
 10
5.4295299804
 20
4.9291614327
 11
5.4241374804
 21
4.9255664326
  0
LINE
  5
283
100
AcDbEntity
  8
03__ASM_ALL_CURVES
100
AcDbLine
 62
40
  6
CONTINUOUS
 10
6.2712445325
 20
3.6056284326
 11
6.2550670325
 21
3.6056284326
  0
LINE
  5
284
100
AcDbEntity
  8
03__ASM_ALL_CURVES
100
AcDbLine
 62
40
  6
CONTINUOUS
 10
6.2227120325
 20
3.6056284326
 11
6.2388895325
 21
3.6056284326
  0
LINE
  5
285
100
AcDbEntity
  8
0
100
AcDbLine
 62
7
  6
CONTINUOUS
 10
5.2138562308
 20
3.8192184326
 11
5.2053341928
 21
3.8285658851
  0
LINE
  5
286
100
AcDbEntity
  8
03__ASM_ALL_CURVES
100
AcDbLine
 62
40
  6
CONTINUOUS
 10
4.8163612308
 20
4.9471364326
 11
4.8190574808
 21
4.939946433
  0
LINE
  5
287
100
AcDbEntity
  8
0
100
AcDbLine
 62
7
  6
CONTINUOUS
 10
5.1938562308
 20
3.8192184326
 11
5.1938562308
 21
4.6742184326
  0
LINE
  5
288
100
AcDbEntity
  8
0
100
AcDbLine
 62
7
  6
CONTINUOUS
 10
5.2023782688
 20
3.8285658851
 11
5.2023782688
 21
4.6648709801
  0
LINE
  5
289
100
AcDbEntity
  8
0
100
AcDbLine
 62
7
  6
CONTINUOUS
 10
5.2053341928
 20
3.8285658851
 11
5.2053341928
 21
4.6648709801
  0
LINE
  5
28A
100
AcDbEntity
  8
0
100
AcDbLine
 62
7
  6
CONTINUOUS
 10
5.2138562308
 20
3.8192184326
 11
5.2138562308
 21
4.6742184326
  0
LINE
  5
28B
100
AcDbEntity
  8
03__ASM_ALL_CURVES
100
AcDbLine
 62
40
  6
CONTINUOUS
 10
5.2237162308
 20
4.9183764326
 11
5.2237162308
 21
4.9039964326
  0
LINE
  5
28C
100
AcDbEntity
  8
03__ASM_ALL_CURVES
100
AcDbLine
 62
40
  6
CONTINUOUS
 10
5.3621237304
 20
4.9471364326
 11
5.3648199804
 21
4.9579214326
  0
LINE
  5
28D
100
AcDbEntity
  8
03__ASM_ALL_CURVES
100
AcDbLine
 62
40
  6
CONTINUOUS
 10
5.6290524804
 20
4.9651114335
 11
5.6344449804
 21
4.9687064326
  0
LINE
  5
28E
100
AcDbEntity
  8
03__ASM_ALL_CURVES
100
AcDbLine
 62
40
  6
CONTINUOUS
 10
5.6452299804
 20
4.9291614327
 11
5.6398374804
 21
4.9255664326
  0
LINE
  5
28F
100
AcDbEntity
  8
03__ASM_ALL_CURVES
100
AcDbLine
 62
40
  6
CONTINUOUS
 10
5.7207249804
 20
4.9687064326
 11
5.7153324804
 21
4.9651114335
  0
LINE
  5
290
100
AcDbEntity
  8
03__ASM_ALL_CURVES
100
AcDbLine
 62
40
  6
CONTINUOUS
 10
5.7315099804
 20
4.9291614327
 11
5.7261174804
 21
4.9255664326
  0
LINE
  5
291
100
AcDbEntity
  8
03__ASM_ALL_CURVES
100
AcDbLine
 62
40
  6
CONTINUOUS
 10
6.2550670325
 20
3.6218059326
 11
6.26517797
 21
3.6218059326
  0
LINE
  5
292
100
AcDbEntity
  8
03__ASM_ALL_CURVES
100
AcDbLine
 62
40
  6
CONTINUOUS
 10
6.2550670325
 20
3.6379834326
 11
6.2712445325
 21
3.6379834326
  0
LINE
  5
293
100
AcDbEntity
  8
03__ASM_ALL_CURVES
100
AcDbLine
 62
40
  6
CONTINUOUS
 10
6.285399845
 20
3.6379834326
 11
6.30562172
 21
3.6379834326
  0
LINE
  5
294
100
AcDbEntity
  8
03__ASM_ALL_CURVES
100
AcDbLine
 62
40
  6
CONTINUOUS
 10
6.2055234097
 20
3.6523634326
 11
6.2014790347
 21
3.6523634326
  0
LINE
  5
295
100
AcDbEntity
  8
03__ASM_ALL_CURVES
100
AcDbLine
 62
40
  6
CONTINUOUS
 10
6.2924774722
 20
3.6523634326
 11
6.3086549722
 21
3.6523634326
  0
LINE
  5
296
100
AcDbEntity
  8
03__ASM_ALL_CURVES
100
AcDbLine
 62
40
  6
CONTINUOUS
 10
6.2378784097
 20
3.6685409326
 11
6.2277674722
 21
3.6685409326
  0
LINE
  5
297
100
AcDbEntity
  8
03__ASM_ALL_CURVES
100
AcDbLine
 62
40
  6
CONTINUOUS
 10
6.1731684097
 20
3.6685409326
 11
6.1630574722
 21
3.6685409326
  0
LINE
  5
298
100
AcDbEntity
  8
03__ASM_ALL_CURVES
100
AcDbLine
 62
40
  6
CONTINUOUS
 10
6.1630574722
 20
3.6847184326
 11
6.1731684097
 21
3.6847184326
  0
LINE
  5
299
100
AcDbEntity
  8
03__ASM_ALL_CURVES
100
AcDbLine
 62
40
  6
CONTINUOUS
 10
6.2014790347
 20
3.6847184326
 11
6.2055234097
 21
3.6847184326
  0
LINE
  5
29A
100
AcDbEntity
  8
03__ASM_ALL_CURVES
100
AcDbLine
 62
40
  6
CONTINUOUS
 10
6.2277674722
 20
3.6847184326
 11
6.2378784097
 21
3.6847184326
  0
LINE
  5
29B
100
AcDbEntity
  8
03__ASM_ALL_CURVES
100
AcDbLine
 62
40
  6
CONTINUOUS
 10
6.2581002847
 20
3.6847184326
 11
6.2783221597
 21
3.6847184326
  0
LINE
  5
29C
100
AcDbEntity
  8
03__ASM_ALL_CURVES
100
AcDbLine
 62
40
  6
CONTINUOUS
 10
6.2985440347
 20
3.6847184326
 11
6.3025884097
 21
3.6847184326
  0
LINE
  5
29D
100
AcDbEntity
  8
03__ASM_ALL_CURVES
100
AcDbLine
 62
40
  6
CONTINUOUS
 10
4.9269074808
 20
4.9471364326
 11
4.9242112308
 21
4.9543264335
  0
LINE
  5
29E
100
AcDbEntity
  8
0
100
AcDbLine
 62
7
  6
CONTINUOUS
 10
5.2638562308
 20
4.6742184326
 11
5.2638562308
 21
3.8192184326
  0
LINE
  5
29F
100
AcDbEntity
  8
0
100
AcDbLine
 62
7
  6
CONTINUOUS
 10
5.2668562308
 20
4.6712184326
 11
5.2668562308
 21
3.8222184326
  0
LINE
  5
2A0
100
AcDbEntity
  8
03__ASM_ALL_CURVES
100
AcDbLine
 62
40
  6
CONTINUOUS
 10
5.2668562308
 20
4.6814084326
 11
5.2668562308
 21
4.9255664326
  0
LINE
  5
2A1
100
AcDbEntity
  8
0
100
AcDbLine
 62
7
  6
CONTINUOUS
 10
5.2693562308
 20
3.8296618083
 11
5.2693562308
 21
4.6637750569
  0
LINE
  5
2A2
100
AcDbEntity
  8
0
100
AcDbLine
 62
7
  6
CONTINUOUS
 10
5.2890786626
 20
3.8410485596
 11
5.2890786626
 21
4.6523883056
  0
LINE
  5
2A3
100
AcDbEntity
  8
0
100
AcDbLine
 62
7
  6
CONTINUOUS
 10
5.2915786626
 20
3.8417184326
 11
5.2915786626
 21
4.6517184326
  0
LINE
  5
2A4
100
AcDbEntity
  8
03__ASM_ALL_CURVES
100
AcDbLine
 62
40
  6
CONTINUOUS
 10
5.3099962308
 20
4.9183764326
 11
5.3099962308
 21
4.9039964326
  0
LINE
  5
2A5
100
AcDbEntity
  8
0
100
AcDbLine
 62
7
  6
CONTINUOUS
 10
5.3138562308
 20
3.8417184326
 11
5.3138562308
 21
4.6517184326
  0
LINE
  5
2A6
100
AcDbEntity
  8
03__ASM_ALL_CURVES
100
AcDbLine
 62
40
  6
CONTINUOUS
 10
5.3243762304
 20
4.9687064326
 11
5.3243762304
 21
4.9255664326
  0
LINE
  5
2A7
100
AcDbEntity
  8
03__ASM_ALL_CURVES
100
AcDbLine
 62
40
  6
CONTINUOUS
 10
5.3944787304
 20
4.9471364326
 11
5.3917824804
 21
4.9363514326
  0
LINE
  5
2A8
100
AcDbEntity
  8
03__ASM_ALL_CURVES
100
AcDbLine
 62
40
  6
CONTINUOUS
 10
5.4052637304
 20
4.9471364326
 11
5.4079599804
 21
4.9579214326
  0
LINE
  5
2A9
100
AcDbEntity
  8
03__ASM_ALL_CURVES
100
AcDbLine
 62
40
  6
CONTINUOUS
 10
5.4510999804
 20
4.9255664326
 11
5.4645812304
 21
4.9687064326
  0
LINE
  5
2AA
100
AcDbEntity
  8
03__ASM_ALL_CURVES
100
AcDbLine
 62
40
  6
CONTINUOUS
 10
5.6236599804
 20
4.9579214326
 11
5.6290524804
 21
4.9651114335
  0
LINE
  5
2AB
100
AcDbEntity
  8
03__ASM_ALL_CURVES
100
AcDbLine
 62
40
  6
CONTINUOUS
 10
5.6479262304
 20
4.9327564328
 11
5.6452299804
 21
4.9291614327
  0
LINE
  5
2AC
100
AcDbEntity
  8
03__ASM_ALL_CURVES
100
AcDbLine
 62
40
  6
CONTINUOUS
 10
5.7153324804
 20
4.9651114335
 11
5.7126362304
 21
4.9615164317
  0
LINE
  5
2AD
100
AcDbEntity
  8
03__ASM_ALL_CURVES
100
AcDbLine
 62
40
  6
CONTINUOUS
 10
5.8016124804
 20
4.9651114335
 11
5.8070049804
 21
4.9687064326
  0
LINE
  5
2AE
100
AcDbEntity
  8
03__ASM_ALL_CURVES
100
AcDbLine
 62
40
  6
CONTINUOUS
 10
5.8177899804
 20
4.9291614327
 11
5.8123974804
 21
4.9255664326
  0
LINE
  5
2AF
100
AcDbEntity
  8
03__ASM_ALL_CURVES
100
AcDbLine
 62
40
  6
CONTINUOUS
 10
5.8609299804
 20
4.9291614327
 11
5.8555374804
 21
4.9255664326
  0
LINE
  5
2B0
100
AcDbEntity
  8
THREAD
100
AcDbLine
 62
7
  6
CONTINUOUS
 10
4.9863562308
 20
3.7577184326
 11
4.5509198967
 21
3.7577184326
  0
LINE
  5
2B1
100
AcDbEntity
  8
THREAD
100
AcDbLine
 62
7
  6
CONTINUOUS
 10
4.9863562308
 20
3.7586159601
 11
4.5509198967
 21
3.7586159601
  0
LINE
  5
2B2
100
AcDbEntity
  8
03__ASM_ALL_CURVES
100
AcDbLine
 62
40
  6
CONTINUOUS
 10
4.6707637308
 20
4.9291614327
 11
4.6680674808
 21
4.9327564328
  0
LINE
  5
2B3
100
AcDbEntity
  8
03__ASM_ALL_CURVES
100
AcDbLine
 62
40
  6
CONTINUOUS
 10
4.6815487308
 20
4.9651114335
 11
4.6842449808
 21
4.9615164317
  0
LINE
  5
2B4
100
AcDbEntity
  8
03__ASM_ALL_CURVES
100
AcDbLine
 62
40
  6
CONTINUOUS
 10
4.7165999808
 20
4.9291614327
 11
4.7192962308
 21
4.9255664326
  0
LINE
  5
2B5
100
AcDbEntity
  8
0
100
AcDbLine
 62
7
  6
CONTINUOUS
 10
5.4752181907
 20
3.8592184326
 11
5.4576090075
 21
3.8897184326
  0
LINE
  5
2B6
100
AcDbEntity
  8
03__ASM_ALL_CURVES
100
AcDbLine
 62
40
  6
CONTINUOUS
 10
4.9430849808
 20
4.9615164317
 11
4.9457812308
 21
4.9543264335
  0
LINE
  5
2B7
100
AcDbEntity
  8
03__ASM_ALL_CURVES
100
AcDbLine
 62
40
  6
CONTINUOUS
 10
5.0131874808
 20
4.9327564328
 11
5.0104912308
 21
4.939946433
  0
LINE
  5
2B8
100
AcDbEntity
  8
03__ASM_ALL_CURVES
100
AcDbLine
 62
40
  6
CONTINUOUS
 10
5.0293649808
 20
4.9615164317
 11
5.0320612308
 21
4.9543264335
  0
LINE
  5
2B9
100
AcDbEntity
  8
03__ASM_ALL_CURVES
100
AcDbLine
 62
40
  6
CONTINUOUS
 10
5.1102524808
 20
4.9615164317
 11
5.1129487308
 21
4.9507314317
  0
LINE
  5
2BA
100
AcDbEntity
  8
0
100
AcDbLine
 62
7
  6
CONTINUOUS
 10
5.3838562308
 20
3.8422190476
 11
5.3838562308
 21
4.6512178176
  0
LINE
  5
2BB
100
AcDbEntity
  8
0
100
AcDbLine
 62
7
  6
CONTINUOUS
 10
5.4752181907
 20
4.6342184326
 11
5.4576090075
 21
4.6037184326
  0
LINE
  5
2BC
100
AcDbEntity
  8
03__ASM_ALL_CURVES
100
AcDbLine
 62
40
  6
CONTINUOUS
 10
5.7342062304
 20
4.9327564328
 11
5.7315099804
 21
4.9291614327
  0
LINE
  5
2BD
100
AcDbEntity
  8
03__ASM_ALL_CURVES
100
AcDbLine
 62
40
  6
CONTINUOUS
 10
5.7962199804
 20
4.9579214326
 11
5.8016124804
 21
4.9651114335
  0
LINE
  5
2BE
100
AcDbEntity
  8
03__ASM_ALL_CURVES
100
AcDbLine
 62
40
  6
CONTINUOUS
 10
5.9445137304
 20
4.9291614327
 11
5.9391212304
 21
4.9255664326
  0
LINE
  5
2BF
100
AcDbEntity
  8
03__ASM_ALL_CURVES
100
AcDbLine
 62
40
  6
CONTINUOUS
 10
6.0334899804
 20
4.9507314317
 11
6.0280974804
 21
4.9471364326
  0
LINE
  5
2C0
100
AcDbEntity
  8
THREAD
100
AcDbLine
 62
7
  6
CONTINUOUS
 10
5.2638562308
 20
3.8192184326
 11
5.2138562308
 21
3.8192184326
  0
LINE
  5
2C1
100
AcDbEntity
  8
THREAD
100
AcDbLine
 62
7
  6
CONTINUOUS
 10
5.1938562308
 20
3.8192184326
 11
5.0478562308
 21
3.8192184326
  0
LINE
  5
2C2
100
AcDbEntity
  8
0
100
AcDbLine
 62
7
  6
CONTINUOUS
 10
5.3138562308
 20
3.8417184326
 11
5.2915786626
 21
3.8417184326
  0
LINE
  5
2C3
100
AcDbEntity
  8
0
100
AcDbLine
 62
7
  6
CONTINUOUS
 10
5.3838562308
 20
3.8422184326
 11
5.4338562308
 21
3.8422184326
  0
LINE
  5
2C4
100
AcDbEntity
  8
0
100
AcDbLine
 62
7
  6
CONTINUOUS
 10
5.7223562308
 20
3.8592184326
 11
5.4752181907
 21
3.8592184326
  0
LINE
  5
2C5
100
AcDbEntity
  8
0
100
AcDbLine
 62
7
  6
CONTINUOUS
 10
5.4463506773
 20
3.8962184326
 11
5.4338562308
 21
3.8962184326
  0
LINE
  5
2C6
100
AcDbEntity
  8
0
100
AcDbLine
 62
7
  6
CONTINUOUS
 10
5.9448562308
 20
3.9037184326
 11
5.7668562308
 21
3.9037184326
  0
LINE
  5
2C7
100
AcDbEntity
  8
0
100
AcDbLine
 62
7
  6
CONTINUOUS
 10
6.3718562308
 20
3.9042184326
 11
6.4298562308
 21
3.9042184326
  0
LINE
  5
2C8
100
AcDbEntity
  8
0
100
AcDbLine
 62
7
  6
CONTINUOUS
 10
6.5708562308
 20
3.9042184326
 11
6.6228562308
 21
3.9042184326
  0
LINE
  5
2C9
100
AcDbEntity
  8
0
100
AcDbLine
 62
7
  6
CONTINUOUS
 10
6.4298562308
 20
3.9047184326
 11
6.4798562308
 21
3.9047184326
  0
LINE
  5
2CA
100
AcDbEntity
  8
03__ASM_ALL_CURVES
100
AcDbLine
 62
40
  6
CONTINUOUS
 10
4.7974874808
 20
4.9291614327
 11
4.7947912308
 21
4.9327564328
  0
LINE
  5
2CB
100
AcDbEntity
  8
03__ASM_ALL_CURVES
100
AcDbLine
 62
40
  6
CONTINUOUS
 10
4.8136649808
 20
4.9507314317
 11
4.8163612308
 21
4.9471364326
  0
LINE
  5
2CC
100
AcDbEntity
  8
03__ASM_ALL_CURVES
100
AcDbLine
 62
40
  6
CONTINUOUS
 10
4.8460199808
 20
4.9327564328
 11
4.8514124808
 21
4.9255664326
  0
LINE
  5
2CD
100
AcDbEntity
  8
0
100
AcDbLine
 62
7
  6
CONTINUOUS
 10
5.4338562308
 20
3.8422190476
 11
5.4338562308
 21
4.6512178176
  0
LINE
  5
2CE
100
AcDbEntity
  8
0
100
AcDbLine
 62
7
  6
CONTINUOUS
 10
5.4463506773
 20
3.8962184326
 11
5.4463506773
 21
4.5972184326
  0
LINE
  5
2CF
100
AcDbEntity
  8
0
100
AcDbLine
 62
7
  6
CONTINUOUS
 10
5.4576090075
 20
3.8897184326
 11
5.4576090075
 21
4.6037184326
  0
LINE
  5
2D0
100
AcDbEntity
  8
0
100
AcDbLine
 62
7
  6
CONTINUOUS
 10
5.4752181907
 20
3.8592184326
 11
5.4752181907
 21
4.6342184326
  0
LINE
  5
2D1
100
AcDbEntity
  8
03__ASM_ALL_CURVES
100
AcDbLine
 62
40
  6
CONTINUOUS
 10
5.5077212304
 20
4.9687064326
 11
5.5077212304
 21
4.9255664326
  0
LINE
  5
2D2
100
AcDbEntity
  8
03__ASM_ALL_CURVES
100
AcDbLine
 62
40
  6
CONTINUOUS
 10
5.6209637304
 20
4.9471364326
 11
5.6236599804
 21
4.9579214326
  0
LINE
  5
2D3
100
AcDbEntity
  8
03__ASM_ALL_CURVES
100
AcDbLine
 62
40
  6
CONTINUOUS
 10
5.8231824804
 20
4.9363514326
 11
5.8177899804
 21
4.9291614327
  0
LINE
  5
2D4
100
AcDbEntity
  8
03__ASM_ALL_CURVES
100
AcDbLine
 62
40
  6
CONTINUOUS
 10
5.8636262304
 20
4.9327564328
 11
5.8609299804
 21
4.9291614327
  0
LINE
  5
2D5
100
AcDbEntity
  8
0
100
AcDbLine
 62
7
  6
CONTINUOUS
 10
6.5708562308
 20
3.9587184326
 11
6.5498562308
 21
3.9587184326
  0
LINE
  5
2D6
100
AcDbEntity
  8
0
100
AcDbLine
 62
7
  6
CONTINUOUS
 10
6.3568562308
 20
3.9662184326
 11
6.1480250144
 21
3.9662184326
  0
LINE
  5
2D7
100
AcDbEntity
  8
0
100
AcDbLine
 62
7
  6
CONTINUOUS
 10
6.0036874471
 20
3.9662184326
 11
5.9548562308
 21
3.9662184326
  0
LINE
  5
2D8
100
AcDbEntity
  8
THREAD
100
AcDbLine
 62
7
  6
CONTINUOUS
 10
4.9863562308
 20
3.9770209051
 11
4.5509198967
 21
3.9770209051
  0
LINE
  5
2D9
100
AcDbEntity
  8
03__ASM_ALL_CURVES
100
AcDbLine
 62
40
  6
CONTINUOUS
 10
6.2014790347
 20
3.6523634326
 11
6.1974346597
 21
3.6550596827
  0
LINE
  5
2DA
100
AcDbEntity
  8
03__ASM_ALL_CURVES
100
AcDbLine
 62
40
  6
CONTINUOUS
 10
6.1731684097
 20
3.6847184326
 11
6.1772127847
 21
3.6820221832
  0
LINE
  5
2DB
100
AcDbEntity
  8
03__ASM_ALL_CURVES
100
AcDbLine
 62
40
  6
CONTINUOUS
 10
4.9296037308
 20
4.9291614327
 11
4.9269074808
 21
4.9327564328
  0
LINE
  5
2DC
100
AcDbEntity
  8
03__ASM_ALL_CURVES
100
AcDbLine
 62
40
  6
CONTINUOUS
 10
4.9403887308
 20
4.9651114335
 11
4.9430849808
 21
4.9615164317
  0
LINE
  5
2DD
100
AcDbEntity
  8
03__ASM_ALL_CURVES
100
AcDbLine
 62
40
  6
CONTINUOUS
 10
5.5508612304
 20
4.9687064326
 11
5.5508612304
 21
4.9255664326
  0
LINE
  5
2DE
100
AcDbEntity
  8
03__ASM_ALL_CURVES
100
AcDbLine
 62
40
  6
CONTINUOUS
 10
5.5832162304
 20
4.9255664326
 11
5.5832162304
 21
4.9687064326
  0
LINE
  5
2DF
100
AcDbEntity
  8
03__ASM_ALL_CURVES
100
AcDbLine
 62
40
  6
CONTINUOUS
 10
5.6047862304
 20
4.9255664326
 11
5.6047862304
 21
4.9687064326
  0
LINE
  5
2E0
100
AcDbEntity
  8
03__ASM_ALL_CURVES
100
AcDbLine
 62
40
  6
CONTINUOUS
 10
5.9499062304
 20
4.9363514326
 11
5.9445137304
 21
4.9291614327
  0
LINE
  5
2E1
100
AcDbEntity
  8
03__ASM_ALL_CURVES
100
AcDbLine
 62
40
  6
CONTINUOUS
 10
6.0361862304
 20
4.9543264335
 11
6.0334899804
 21
4.9507314317
  0
LINE
  5
2E2
100
AcDbEntity
  8
THREAD
100
AcDbLine
 62
7
  6
CONTINUOUS
 10
5.0478562308
 20
3.8192184326
 11
4.9868049945
 21
3.7581671963
  0
LINE
  5
2E3
100
AcDbEntity
  8
THREAD
100
AcDbLine
 62
7
  6
CONTINUOUS
 10
4.9863562308
 20
4.0283134876
 11
4.5509198967
 21
4.0283134876
  0
LINE
  5
2E4
100
AcDbEntity
  8
03__ASM_ALL_CURVES
100
AcDbLine
 62
40
  6
CONTINUOUS
 10
6.2055234097
 20
3.6847184326
 11
6.2095677847
 21
3.6820221832
  0
LINE
  5
2E5
100
AcDbEntity
  8
03__ASM_ALL_CURVES
100
AcDbLine
 62
40
  6
CONTINUOUS
 10
6.2378784097
 20
3.6847184326
 11
6.2419227847
 21
3.6820221832
  0
LINE
  5
2E6
100
AcDbEntity
  8
03__ASM_ALL_CURVES
100
AcDbLine
 62
40
  6
CONTINUOUS
 10
6.3025884097
 20
3.6847184326
 11
6.3066327847
 21
3.6820221832
  0
LINE
  5
2E7
100
AcDbEntity
  8
THREAD
100
AcDbLine
 62
7
  6
CONTINUOUS
 10
5.0478562308
 20
4.6742184326
 11
4.9868049945
 21
4.7352696688
  0
LINE
  5
2E8
100
AcDbEntity
  8
0
100
AcDbLine
 62
7
  6
CONTINUOUS
 10
5.2023782688
 20
4.6648709801
 11
5.1938562308
 21
4.6742184326
  0
LINE
  5
2E9
100
AcDbEntity
  8
03__ASM_ALL_CURVES
100
AcDbLine
 62
40
  6
CONTINUOUS
 10
4.9754399808
 20
4.9291614327
 11
4.9781362308
 21
4.9255664326
  0
LINE
  5
2EA
100
AcDbEntity
  8
03__ASM_ALL_CURVES
100
AcDbLine
 62
40
  6
CONTINUOUS
 10
5.0158837308
 20
4.9291614327
 11
5.0131874808
 21
4.9327564328
  0
LINE
  5
2EB
100
AcDbEntity
  8
03__ASM_ALL_CURVES
100
AcDbLine
 62
40
  6
CONTINUOUS
 10
5.0266687308
 20
4.9651114335
 11
5.0293649808
 21
4.9615164317
  0
LINE
  5
2EC
100
AcDbEntity
  8
03__ASM_ALL_CURVES
100
AcDbLine
 62
40
  6
CONTINUOUS
 10
5.3648199804
 20
4.9363514326
 11
5.3621237304
 21
4.9471364326
  0
LINE
  5
2ED
100
AcDbEntity
  8
03__ASM_ALL_CURVES
100
AcDbLine
 62
40
  6
CONTINUOUS
 10
5.3917824804
 20
4.9579214326
 11
5.3944787304
 21
4.9471364326
  0
LINE
  5
2EE
100
AcDbEntity
  8
03__ASM_ALL_CURVES
100
AcDbLine
 62
40
  6
CONTINUOUS
 10
5.4079599804
 20
4.9363514326
 11
5.4052637304
 21
4.9471364326
  0
LINE
  5
2EF
100
AcDbEntity
  8
03__ASM_ALL_CURVES
100
AcDbLine
 62
40
  6
CONTINUOUS
 10
5.6479262304
 20
4.9471364326
 11
5.6479262304
 21
4.9327564328
  0
LINE
  5
2F0
100
AcDbEntity
  8
03__ASM_ALL_CURVES
100
AcDbLine
 62
40
  6
CONTINUOUS
 10
5.7126362304
 20
4.9615164317
 11
5.7126362304
 21
4.9579214326
  0
LINE
  5
2F1
100
AcDbEntity
  8
03__ASM_ALL_CURVES
100
AcDbLine
 62
40
  6
CONTINUOUS
 10
5.7935237304
 20
4.9471364326
 11
5.7962199804
 21
4.9579214326
  0
LINE
  5
2F2
100
AcDbEntity
  8
03__ASM_ALL_CURVES
100
AcDbLine
 62
40
  6
CONTINUOUS
 10
5.8258787304
 20
4.9471364326
 11
5.8231824804
 21
4.9363514326
  0
LINE
  5
2F3
100
AcDbEntity
  8
0
100
AcDbLine
 62
7
  6
CONTINUOUS
 10
5.2023782688
 20
3.8285658851
 11
5.1938562308
 21
3.8192184326
  0
LINE
  5
2F4
100
AcDbEntity
  8
03__ASM_ALL_CURVES
100
AcDbLine
 62
40
  6
CONTINUOUS
 10
4.6761562308
 20
4.9255664326
 11
4.6707637308
 21
4.9291614327
  0
LINE
  5
2F5
100
AcDbEntity
  8
03__ASM_ALL_CURVES
100
AcDbLine
 62
40
  6
CONTINUOUS
 10
5.1048599808
 20
4.9687064326
 11
5.1102524808
 21
4.9615164317
  0
LINE
  5
2F6
100
AcDbEntity
  8
03__ASM_ALL_CURVES
100
AcDbLine
 62
40
  6
CONTINUOUS
 10
5.4645812304
 20
4.9687064326
 11
5.4780624804
 21
4.9255664326
  0
LINE
  5
2F7
100
AcDbEntity
  8
0
100
AcDbLine
 62
7
  6
CONTINUOUS
 10
5.7223562308
 20
3.8592184326
 11
5.7223562308
 21
4.6342184326
  0
LINE
  5
2F8
100
AcDbEntity
  8
03__ASM_ALL_CURVES
100
AcDbLine
 62
40
  6
CONTINUOUS
 10
5.7342062304
 20
4.939946433
 11
5.7342062304
 21
4.9327564328
  0
LINE
  5
2F9
100
AcDbEntity
  8
03__ASM_ALL_CURVES
100
AcDbLine
 62
40
  6
CONTINUOUS
 10
5.7557762304
 20
4.9687064326
 11
5.7557762304
 21
4.9255664326
  0
LINE
  5
2FA
100
AcDbEntity
  8
0
100
AcDbLine
 62
7
  6
CONTINUOUS
 10
5.7668562308
 20
3.9037184326
 11
5.7668562308
 21
4.5897184326
  0
LINE
  5
2FB
100
AcDbEntity
  8
03__ASM_ALL_CURVES
100
AcDbLine
 62
40
  6
CONTINUOUS
 10
5.7773462304
 20
4.9687064326
 11
5.7773462304
 21
4.9255664326
  0
LINE
  5
2FC
100
AcDbEntity
  8
03__ASM_ALL_CURVES
100
AcDbLine
 62
40
  6
CONTINUOUS
 10
5.9526024804
 20
4.9471364326
 11
5.9499062304
 21
4.9363514326
  0
LINE
  5
2FD
100
AcDbEntity
  8
03__ASM_ALL_CURVES
100
AcDbLine
 62
40
  6
CONTINUOUS
 10
7.0514981059
 20
4.2071734326
 11
7.0353206059
 21
4.2071734326
  0
LINE
  5
2FE
100
AcDbEntity
  8
03__ASM_ALL_CURVES
100
AcDbLine
 62
40
  6
CONTINUOUS
 10
6.9483665434
 20
4.2071734326
 11
6.9443221684
 21
4.2071734326
  0
LINE
  5
2FF
100
AcDbEntity
  8
03__ASM_ALL_CURVES
100
AcDbLine
 62
40
  6
CONTINUOUS
 10
6.9160115434
 20
4.2071734326
 11
6.9119671684
 21
4.2071734326
  0
LINE
  5
300
100
AcDbEntity
  8
03__ASM_ALL_CURVES
100
AcDbLine
 62
40
  6
CONTINUOUS
 10
7.0029656059
 20
4.2071734326
 11
7.0191431059
 21
4.2071734326
  0
LINE
  5
301
100
AcDbEntity
  8
03__ASM_ALL_CURVES
100
AcDbLine
 62
40
  6
CONTINUOUS
 10
7.0353206059
 20
4.2233509326
 11
7.0454315434
 21
4.2233509326
  0
LINE
  5
302
100
AcDbEntity
  8
03__ASM_ALL_CURVES
100
AcDbLine
 62
40
  6
CONTINUOUS
 10
6.9119671684
 20
4.2395284326
 11
6.9160115434
 21
4.2395284326
  0
LINE
  5
303
100
AcDbEntity
  8
03__ASM_ALL_CURVES
100
AcDbLine
 62
40
  6
CONTINUOUS
 10
6.9685884184
 20
4.2395284326
 11
6.9888102934
 21
4.2395284326
  0
LINE
  5
304
100
AcDbEntity
  8
03__ASM_ALL_CURVES
100
AcDbLine
 62
40
  6
CONTINUOUS
 10
7.0353206059
 20
4.2395284326
 11
7.0514981059
 21
4.2395284326
  0
LINE
  5
305
100
AcDbEntity
  8
03__ASM_ALL_CURVES
100
AcDbLine
 62
40
  6
CONTINUOUS
 10
7.0656534184
 20
4.2395284326
 11
7.0858752934
 21
4.2395284326
  0
LINE
  5
306
100
AcDbEntity
  8
03__ASM_ALL_CURVES
100
AcDbLine
 62
40
  6
CONTINUOUS
 10
6.9443221684
 20
4.2539084326
 11
6.9402777934
 21
4.2539084326
  0
LINE
  5
307
100
AcDbEntity
  8
03__ASM_ALL_CURVES
100
AcDbLine
 62
40
  6
CONTINUOUS
 10
6.9766771684
 20
4.2700859326
 11
6.9665662309
 21
4.2700859326
  0
LINE
  5
308
100
AcDbEntity
  8
03__ASM_ALL_CURVES
100
AcDbLine
 62
40
  6
CONTINUOUS
 10
6.9119671684
 20
4.2700859326
 11
6.9018562309
 21
4.2700859326
  0
LINE
  5
309
100
AcDbEntity
  8
03__ASM_ALL_CURVES
100
AcDbLine
 62
40
  6
CONTINUOUS
 10
6.9018562309
 20
4.2862634326
 11
6.9119671684
 21
4.2862634326
  0
LINE
  5
30A
100
AcDbEntity
  8
03__ASM_ALL_CURVES
100
AcDbLine
 62
40
  6
CONTINUOUS
 10
6.9402777934
 20
4.2862634326
 11
6.9443221684
 21
4.2862634326
  0
LINE
  5
30B
100
AcDbEntity
  8
03__ASM_ALL_CURVES
100
AcDbLine
 62
40
  6
CONTINUOUS
 10
6.9665662309
 20
4.2862634326
 11
6.9766771684
 21
4.2862634326
  0
LINE
  5
30C
100
AcDbEntity
  8
03__ASM_ALL_CURVES
100
AcDbLine
 62
40
  6
CONTINUOUS
 10
6.9968990434
 20
4.2862634326
 11
7.0171209184
 21
4.2862634326
  0
LINE
  5
30D
100
AcDbEntity
  8
03__ASM_ALL_CURVES
100
AcDbLine
 62
40
  6
CONTINUOUS
 10
4.6761562308
 20
4.9687064326
 11
4.6815487308
 21
4.9651114335
  0
LINE
  5
30E
100
AcDbEntity
  8
03__ASM_ALL_CURVES
100
AcDbLine
 62
40
  6
CONTINUOUS
 10
4.8028799808
 20
4.9255664326
 11
4.7974874808
 21
4.9291614327
  0
LINE
  5
30F
100
AcDbEntity
  8
03__ASM_ALL_CURVES
100
AcDbLine
 62
40
  6
CONTINUOUS
 10
4.8082724808
 20
4.9543264335
 11
4.8136649808
 21
4.9507314317
  0
LINE
  5
310
100
AcDbEntity
  8
03__ASM_ALL_CURVES
100
AcDbLine
 62
40
  6
CONTINUOUS
 10
6.1974346597
 20
3.6550596827
 11
6.1933902847
 21
3.6604521826
  0
LINE
  5
311
100
AcDbEntity
  8
03__ASM_ALL_CURVES
100
AcDbLine
 62
40
  6
CONTINUOUS
 10
6.1772127847
 20
3.6820221832
 11
6.1792349722
 21
3.679325932
  0
LINE
  5
312
100
AcDbEntity
  8
03__ASM_ALL_CURVES
100
AcDbLine
 62
40
  6
CONTINUOUS
 10
6.2095677847
 20
3.6820221832
 11
6.2136121597
 21
3.6766296826
  0
LINE
  5
313
100
AcDbEntity
  8
03__ASM_ALL_CURVES
100
AcDbLine
 62
40
  6
CONTINUOUS
 10
6.2419227847
 20
3.6820221832
 11
6.2439449722
 21
3.679325932
  0
LINE
  5
314
100
AcDbEntity
  8
03__ASM_ALL_CURVES
100
AcDbLine
 62
40
  6
CONTINUOUS
 10
5.6236599804
 20
4.9363514326
 11
5.6209637304
 21
4.9471364326
  0
LINE
  5
315
100
AcDbEntity
  8
03__ASM_ALL_CURVES
100
AcDbLine
 62
40
  6
CONTINUOUS
 10
5.8420562304
 20
4.9327564328
 11
5.8420562304
 21
4.9687064326
  0
LINE
  5
316
100
AcDbEntity
  8
03__ASM_ALL_CURVES
100
AcDbLine
 62
40
  6
CONTINUOUS
 10
5.8636262304
 20
4.9687064326
 11
5.8636262304
 21
4.9327564328
  0
LINE
  5
317
100
AcDbEntity
  8
03__ASM_ALL_CURVES
100
AcDbLine
 62
40
  6
CONTINUOUS
 10
5.8851962304
 20
4.9687064326
 11
5.8851962304
 21
4.9255664326
  0
LINE
  5
318
100
AcDbEntity
  8
0
100
AcDbLine
 62
7
  6
CONTINUOUS
 10
5.2890786626
 20
4.6523883056
 11
5.2693562308
 21
4.6637750569
  0
LINE
  5
319
100
AcDbEntity
  8
03__ASM_ALL_CURVES
100
AcDbLine
 62
40
  6
CONTINUOUS
 10
4.9349962308
 20
4.9255664326
 11
4.9296037308
 21
4.9291614327
  0
LINE
  5
31A
100
AcDbEntity
  8
03__ASM_ALL_CURVES
100
AcDbLine
 62
40
  6
CONTINUOUS
 10
4.9349962308
 20
4.9687064326
 11
4.9403887308
 21
4.9651114335
  0
LINE
  5
31B
100
AcDbEntity
  8
03__ASM_ALL_CURVES
100
AcDbLine
 62
40
  6
CONTINUOUS
 10
5.0212762308
 20
4.9255664326
 11
5.0158837308
 21
4.9291614327
  0
LINE
  5
31C
100
AcDbEntity
  8
03__ASM_ALL_CURVES
100
AcDbLine
 62
40
  6
CONTINUOUS
 10
5.3702124804
 20
4.9291614327
 11
5.3648199804
 21
4.9363514326
  0
LINE
  5
31D
100
AcDbEntity
  8
03__ASM_ALL_CURVES
100
AcDbLine
 62
40
  6
CONTINUOUS
 10
6.3066327847
 20
3.6820221832
 11
6.3086549722
 21
3.679325932
  0
LINE
  5
31E
100
AcDbEntity
  8
03__ASM_ALL_CURVES
100
AcDbLine
 62
40
  6
CONTINUOUS
 10
5.4133524804
 20
4.9291614327
 11
5.4079599804
 21
4.9363514326
  0
LINE
  5
31F
100
AcDbEntity
  8
03__ASM_ALL_CURVES
100
AcDbLine
 62
40
  6
CONTINUOUS
 10
5.3863899804
 20
4.9651114335
 11
5.3917824804
 21
4.9579214326
  0
LINE
  5
320
100
AcDbEntity
  8
03__ASM_ALL_CURVES
100
AcDbLine
 62
40
  6
CONTINUOUS
 10
5.4295299804
 20
4.9651114335
 11
5.4322262304
 21
4.9615164317
  0
LINE
  5
321
100
AcDbEntity
  8
03__ASM_ALL_CURVES
100
AcDbLine
 62
40
  6
CONTINUOUS
 10
6.1903570325
 20
3.6379834326
 11
6.2065345325
 21
3.6056284326
  0
LINE
  5
322
100
AcDbEntity
  8
03__ASM_ALL_CURVES
100
AcDbLine
 62
40
  6
CONTINUOUS
 10
5.5832162304
 20
4.9687064326
 11
5.6047862304
 21
4.9255664326
  0
LINE
  5
323
100
AcDbEntity
  8
03__ASM_ALL_CURVES
100
AcDbLine
 62
40
  6
CONTINUOUS
 10
5.9283362304
 20
4.9255664326
 11
5.9283362304
 21
4.9687064326
  0
LINE
  5
324
100
AcDbEntity
  8
0
100
AcDbLine
 62
7
  6
CONTINUOUS
 10
5.9448562308
 20
3.9037184326
 11
5.9448562308
 21
4.5897184326
  0
LINE
  5
325
100
AcDbEntity
  8
0
100
AcDbLine
 62
7
  6
CONTINUOUS
 10
5.9548562308
 20
3.9137184326
 11
5.9548562308
 21
4.5797184326
  0
LINE
  5
326
100
AcDbEntity
  8
03__ASM_ALL_CURVES
100
AcDbLine
 62
40
  6
CONTINUOUS
 10
5.9714762304
 20
4.9255664326
 11
5.9714762304
 21
4.9687064326
  0
LINE
  5
327
100
AcDbEntity
  8
0
100
AcDbLine
 62
7
  6
CONTINUOUS
 10
6.3568562308
 20
4.5742184326
 11
6.3718562308
 21
4.5892184326
  0
LINE
  5
328
100
AcDbEntity
  8
0
100
AcDbLine
 62
7
  6
CONTINUOUS
 10
5.2890786626
 20
3.8410485596
 11
5.2693562308
 21
3.8296618083
  0
LINE
  5
329
100
AcDbEntity
  8
THREAD
100
AcDbLine
 62
7
  6
CONTINUOUS
 10
4.9863562308
 20
4.4651233776
 11
4.5509198967
 21
4.4651233776
  0
LINE
  5
32A
100
AcDbEntity
  8
03__ASM_ALL_CURVES
100
AcDbLine
 62
40
  6
CONTINUOUS
 10
5.0212762308
 20
4.9687064326
 11
5.0266687308
 21
4.9651114335
  0
LINE
  5
32B
100
AcDbEntity
  8
0
100
AcDbLine
 62
7
  6
CONTINUOUS
 10
6.3568562308
 20
3.9192184326
 11
6.3718562308
 21
3.9042184326
  0
LINE
  5
32C
100
AcDbEntity
  8
0
100
AcDbLine
 62
7
  6
CONTINUOUS
 10
5.7668562308
 20
4.5897184326
 11
5.7223562308
 21
4.6342184326
  0
LINE
  5
32D
100
AcDbEntity
  8
03__ASM_ALL_CURVES
100
AcDbLine
 62
40
  6
CONTINUOUS
 10
6.2378784097
 20
3.6685409326
 11
6.2439449722
 21
3.6523634326
  0
LINE
  5
32E
100
AcDbEntity
  8
03__ASM_ALL_CURVES
100
AcDbLine
 62
40
  6
CONTINUOUS
 10
5.7962199804
 20
4.9363514326
 11
5.7935237304
 21
4.9471364326
  0
LINE
  5
32F
100
AcDbEntity
  8
03__ASM_ALL_CURVES
100
AcDbLine
 62
40
  6
CONTINUOUS
 10
5.8231824804
 20
4.9579214326
 11
5.8258787304
 21
4.9471364326
  0
LINE
  5
330
100
AcDbEntity
  8
03__ASM_ALL_CURVES
100
AcDbLine
 62
40
  6
CONTINUOUS
 10
6.0146162304
 20
4.9255664326
 11
6.0146162304
 21
4.9687064326
  0
LINE
  5
331
100
AcDbEntity
  8
03__ASM_ALL_CURVES
100
AcDbLine
 62
40
  6
CONTINUOUS
 10
6.0361862304
 20
4.9615164317
 11
6.0361862304
 21
4.9543264335
  0
LINE
  5
332
100
AcDbEntity
  8
0
100
AcDbLine
 62
7
  6
CONTINUOUS
 10
5.7668562308
 20
3.9037184326
 11
5.7223562308
 21
3.8592184326
  0
LINE
  5
333
100
AcDbEntity
  8
THREAD
100
AcDbLine
 62
7
  6
CONTINUOUS
 10
4.9863562308
 20
4.5164159601
 11
4.5509198967
 21
4.5164159601
  0
LINE
  5
334
100
AcDbEntity
  8
0
100
AcDbLine
 62
7
  6
CONTINUOUS
 10
6.3568562308
 20
4.5272184326
 11
6.1480250144
 21
4.5272184326
  0
LINE
  5
335
100
AcDbEntity
  8
0
100
AcDbLine
 62
7
  6
CONTINUOUS
 10
6.0036874471
 20
4.5272184326
 11
5.9548562308
 21
4.5272184326
  0
LINE
  5
336
100
AcDbEntity
  8
0
100
AcDbLine
 62
7
  6
CONTINUOUS
 10
6.5708562308
 20
4.5347184326
 11
6.5498562308
 21
4.5347184326
  0
LINE
  5
337
100
AcDbEntity
  8
0
100
AcDbLine
 62
7
  6
CONTINUOUS
 10
6.4298562308
 20
4.5887184326
 11
6.4798562308
 21
4.5887184326
  0
LINE
  5
338
100
AcDbEntity
  8
0
100
AcDbLine
 62
7
  6
CONTINUOUS
 10
6.3718562308
 20
4.5892184326
 11
6.4298562308
 21
4.5892184326
  0
LINE
  5
339
100
AcDbEntity
  8
0
100
AcDbLine
 62
7
  6
CONTINUOUS
 10
6.5708562308
 20
4.5892184326
 11
6.6228562308
 21
4.5892184326
  0
LINE
  5
33A
100
AcDbEntity
  8
0
100
AcDbLine
 62
7
  6
CONTINUOUS
 10
5.9448562308
 20
4.5897184326
 11
5.7668562308
 21
4.5897184326
  0
LINE
  5
33B
100
AcDbEntity
  8
03__ASM_ALL_CURVES
100
AcDbLine
 62
40
  6
CONTINUOUS
 10
4.9349962308
 20
4.9435414322
 11
4.9269074808
 21
4.9471364326
  0
LINE
  5
33C
100
AcDbEntity
  8
03__ASM_ALL_CURVES
100
AcDbLine
 62
40
  6
CONTINUOUS
 10
5.3756049804
 20
4.9255664326
 11
5.3702124804
 21
4.9291614327
  0
LINE
  5
33D
100
AcDbEntity
  8
03__ASM_ALL_CURVES
100
AcDbLine
 62
40
  6
CONTINUOUS
 10
5.6290524804
 20
4.9291614327
 11
5.6236599804
 21
4.9363514326
  0
LINE
  5
33E
100
AcDbEntity
  8
03__ASM_ALL_CURVES
100
AcDbLine
 62
40
  6
CONTINUOUS
 10
5.6452299804
 20
4.9651114335
 11
5.6479262304
 21
4.9615164317
  0
LINE
  5
33F
100
AcDbEntity
  8
03__ASM_ALL_CURVES
100
AcDbLine
 62
40
  6
CONTINUOUS
 10
6.1933902847
 20
3.6604521826
 11
6.1913680972
 21
3.6685409326
  0
LINE
  5
340
100
AcDbEntity
  8
03__ASM_ALL_CURVES
100
AcDbLine
 62
40
  6
CONTINUOUS
 10
6.2136121597
 20
3.6766296826
 11
6.2156343472
 21
3.6685409326
  0
LINE
  5
341
100
AcDbEntity
  8
03__ASM_ALL_CURVES
100
AcDbLine
 62
40
  6
CONTINUOUS
 10
6.1630574722
 20
3.6523634326
 11
6.1630574722
 21
3.6847184326
  0
LINE
  5
342
100
AcDbEntity
  8
03__ASM_ALL_CURVES
100
AcDbLine
 62
40
  6
CONTINUOUS
 10
6.1660907825
 20
3.6379834326
 11
6.1660907825
 21
3.6056284326
  0
LINE
  5
343
100
AcDbEntity
  8
03__ASM_ALL_CURVES
100
AcDbLine
 62
40
  6
CONTINUOUS
 10
6.1792349722
 20
3.679325932
 11
6.1792349722
 21
3.6739334332
  0
LINE
  5
344
100
AcDbEntity
  8
03__ASM_ALL_CURVES
100
AcDbLine
 62
40
  6
CONTINUOUS
 10
6.1903570325
 20
3.6056284326
 11
6.1903570325
 21
3.6379834326
  0
LINE
  5
345
100
AcDbEntity
  8
0
100
AcDbLine
 62
7
  6
CONTINUOUS
 10
5.9548562308
 20
3.9137184326
 11
5.9448562308
 21
3.9037184326
  0
LINE
  5
346
100
AcDbEntity
  8
0
100
AcDbLine
 62
7
  6
CONTINUOUS
 10
5.4463506773
 20
4.5972184326
 11
5.4338562308
 21
4.5972184326
  0
LINE
  5
347
100
AcDbEntity
  8
0
100
AcDbLine
 62
7
  6
CONTINUOUS
 10
5.7223562308
 20
4.6342184326
 11
5.4752181907
 21
4.6342184326
  0
LINE
  5
348
100
AcDbEntity
  8
0
100
AcDbLine
 62
7
  6
CONTINUOUS
 10
5.3838562308
 20
4.6512184326
 11
5.4338562308
 21
4.6512184326
  0
LINE
  5
349
100
AcDbEntity
  8
0
100
AcDbLine
 62
7
  6
CONTINUOUS
 10
5.3138562308
 20
4.6517184326
 11
5.2915786626
 21
4.6517184326
  0
LINE
  5
34A
100
AcDbEntity
  8
THREAD
100
AcDbLine
 62
7
  6
CONTINUOUS
 10
5.2638562308
 20
4.6742184326
 11
5.2138562308
 21
4.6742184326
  0
LINE
  5
34B
100
AcDbEntity
  8
THREAD
100
AcDbLine
 62
7
  6
CONTINUOUS
 10
5.1938562308
 20
4.6742184326
 11
5.0478562308
 21
4.6742184326
  0
LINE
  5
34C
100
AcDbEntity
  8
03__ASM_ALL_CURVES
100
AcDbLine
 62
40
  6
CONTINUOUS
 10
5.4187449804
 20
4.9255664326
 11
5.4133524804
 21
4.9291614327
  0
LINE
  5
34D
100
AcDbEntity
  8
03__ASM_ALL_CURVES
100
AcDbLine
 62
40
  6
CONTINUOUS
 10
5.3809974804
 20
4.9687064326
 11
5.3863899804
 21
4.9651114335
  0
LINE
  5
34E
100
AcDbEntity
  8
03__ASM_ALL_CURVES
100
AcDbLine
 62
40
  6
CONTINUOUS
 10
5.4241374804
 20
4.9687064326
 11
5.4295299804
 21
4.9651114335
  0
LINE
  5
34F
100
AcDbEntity
  8
0
100
AcDbLine
 62
7
  6
CONTINUOUS
 10
5.9548562308
 20
4.5797184326
 11
5.9448562308
 21
4.5897184326
  0
LINE
  5
350
100
AcDbEntity
  8
03__ASM_ALL_CURVES
100
AcDbLine
 62
40
  6
CONTINUOUS
 10
5.7153324804
 20
4.9291614327
 11
5.7099399804
 21
4.9363514326
  0
LINE
  5
351
100
AcDbEntity
  8
03__ASM_ALL_CURVES
100
AcDbLine
 62
40
  6
CONTINUOUS
 10
5.7126362304
 20
4.9579214326
 11
5.7153324804
 21
4.9543264335
  0
LINE
  5
352
100
AcDbEntity
  8
03__ASM_ALL_CURVES
100
AcDbLine
 62
40
  6
CONTINUOUS
 10
5.7315099804
 20
4.9435414322
 11
5.7342062304
 21
4.939946433
  0
LINE
  5
353
100
AcDbEntity
  8
03__ASM_ALL_CURVES
100
AcDbLine
 62
40
  6
CONTINUOUS
 10
5.7342062304
 20
4.9615164317
 11
5.7315099804
 21
4.9651114335
  0
LINE
  5
354
100
AcDbEntity
  8
03__ASM_ALL_CURVES
100
AcDbLine
 62
40
  6
CONTINUOUS
 10
5.8016124804
 20
4.9291614327
 11
5.7962199804
 21
4.9363514326
  0
LINE
  5
355
100
AcDbEntity
  8
03__ASM_ALL_CURVES
100
AcDbLine
 62
40
  6
CONTINUOUS
 10
5.9499062304
 20
4.9579214326
 11
5.9526024804
 21
4.9471364326
  0
LINE
  5
356
100
AcDbEntity
  8
03__ASM_ALL_CURVES
100
AcDbLine
 62
40
  6
CONTINUOUS
 10
6.2065345325
 20
3.6056284326
 11
6.2065345325
 21
3.6379834326
  0
LINE
  5
357
100
AcDbEntity
  8
03__ASM_ALL_CURVES
100
AcDbLine
 62
40
  6
CONTINUOUS
 10
6.2227120325
 20
3.6379834326
 11
6.2227120325
 21
3.6056284326
  0
LINE
  5
358
100
AcDbEntity
  8
03__ASM_ALL_CURVES
100
AcDbLine
 62
40
  6
CONTINUOUS
 10
6.2277674722
 20
3.6523634326
 11
6.2277674722
 21
3.6847184326
  0
LINE
  5
359
100
AcDbEntity
  8
03__ASM_ALL_CURVES
100
AcDbLine
 62
40
  6
CONTINUOUS
 10
6.2439449722
 20
3.679325932
 11
6.2439449722
 21
3.6739334332
  0
LINE
  5
35A
100
AcDbEntity
  8
03__ASM_ALL_CURVES
100
AcDbLine
 62
40
  6
CONTINUOUS
 10
6.2550670325
 20
3.6056284326
 11
6.2550670325
 21
3.6379834326
  0
LINE
  5
35B
100
AcDbEntity
  8
03__ASM_ALL_CURVES
100
AcDbLine
 62
40
  6
CONTINUOUS
 10
6.2682112222
 20
3.6847184326
 11
6.2682112222
 21
3.6523634326
  0
LINE
  5
35C
100
AcDbEntity
  8
03__ASM_ALL_CURVES
100
AcDbLine
 62
40
  6
CONTINUOUS
 10
6.2955107825
 20
3.6379834326
 11
6.2955107825
 21
3.6056284326
  0
LINE
  5
35D
100
AcDbEntity
  8
THREAD
100
AcDbLine
 62
7
  6
CONTINUOUS
 10
4.9863562308
 20
4.7348209051
 11
4.5509198967
 21
4.7348209051
  0
LINE
  5
35E
100
AcDbEntity
  8
THREAD
100
AcDbLine
 62
7
  6
CONTINUOUS
 10
4.9863562308
 20
4.7357184326
 11
4.5509198967
 21
4.7357184326
  0
LINE
  5
35F
100
AcDbEntity
  8
03__ASM_ALL_CURVES
100
AcDbLine
 62
40
  6
CONTINUOUS
 10
4.5599962308
 20
4.9063930993
 11
4.5168562308
 21
4.9111864326
  0
LINE
  5
360
100
AcDbEntity
  8
03__ASM_ALL_CURVES
100
AcDbLine
 62
40
  6
CONTINUOUS
 10
4.5599962308
 20
4.9051947659
 11
4.5168562308
 21
4.9111864326
  0
LINE
  5
361
100
AcDbEntity
  8
03__ASM_ALL_CURVES
100
AcDbLine
 62
40
  6
CONTINUOUS
 10
4.5599962308
 20
4.9039964326
 11
4.5168562308
 21
4.9111864326
  0
LINE
  5
362
100
AcDbEntity
  8
03__ASM_ALL_CURVES
100
AcDbLine
 62
40
  6
CONTINUOUS
 10
5.6344449804
 20
4.9255664326
 11
5.6290524804
 21
4.9291614327
  0
LINE
  5
363
100
AcDbEntity
  8
03__ASM_ALL_CURVES
100
AcDbLine
 62
40
  6
CONTINUOUS
 10
5.6398374804
 20
4.9687064326
 11
5.6452299804
 21
4.9651114335
  0
LINE
  5
364
100
AcDbEntity
  8
03__ASM_ALL_CURVES
100
AcDbLine
 62
40
  6
CONTINUOUS
 10
5.7207249804
 20
4.9255664326
 11
5.7153324804
 21
4.9291614327
  0
LINE
  5
365
100
AcDbEntity
  8
03__ASM_ALL_CURVES
100
AcDbLine
 62
40
  6
CONTINUOUS
 10
5.8447524804
 20
4.9291614327
 11
5.8420562304
 21
4.9327564328
  0
LINE
  5
366
100
AcDbEntity
  8
03__ASM_ALL_CURVES
100
AcDbLine
 62
40
  6
CONTINUOUS
 10
5.8177899804
 20
4.9651114335
 11
5.8231824804
 21
4.9579214326
  0
LINE
  5
367
100
AcDbEntity
  8
03__ASM_ALL_CURVES
100
AcDbLine
 62
40
  6
CONTINUOUS
 10
6.0280974804
 20
4.9471364326
 11
6.0361862304
 21
4.9255664326
  0
LINE
  5
368
100
AcDbEntity
  8
03__ASM_ALL_CURVES
100
AcDbLine
 62
40
  6
CONTINUOUS
 10
6.3086549722
 20
3.679325932
 11
6.3086549722
 21
3.6739334332
  0
LINE
  5
369
100
AcDbEntity
  8
0
100
AcDbLine
 62
7
  6
CONTINUOUS
 10
6.3568562308
 20
4.5742184326
 11
6.3568562308
 21
3.9192184326
  0
LINE
  5
36A
100
AcDbEntity
  8
0
100
AcDbLine
 62
7
  6
CONTINUOUS
 10
6.3718562308
 20
4.5892184326
 11
6.3718562308
 21
3.9042184326
  0
LINE
  5
36B
100
AcDbEntity
  8
03__ASM_ALL_CURVES
100
AcDbLine
 62
40
  6
CONTINUOUS
 10
6.1913680972
 20
3.6685409326
 11
6.1933902847
 21
3.6766296826
  0
LINE
  5
36C
100
AcDbEntity
  8
03__ASM_ALL_CURVES
100
AcDbLine
 62
40
  6
CONTINUOUS
 10
6.2156343472
 20
3.6685409326
 11
6.2136121597
 21
3.6604521826
  0
LINE
  5
36D
100
AcDbEntity
  8
03__ASM_ALL_CURVES
100
AcDbLine
 62
40
  6
CONTINUOUS
 10
4.5599962308
 20
4.9099880993
 11
4.5168562308
 21
4.9111864326
  0
LINE
  5
36E
100
AcDbEntity
  8
03__ASM_ALL_CURVES
100
AcDbLine
 62
40
  6
CONTINUOUS
 10
4.5599962308
 20
4.9087897659
 11
4.5168562308
 21
4.9111864326
  0
LINE
  5
36F
100
AcDbEntity
  8
03__ASM_ALL_CURVES
100
AcDbLine
 62
40
  6
CONTINUOUS
 10
5.2237162308
 20
4.9135830993
 11
5.3099962308
 21
4.9087897659
  0
LINE
  5
370
100
AcDbEntity
  8
03__ASM_ALL_CURVES
100
AcDbLine
 62
40
  6
CONTINUOUS
 10
4.5599962308
 20
4.9075914326
 11
4.5168562308
 21
4.9111864326
  0
LINE
  5
371
100
AcDbEntity
  8
03__ASM_ALL_CURVES
100
AcDbLine
 62
40
  6
CONTINUOUS
 10
5.2237162308
 20
4.9147814326
 11
5.3099962308
 21
4.9075914326
  0
LINE
  5
372
100
AcDbEntity
  8
03__ASM_ALL_CURVES
100
AcDbLine
 62
40
  6
CONTINUOUS
 10
5.2237162308
 20
4.9159797659
 11
5.3099962308
 21
4.9063930993
  0
LINE
  5
373
100
AcDbEntity
  8
03__ASM_ALL_CURVES
100
AcDbLine
 62
40
  6
CONTINUOUS
 10
5.2237162308
 20
4.9171780993
 11
5.3099962308
 21
4.9051947659
  0
LINE
  5
374
100
AcDbEntity
  8
03__ASM_ALL_CURVES
100
AcDbLine
 62
40
  6
CONTINUOUS
 10
5.3099962308
 20
4.9039964326
 11
5.2237162308
 21
4.9183764326
  0
LINE
  5
375
100
AcDbEntity
  8
03__ASM_ALL_CURVES
100
AcDbLine
 62
40
  6
CONTINUOUS
 10
5.7153324804
 20
4.9543264335
 11
5.7315099804
 21
4.9435414322
  0
LINE
  5
376
100
AcDbEntity
  8
03__ASM_ALL_CURVES
100
AcDbLine
 62
40
  6
CONTINUOUS
 10
5.7315099804
 20
4.9651114335
 11
5.7261174804
 21
4.9687064326
  0
LINE
  5
377
100
AcDbEntity
  8
03__ASM_ALL_CURVES
100
AcDbLine
 62
40
  6
CONTINUOUS
 10
5.8070049804
 20
4.9255664326
 11
5.8016124804
 21
4.9291614327
  0
LINE
  5
378
100
AcDbEntity
  8
03__ASM_ALL_CURVES
100
AcDbLine
 62
40
  6
CONTINUOUS
 10
6.9119671684
 20
4.2071734326
 11
6.9079227934
 21
4.2098696827
  0
LINE
  5
379
100
AcDbEntity
  8
03__ASM_ALL_CURVES
100
AcDbLine
 62
40
  6
CONTINUOUS
 10
5.8501449804
 20
4.9255664326
 11
5.8447524804
 21
4.9291614327
  0
LINE
  5
37A
100
AcDbEntity
  8
03__ASM_ALL_CURVES
100
AcDbLine
 62
40
  6
CONTINUOUS
 10
6.9443221684
 20
4.2071734326
 11
6.9402777934
 21
4.2098696827
  0
LINE
  5
37B
100
AcDbEntity
  8
03__ASM_ALL_CURVES
100
AcDbLine
 62
40
  6
CONTINUOUS
 10
5.8123974804
 20
4.9687064326
 11
5.8177899804
 21
4.9651114335
  0
LINE
  5
37C
100
AcDbEntity
  8
03__ASM_ALL_CURVES
100
AcDbLine
 62
40
  6
CONTINUOUS
 10
6.9160115434
 20
4.2395284326
 11
6.9200559184
 21
4.2368321832
  0
LINE
  5
37D
100
AcDbEntity
  8
03__ASM_ALL_CURVES
100
AcDbLine
 62
40
  6
CONTINUOUS
 10
5.9445137304
 20
4.9651114335
 11
5.9499062304
 21
4.9579214326
  0
LINE
  5
37E
100
AcDbEntity
  8
03__ASM_ALL_CURVES
100
AcDbLine
 62
40
  6
CONTINUOUS
 10
6.0334899804
 20
4.9651114335
 11
6.0361862304
 21
4.9615164317
  0
LINE
  5
37F
100
AcDbEntity
  8
0
100
AcDbLine
 62
7
  6
CONTINUOUS
 10
6.4298562308
 20
4.5892144195
 11
6.4298562308
 21
3.9042224457
  0
LINE
  5
380
100
AcDbEntity
  8
0
100
AcDbLine
 62
7
  6
CONTINUOUS
 10
6.4798562308
 20
3.9047189526
 11
6.4798562308
 21
4.5887179126
  0
LINE
  5
381
100
AcDbEntity
  8
03__ASM_ALL_CURVES
100
AcDbLine
 62
40
  6
CONTINUOUS
 10
6.2944996597
 20
3.6604521826
 11
6.2924774722
 21
3.6523634326
  0
LINE
  5
382
100
AcDbEntity
  8
03__ASM_ALL_CURVES
100
AcDbLine
 62
40
  6
CONTINUOUS
 10
6.1792349722
 20
3.6739334332
 11
6.1772127847
 21
3.671237182
  0
LINE
  5
383
100
AcDbEntity
  8
03__ASM_ALL_CURVES
100
AcDbLine
 62
40
  6
CONTINUOUS
 10
6.1933902847
 20
3.6766296826
 11
6.1974346597
 21
3.6820221832
  0
LINE
  5
384
100
AcDbEntity
  8
03__ASM_ALL_CURVES
100
AcDbLine
 62
40
  6
CONTINUOUS
 10
6.9160115434
 20
4.272782182
 11
6.9119671684
 21
4.2700859326
  0
LINE
  5
385
100
AcDbEntity
  8
03__ASM_ALL_CURVES
100
AcDbLine
 62
40
  6
CONTINUOUS
 10
6.9362334184
 20
4.2835671832
 11
6.9402777934
 21
4.2862634326
  0
LINE
  5
386
100
AcDbEntity
  8
03__ASM_ALL_CURVES
100
AcDbLine
 62
40
  6
CONTINUOUS
 10
6.9079227934
 20
4.2368321832
 11
6.9119671684
 21
4.2395284326
  0
LINE
  5
387
100
AcDbEntity
  8
03__ASM_ALL_CURVES
100
AcDbLine
 62
40
  6
CONTINUOUS
 10
6.9483665434
 20
4.2566046827
 11
6.9443221684
 21
4.2539084326
  0
LINE
  5
388
100
AcDbEntity
  8
03__ASM_ALL_CURVES
100
AcDbLine
 62
40
  6
CONTINUOUS
 10
6.9807215434
 20
4.272782182
 11
6.9766771684
 21
4.2700859326
  0
LINE
  5
389
100
AcDbEntity
  8
03__ASM_ALL_CURVES
100
AcDbLine
 62
40
  6
CONTINUOUS
 10
6.9200559184
 20
4.2098696827
 11
6.9160115434
 21
4.2071734326
  0
LINE
  5
38A
100
AcDbEntity
  8
03__ASM_ALL_CURVES
100
AcDbLine
 62
40
  6
CONTINUOUS
 10
5.2237162308
 20
4.9063930993
 11
5.3099962308
 21
4.9159797659
  0
LINE
  5
38B
100
AcDbEntity
  8
03__ASM_ALL_CURVES
100
AcDbLine
 62
40
  6
CONTINUOUS
 10
5.2237162308
 20
4.9075914326
 11
5.3099962308
 21
4.9147814326
  0
LINE
  5
38C
100
AcDbEntity
  8
03__ASM_ALL_CURVES
100
AcDbLine
 62
40
  6
CONTINUOUS
 10
5.2237162308
 20
4.9087897659
 11
5.3099962308
 21
4.9135830993
  0
LINE
  5
38D
100
AcDbEntity
  8
03__ASM_ALL_CURVES
100
AcDbLine
 62
40
  6
CONTINUOUS
 10
5.2237162308
 20
4.9099880993
 11
5.3099962308
 21
4.9123847659
  0
LINE
  5
38E
100
AcDbEntity
  8
03__ASM_ALL_CURVES
100
AcDbLine
 62
40
  6
CONTINUOUS
 10
4.5599962308
 20
4.9123847659
 11
4.5168562308
 21
4.9111864326
  0
LINE
  5
38F
100
AcDbEntity
  8
03__ASM_ALL_CURVES
100
AcDbLine
 62
40
  6
CONTINUOUS
 10
4.5168562308
 20
4.9111864326
 11
6.0865162308
 21
4.9111864326
  0
LINE
  5
390
100
AcDbEntity
  8
03__ASM_ALL_CURVES
100
AcDbLine
 62
40
  6
CONTINUOUS
 10
5.9930462304
 20
4.9255664326
 11
5.9714762304
 21
4.9255664326
  0
LINE
  5
391
100
AcDbEntity
  8
03__ASM_ALL_CURVES
100
AcDbLine
 62
40
  6
CONTINUOUS
 10
5.9391212304
 20
4.9255664326
 11
5.9283362304
 21
4.9255664326
  0
LINE
  5
392
100
AcDbEntity
  8
03__ASM_ALL_CURVES
100
AcDbLine
 62
40
  6
CONTINUOUS
 10
5.8555374804
 20
4.9255664326
 11
5.8501449804
 21
4.9255664326
  0
LINE
  5
393
100
AcDbEntity
  8
03__ASM_ALL_CURVES
100
AcDbLine
 62
40
  6
CONTINUOUS
 10
5.8123974804
 20
4.9255664326
 11
5.8070049804
 21
4.9255664326
  0
LINE
  5
394
100
AcDbEntity
  8
03__ASM_ALL_CURVES
100
AcDbLine
 62
40
  6
CONTINUOUS
 10
5.7261174804
 20
4.9255664326
 11
5.7207249804
 21
4.9255664326
  0
LINE
  5
395
100
AcDbEntity
  8
03__ASM_ALL_CURVES
100
AcDbLine
 62
40
  6
CONTINUOUS
 10
5.6398374804
 20
4.9255664326
 11
5.6344449804
 21
4.9255664326
  0
LINE
  5
396
100
AcDbEntity
  8
03__ASM_ALL_CURVES
100
AcDbLine
 62
40
  6
CONTINUOUS
 10
5.4241374804
 20
4.9255664326
 11
5.4187449804
 21
4.9255664326
  0
LINE
  5
397
100
AcDbEntity
  8
03__ASM_ALL_CURVES
100
AcDbLine
 62
40
  6
CONTINUOUS
 10
5.3809974804
 20
4.9255664326
 11
5.3756049804
 21
4.9255664326
  0
LINE
  5
398
100
AcDbEntity
  8
03__ASM_ALL_CURVES
100
AcDbLine
 62
40
  6
CONTINUOUS
 10
4.9781362308
 20
4.9255664326
 11
4.9754399808
 21
4.9255664326
  0
LINE
  5
399
100
AcDbEntity
  8
03__ASM_ALL_CURVES
100
AcDbLine
 62
40
  6
CONTINUOUS
 10
4.8082724808
 20
4.9255664326
 11
4.8028799808
 21
4.9255664326
  0
LINE
  5
39A
100
AcDbEntity
  8
03__ASM_ALL_CURVES
100
AcDbLine
 62
40
  6
CONTINUOUS
 10
4.7192962308
 20
4.9255664326
 11
4.7165999808
 21
4.9255664326
  0
LINE
  5
39B
100
AcDbEntity
  8
03__ASM_ALL_CURVES
100
AcDbLine
 62
40
  6
CONTINUOUS
 10
5.3243762304
 20
4.9255664326
 11
5.3459462304
 21
4.9255664326
  0
LINE
  5
39C
100
AcDbEntity
  8
03__ASM_ALL_CURVES
100
AcDbLine
 62
40
  6
CONTINUOUS
 10
5.8851962304
 20
4.9255664326
 11
5.9067662304
 21
4.9255664326
  0
LINE
  5
39D
100
AcDbEntity
  8
03__ASM_ALL_CURVES
100
AcDbLine
 62
40
  6
CONTINUOUS
 10
5.0536312308
 20
4.9363514326
 11
5.0778974808
 21
4.9363514326
  0
LINE
  5
39E
100
AcDbEntity
  8
03__ASM_ALL_CURVES
100
AcDbLine
 62
40
  6
CONTINUOUS
 10
5.4564924804
 20
4.939946433
 11
5.4726699804
 21
4.939946433
  0
LINE
  5
39F
100
AcDbEntity
  8
03__ASM_ALL_CURVES
100
AcDbLine
 62
40
  6
CONTINUOUS
 10
6.0280974804
 20
4.9471364326
 11
6.0146162304
 21
4.9471364326
  0
LINE
  5
3A0
100
AcDbEntity
  8
03__ASM_ALL_CURVES
100
AcDbLine
 62
40
  6
CONTINUOUS
 10
5.6371412304
 20
4.9471364326
 11
5.6479262304
 21
4.9471364326
  0
LINE
  5
3A1
100
AcDbEntity
  8
03__ASM_ALL_CURVES
100
AcDbLine
 62
40
  6
CONTINUOUS
 10
5.7557762304
 20
4.9471364326
 11
5.7773462304
 21
4.9471364326
  0
LINE
  5
3A2
100
AcDbEntity
  8
03__ASM_ALL_CURVES
100
AcDbLine
 62
40
  6
CONTINUOUS
 10
5.9714762304
 20
4.9471364326
 11
5.9849574804
 21
4.9471364326
  0
LINE
  5
3A3
100
AcDbEntity
  8
03__ASM_ALL_CURVES
100
AcDbLine
 62
40
  6
CONTINUOUS
 10
4.8028799808
 20
4.9543264335
 11
4.8082724808
 21
4.9543264335
  0
LINE
  5
3A4
100
AcDbEntity
  8
03__ASM_ALL_CURVES
100
AcDbLine
 62
40
  6
CONTINUOUS
 10
5.7261174804
 20
4.9687064326
 11
5.7207249804
 21
4.9687064326
  0
LINE
  5
3A5
100
AcDbEntity
  8
03__ASM_ALL_CURVES
100
AcDbLine
 62
40
  6
CONTINUOUS
 10
4.8163612308
 20
4.9687064326
 11
4.8001837308
 21
4.9687064326
  0
LINE
  5
3A6
100
AcDbEntity
  8
03__ASM_ALL_CURVES
100
AcDbLine
 62
40
  6
CONTINUOUS
 10
4.7732212308
 20
4.9687064326
 11
4.7516512308
 21
4.9687064326
  0
LINE
  5
3A7
100
AcDbEntity
  8
03__ASM_ALL_CURVES
100
AcDbLine
 62
40
  6
CONTINUOUS
 10
5.3756049804
 20
4.9687064326
 11
5.3809974804
 21
4.9687064326
  0
LINE
  5
3A8
100
AcDbEntity
  8
03__ASM_ALL_CURVES
100
AcDbLine
 62
40
  6
CONTINUOUS
 10
5.4187449804
 20
4.9687064326
 11
5.4241374804
 21
4.9687064326
  0
LINE
  5
3A9
100
AcDbEntity
  8
03__ASM_ALL_CURVES
100
AcDbLine
 62
40
  6
CONTINUOUS
 10
5.4942399804
 20
4.9687064326
 11
5.5212024804
 21
4.9687064326
  0
LINE
  5
3AA
100
AcDbEntity
  8
03__ASM_ALL_CURVES
100
AcDbLine
 62
40
  6
CONTINUOUS
 10
5.6344449804
 20
4.9687064326
 11
5.6398374804
 21
4.9687064326
  0
LINE
  5
3AB
100
AcDbEntity
  8
03__ASM_ALL_CURVES
100
AcDbLine
 62
40
  6
CONTINUOUS
 10
5.8070049804
 20
4.9687064326
 11
5.8123974804
 21
4.9687064326
  0
LINE
  5
3AC
100
AcDbEntity
  8
03__ASM_ALL_CURVES
100
AcDbLine
 62
40
  6
CONTINUOUS
 10
5.9283362304
 20
4.9687064326
 11
5.9391212304
 21
4.9687064326
  0
LINE
  5
3AD
100
AcDbEntity
  8
03__ASM_ALL_CURVES
100
AcDbLine
 62
40
  6
CONTINUOUS
 10
5.9714762304
 20
4.9687064326
 11
5.9930462304
 21
4.9687064326
  0
LINE
  5
3AE
100
AcDbEntity
  8
03__ASM_ALL_CURVES
100
AcDbLine
 62
40
  6
CONTINUOUS
 10
6.0146162304
 20
4.9687064326
 11
6.0280974804
 21
4.9687064326
  0
LINE
  5
3AF
100
AcDbEntity
  8
03__ASM_ALL_CURVES
100
AcDbLine
 62
40
  6
CONTINUOUS
 10
5.2237162308
 20
4.9123847659
 11
5.3099962308
 21
4.9099880993
  0
LINE
  5
3B0
100
AcDbEntity
  8
03__ASM_ALL_CURVES
100
AcDbLine
 62
40
  6
CONTINUOUS
 10
6.9402777934
 20
4.2539084326
 11
6.9362334184
 21
4.2566046827
  0
LINE
  5
3B1
100
AcDbEntity
  8
03__ASM_ALL_CURVES
100
AcDbLine
 62
40
  6
CONTINUOUS
 10
6.9119671684
 20
4.2862634326
 11
6.9160115434
 21
4.2835671832
  0
LINE
  5
3B2
100
AcDbEntity
  8
03__ASM_ALL_CURVES
100
AcDbLine
 62
40
  6
CONTINUOUS
 10
6.9443221684
 20
4.2862634326
 11
6.9483665434
 21
4.2835671832
  0
LINE
  5
3B3
100
AcDbEntity
  8
03__ASM_ALL_CURVES
100
AcDbLine
 62
40
  6
CONTINUOUS
 10
5.9391212304
 20
4.9687064326
 11
5.9445137304
 21
4.9651114335
  0
LINE
  5
3B4
100
AcDbEntity
  8
03__ASM_ALL_CURVES
100
AcDbLine
 62
40
  6
CONTINUOUS
 10
6.9766771684
 20
4.2862634326
 11
6.9807215434
 21
4.2835671832
  0
LINE
  5
3B5
100
AcDbEntity
  8
0
100
AcDbLine
 62
7
  6
CONTINUOUS
 10
6.5498562308
 20
4.5697184326
 11
6.5498562308
 21
3.9237184326
  0
LINE
  5
3B6
100
AcDbEntity
  8
0
100
AcDbLine
 62
7
  6
CONTINUOUS
 10
6.5708562308
 20
4.5892144195
 11
6.5708562308
 21
3.9042224457
  0
LINE
  5
3B7
100
AcDbEntity
  8
03__ASM_ALL_CURVES
100
AcDbLine
 62
40
  6
CONTINUOUS
 10
6.2136121597
 20
3.6604521826
 11
6.2095677847
 21
3.6550596827
  0
LINE
  5
3B8
100
AcDbEntity
  8
03__ASM_ALL_CURVES
100
AcDbLine
 62
40
  6
CONTINUOUS
 10
6.2439449722
 20
3.6739334332
 11
6.2419227847
 21
3.671237182
  0
LINE
  5
3B9
100
AcDbEntity
  8
03__ASM_ALL_CURVES
100
AcDbLine
 62
40
  6
CONTINUOUS
 10
6.2924774722
 20
3.679325932
 11
6.2944996597
 21
3.6820221832
  0
LINE
  5
3BA
100
AcDbEntity
  8
03__ASM_ALL_CURVES
100
AcDbLine
 62
40
  6
CONTINUOUS
 10
6.2985440347
 20
3.6658446823
 11
6.2944996597
 21
3.6604521826
  0
LINE
  5
3BB
100
AcDbEntity
  8
03__ASM_ALL_CURVES
100
AcDbLine
 62
40
  6
CONTINUOUS
 10
6.3086549722
 20
3.6739334332
 11
6.3066327847
 21
3.671237182
  0
LINE
  5
3BC
100
AcDbEntity
  8
03__ASM_ALL_CURVES
100
AcDbLine
 62
40
  6
CONTINUOUS
 10
6.9524109184
 20
4.2098696827
 11
6.9483665434
 21
4.2071734326
  0
LINE
  5
3BD
100
AcDbEntity
  8
03__ASM_ALL_CURVES
100
AcDbLine
 62
40
  6
CONTINUOUS
 10
6.1772127847
 20
3.671237182
 11
6.1731684097
 21
3.6685409326
  0
LINE
  5
3BE
100
AcDbEntity
  8
03__ASM_ALL_CURVES
100
AcDbLine
 62
40
  6
CONTINUOUS
 10
6.1974346597
 20
3.6820221832
 11
6.2014790347
 21
3.6847184326
  0
LINE
  5
3BF
100
AcDbEntity
  8
03__ASM_ALL_CURVES
100
AcDbLine
 62
40
  6
CONTINUOUS
 10
6.2095677847
 20
3.6550596827
 11
6.2055234097
 21
3.6523634326
  0
LINE
  5
3C0
100
AcDbEntity
  8
03__ASM_ALL_CURVES
100
AcDbLine
 62
40
  6
CONTINUOUS
 10
6.2419227847
 20
3.671237182
 11
6.2378784097
 21
3.6685409326
  0
LINE
  5
3C1
100
AcDbEntity
  8
03__ASM_ALL_CURVES
100
AcDbLine
 62
40
  6
CONTINUOUS
 10
6.2944996597
 20
3.6820221832
 11
6.2985440347
 21
3.6847184326
  0
LINE
  5
3C2
100
AcDbEntity
  8
03__ASM_ALL_CURVES
100
AcDbLine
 62
40
  6
CONTINUOUS
 10
5.2237162308
 20
4.9039964326
 11
5.3099962308
 21
4.9183764326
  0
LINE
  5
3C3
100
AcDbEntity
  8
03__ASM_ALL_CURVES
100
AcDbLine
 62
40
  6
CONTINUOUS
 10
5.2237162308
 20
4.9051947659
 11
5.3099962308
 21
4.9171780993
  0
LINE
  5
3C4
100
AcDbEntity
  8
03__ASM_ALL_CURVES
100
AcDbLine
 62
40
  6
CONTINUOUS
 10
4.5599962308
 20
4.9159797659
 11
4.5168562308
 21
4.9111864326
  0
LINE
  5
3C5
100
AcDbEntity
  8
03__ASM_ALL_CURVES
100
AcDbLine
 62
40
  6
CONTINUOUS
 10
4.5599962308
 20
4.9147814326
 11
4.5168562308
 21
4.9111864326
  0
LINE
  5
3C6
100
AcDbEntity
  8
03__ASM_ALL_CURVES
100
AcDbLine
 62
40
  6
CONTINUOUS
 10
4.5599962308
 20
4.9135830993
 11
4.5168562308
 21
4.9111864326
  0
LINE
  5
3C7
100
AcDbEntity
  8
03__ASM_ALL_CURVES
100
AcDbLine
 62
40
  6
CONTINUOUS
 10
6.0280974804
 20
4.9687064326
 11
6.0334899804
 21
4.9651114335
  0
LINE
  5
3C8
100
AcDbEntity
  8
0
100
AcDbLine
 62
7
  6
CONTINUOUS
 10
6.6228562308
 20
3.9042184326
 11
6.6228562308
 21
4.5892184326
  0
LINE
  5
3C9
100
AcDbEntity
  8
0
100
AcDbLine
 62
7
  6
CONTINUOUS
 10
6.6378562308
 20
3.9192184326
 11
6.6378562308
 21
4.5742184326
  0
LINE
  5
3CA
100
AcDbEntity
  8
0
100
AcDbLine
 62
7
  6
CONTINUOUS
 10
6.6228562308
 20
3.9042184326
 11
6.6378562308
 21
3.9192184326
  0
LINE
  5
3CB
100
AcDbEntity
  8
03__ASM_ALL_CURVES
100
AcDbLine
 62
40
  6
CONTINUOUS
 10
6.3066327847
 20
3.671237182
 11
6.2985440347
 21
3.6658446823
  0
LINE
  5
3CC
100
AcDbEntity
  8
03__ASM_ALL_CURVES
100
AcDbLine
 62
40
  6
CONTINUOUS
 10
4.5168562308
 20
4.9111864326
 11
4.5599962308
 21
4.9183764326
  0
LINE
  5
3CD
100
AcDbEntity
  8
03__ASM_ALL_CURVES
100
AcDbLine
 62
40
  6
CONTINUOUS
 10
4.5599962308
 20
4.9171780993
 11
4.5168562308
 21
4.9111864326
  0
LINE
  5
3CE
100
AcDbEntity
  8
0
100
AcDbLine
 62
7
  6
CONTINUOUS
 10
6.6228562308
 20
4.5892184326
 11
6.6378562308
 21
4.5742184326
  0
LINE
  5
3CF
100
AcDbEntity
  8
03__ASM_ALL_CURVES
100
AcDbLine
 62
40
  6
CONTINUOUS
 10
6.9079227934
 20
4.2098696827
 11
6.9038784184
 21
4.2152621826
  0
LINE
  5
3D0
100
AcDbEntity
  8
03__ASM_ALL_CURVES
100
AcDbLine
 62
40
  6
CONTINUOUS
 10
6.9402777934
 20
4.2098696827
 11
6.9382556059
 21
4.2125659328
  0
LINE
  5
3D1
100
AcDbEntity
  8
03__ASM_ALL_CURVES
100
AcDbLine
 62
40
  6
CONTINUOUS
 10
6.9200559184
 20
4.2368321832
 11
6.9241002934
 21
4.2314396826
  0
LINE
  5
3D2
100
AcDbEntity
  8
03__ASM_ALL_CURVES
100
AcDbLine
 62
40
  6
CONTINUOUS
 10
6.9180337309
 20
4.2754784332
 11
6.9160115434
 21
4.272782182
  0
LINE
  5
3D3
100
AcDbEntity
  8
03__ASM_ALL_CURVES
100
AcDbLine
 62
40
  6
CONTINUOUS
 10
6.9321890434
 20
4.2781746826
 11
6.9362334184
 21
4.2835671832
  0
LINE
  5
3D4
100
AcDbEntity
  8
03__ASM_ALL_CURVES
100
AcDbLine
 62
40
  6
CONTINUOUS
 10
6.9038784184
 20
4.2314396826
 11
6.9079227934
 21
4.2368321832
  0
LINE
  5
3D5
100
AcDbEntity
  8
03__ASM_ALL_CURVES
100
AcDbLine
 62
40
  6
CONTINUOUS
 10
6.9524109184
 20
4.2619971826
 11
6.9483665434
 21
4.2566046827
  0
LINE
  5
3D6
100
AcDbEntity
  8
03__ASM_ALL_CURVES
100
AcDbLine
 62
40
  6
CONTINUOUS
 10
6.9241002934
 20
4.2152621826
 11
6.9200559184
 21
4.2098696827
  0
LINE
  5
3D7
100
AcDbEntity
  8
03__ASM_ALL_CURVES
100
AcDbLine
 62
40
  6
CONTINUOUS
 10
6.9827437309
 20
4.2754784332
 11
6.9807215434
 21
4.272782182
  0
LINE
  5
3D8
100
AcDbEntity
  8
03__ASM_ALL_CURVES
100
AcDbLine
 62
40
  6
CONTINUOUS
 10
6.9544331059
 20
4.2125659328
 11
6.9524109184
 21
4.2098696827
  0
LINE
  5
3D9
100
AcDbEntity
  8
03__ASM_ALL_CURVES
100
AcDbLine
 62
40
  6
CONTINUOUS
 10
6.9362334184
 20
4.2566046827
 11
6.9321890434
 21
4.2619971826
  0
LINE
  5
3DA
100
AcDbEntity
  8
03__ASM_ALL_CURVES
100
AcDbLine
 62
40
  6
CONTINUOUS
 10
6.9160115434
 20
4.2835671832
 11
6.9180337309
 21
4.280870932
  0
LINE
  5
3DB
100
AcDbEntity
  8
03__ASM_ALL_CURVES
100
AcDbLine
 62
40
  6
CONTINUOUS
 10
6.9483665434
 20
4.2835671832
 11
6.9524109184
 21
4.2781746826
  0
LINE
  5
3DC
100
AcDbEntity
  8
03__ASM_ALL_CURVES
100
AcDbLine
 62
40
  6
CONTINUOUS
 10
6.9807215434
 20
4.2835671832
 11
6.9827437309
 21
4.280870932
  0
LINE
  5
3DD
100
AcDbEntity
  8
03__ASM_ALL_CURVES
100
AcDbLine
 62
40
  6
CONTINUOUS
 10
6.9038784184
 20
4.2152621826
 11
6.9018562309
 21
4.2233509326
  0
LINE
  5
3DE
100
AcDbEntity
  8
03__ASM_ALL_CURVES
100
AcDbLine
 62
40
  6
CONTINUOUS
 10
6.9241002934
 20
4.2314396826
 11
6.9261224809
 21
4.2233509326
  0
LINE
  5
3DF
100
AcDbEntity
  8
03__ASM_ALL_CURVES
100
AcDbLine
 62
40
  6
CONTINUOUS
 10
6.9018562309
 20
4.2539084326
 11
6.9018562309
 21
4.2862634326
  0
LINE
  5
3E0
100
AcDbEntity
  8
03__ASM_ALL_CURVES
100
AcDbLine
 62
40
  6
CONTINUOUS
 10
6.9180337309
 20
4.280870932
 11
6.9180337309
 21
4.2754784332
  0
LINE
  5
3E1
100
AcDbEntity
  8
03__ASM_ALL_CURVES
100
AcDbLine
 62
40
  6
CONTINUOUS
 10
6.9382556059
 20
4.2125659328
 11
6.9382556059
 21
4.2395284326
  0
LINE
  5
3E2
100
AcDbEntity
  8
03__ASM_ALL_CURVES
100
AcDbLine
 62
40
  6
CONTINUOUS
 10
6.9544331059
 20
4.2395284326
 11
6.9544331059
 21
4.2125659328
  0
LINE
  5
3E3
100
AcDbEntity
  8
03__ASM_ALL_CURVES
100
AcDbLine
 62
40
  6
CONTINUOUS
 10
6.9665662309
 20
4.2539084326
 11
6.9665662309
 21
4.2862634326
  0
LINE
  5
3E4
100
AcDbEntity
  8
03__ASM_ALL_CURVES
100
AcDbLine
 62
40
  6
CONTINUOUS
 10
6.9018562309
 20
4.2233509326
 11
6.9038784184
 21
4.2314396826
  0
LINE
  5
3E5
100
AcDbEntity
  8
03__ASM_ALL_CURVES
100
AcDbLine
 62
40
  6
CONTINUOUS
 10
6.9301668559
 20
4.2700859326
 11
6.9321890434
 21
4.2781746826
  0
LINE
  5
3E6
100
AcDbEntity
  8
03__ASM_ALL_CURVES
100
AcDbLine
 62
40
  6
CONTINUOUS
 10
6.9261224809
 20
4.2233509326
 11
6.9241002934
 21
4.2152621826
  0
LINE
  5
3E7
100
AcDbEntity
  8
03__ASM_ALL_CURVES
100
AcDbLine
 62
40
  6
CONTINUOUS
 10
6.9544331059
 20
4.2700859326
 11
6.9524109184
 21
4.2619971826
  0
LINE
  5
3E8
100
AcDbEntity
  8
03__ASM_ALL_CURVES
100
AcDbLine
 62
40
  6
CONTINUOUS
 10
6.9766771684
 20
4.2700859326
 11
6.9827437309
 21
4.2539084326
  0
LINE
  5
3E9
100
AcDbEntity
  8
03__ASM_ALL_CURVES
100
AcDbLine
 62
40
  6
CONTINUOUS
 10
6.9321890434
 20
4.2619971826
 11
6.9301668559
 21
4.2700859326
  0
LINE
  5
3EA
100
AcDbEntity
  8
03__ASM_ALL_CURVES
100
AcDbLine
 62
40
  6
CONTINUOUS
 10
6.9524109184
 20
4.2781746826
 11
6.9544331059
 21
4.2700859326
  0
LINE
  5
3EB
100
AcDbEntity
  8
03__ASM_ALL_CURVES
100
AcDbLine
 62
40
  6
CONTINUOUS
 10
6.9786993559
 20
4.2395284326
 11
6.9786993559
 21
4.2071734326
  0
LINE
  5
3EC
100
AcDbEntity
  8
03__ASM_ALL_CURVES
100
AcDbLine
 62
40
  6
CONTINUOUS
 10
6.9827437309
 20
4.280870932
 11
6.9827437309
 21
4.2754784332
  0
LINE
  5
3ED
100
AcDbEntity
  8
03__ASM_ALL_CURVES
100
AcDbLine
 62
40
  6
CONTINUOUS
 10
7.0029656059
 20
4.2395284326
 11
7.0029656059
 21
4.2071734326
  0
LINE
  5
3EE
100
AcDbEntity
  8
03__ASM_ALL_CURVES
100
AcDbLine
 62
40
  6
CONTINUOUS
 10
7.0070099809
 20
4.2862634326
 11
7.0070099809
 21
4.2539084326
  0
LINE
  5
3EF
100
AcDbEntity
  8
03__ASM_ALL_CURVES
100
AcDbLine
 62
40
  6
CONTINUOUS
 10
7.0353206059
 20
4.2071734326
 11
7.0353206059
 21
4.2395284326
  0
LINE
  5
3F0
100
AcDbEntity
  8
03__ASM_ALL_CURVES
100
AcDbLine
 62
40
  6
CONTINUOUS
 10
7.0393649809
 20
4.2862634326
 11
7.0393649809
 21
4.2539084326
  0
LINE
  5
3F1
100
AcDbEntity
  8
03__ASM_ALL_CURVES
100
AcDbLine
 62
40
  6
CONTINUOUS
 10
7.0757643559
 20
4.2395284326
 11
7.0757643559
 21
4.2071734326
  0
ARC
  5
3F2
100
AcDbEntity
  8
0
100
AcDbCircle
 62
7
  6
CONTINUOUS
 10
5.4463506773
 20
3.8832184326
 40
0.013
100
AcDbArc
 50
29.9999999996
 51
90.0
  0
ARC
  5
3F3
100
AcDbEntity
  8
0
100
AcDbCircle
 62
7
  6
CONTINUOUS
 10
5.4463506773
 20
4.6102184326
 40
0.013
100
AcDbArc
 50
270.0
 51
330.000000003
  0
ARC
  5
3F4
100
AcDbEntity
  8
0
100
AcDbCircle
 62
7
  6
CONTINUOUS
 10
5.2718562308
 20
3.8253316812
 40
0.005
100
AcDbArc
 50
120.0000000123
 51
179.9999999997
  0
ARC
  5
3F5
100
AcDbEntity
  8
0
100
AcDbCircle
 62
7
  6
CONTINUOUS
 10
5.2718562308
 20
4.6681051839
 40
0.005
100
AcDbArc
 50
180.0000000002
 51
239.9999999914
  0
ARC
  5
3F6
100
AcDbEntity
  8
0
100
AcDbCircle
 62
7
  6
CONTINUOUS
 10
5.2915786626
 20
3.8367184326
 40
0.005
100
AcDbArc
 50
90.0
 51
120.0000000158
  0
ARC
  5
3F7
100
AcDbEntity
  8
0
100
AcDbCircle
 62
7
  6
CONTINUOUS
 10
5.2915786626
 20
4.6567184326
 40
0.005
100
AcDbArc
 50
239.9999999852
 51
270.0
  0
ARC
  5
3F8
100
AcDbEntity
  8
0
100
AcDbCircle
 62
7
  6
CONTINUOUS
 10
5.2638562308
 20
3.8222184326
 40
0.003
100
AcDbArc
 50
270.0
 51
360.0
  0
ARC
  5
3F9
100
AcDbEntity
  8
0
100
AcDbCircle
 62
7
  6
CONTINUOUS
 10
5.2638562308
 20
4.6712184326
 40
0.003
100
AcDbArc
 50
0.0
 51
90.0
  0
ARC
  5
3FA
100
AcDbEntity
  8
0
100
AcDbCircle
 62
7
  6
CONTINUOUS
 10
5.2038562308
 20
4.6662184326
 40
0.002
100
AcDbArc
 50
222.3553148142
 51
317.6446851858
  0
ARC
  5
3FB
100
AcDbEntity
  8
0
100
AcDbCircle
 62
7
  6
CONTINUOUS
 10
5.2038562308
 20
3.8272184326
 40
0.002
100
AcDbArc
 50
42.3553148142
 51
137.6446851858
  0
SPLINE
  5
3FC
100
AcDbEntity
  8
0
100
AcDbSpline
 62
7
  6
CONTINUOUS
 70
0
 71
3
 72
15
 73
11
 74
9
 42
0.0000001
 43
0.0000001
 44
0.0000000001
 12
0.0
 22
0.1099409465
 32
0.0
 13
-0.0
 23
-0.1099409465
 33
0.0
 40
0.0
 40
0.0
 40
0.0
 40
0.0
 40
0.125
 40
0.25
 40
0.375
 40
0.5
 40
0.625
 40
0.75
 40
0.875
 40
1.0
 40
1.0
 40
1.0
 40
1.0
 10
6.5498562308
 20
4.5697184326
 30
0.0
 10
6.5498562308
 20
4.5742993054
 30
0.0
 10
6.5480338463
 20
4.5834610509
 30
0.0
 10
6.5402492783
 20
4.5951114802
 30
0.0
 10
6.5285988491
 20
4.6028960481
 30
0.0
 10
6.5148562308
 20
4.6056296248
 30
0.0
 10
6.5011136125
 20
4.6028960481
 30
0.0
 10
6.4894631832
 20
4.5951114802
 30
0.0
 10
6.4816786153
 20
4.5834610509
 30
0.0
 10
6.4798562308
 20
4.5742993054
 30
0.0
 10
6.4798562308
 20
4.5697184326
 30
0.0
 11
6.5498562308
 21
4.5697184326
 31
0.0
 11
6.5471920144
 21
4.5831123527
 31
0.0
 11
6.5396049681
 21
4.5944671699
 31
0.0
 11
6.5282501509
 21
4.6020542162
 31
0.0
 11
6.5148562308
 21
4.6047184326
 31
0.0
 11
6.5014623106
 21
4.6020542162
 31
0.0
 11
6.4901074934
 21
4.5944671699
 31
0.0
 11
6.4825204471
 21
4.5831123527
 31
0.0
 11
6.4798562308
 21
4.5697184326
 31
0.0
  0
SPLINE
  5
3FD
100
AcDbEntity
  8
0
100
AcDbSpline
 62
7
  6
CONTINUOUS
 70
0
 71
3
 72
15
 73
11
 74
9
 42
0.0000001
 43
0.0000001
 44
0.0000000001
 12
0.0
 22
-0.1099409465
 32
0.0
 13
-0.0
 23
0.1099409465
 33
0.0
 40
0.0
 40
0.0
 40
0.0
 40
0.0
 40
0.125
 40
0.25
 40
0.375
 40
0.5
 40
0.625
 40
0.75
 40
0.875
 40
1.0
 40
1.0
 40
1.0
 40
1.0
 10
6.5498562308
 20
3.9237184326
 30
0.0
 10
6.5498562308
 20
3.9191375598
 30
0.0
 10
6.5480338463
 20
3.9099758143
 30
0.0
 10
6.5402492783
 20
3.898325385
 30
0.0
 10
6.5285988491
 20
3.8905408171
 30
0.0
 10
6.5148562308
 20
3.8878072403
 30
0.0
 10
6.5011136125
 20
3.8905408171
 30
0.0
 10
6.4894631832
 20
3.898325385
 30
0.0
 10
6.4816786153
 20
3.9099758143
 30
0.0
 10
6.4798562308
 20
3.9191375598
 30
0.0
 10
6.4798562308
 20
3.9237184326
 30
0.0
 11
6.5498562308
 21
3.9237184326
 31
0.0
 11
6.5471920144
 21
3.9103245125
 31
0.0
 11
6.5396049681
 21
3.8989696953
 31
0.0
 11
6.5282501509
 21
3.891382649
 31
0.0
 11
6.5148562308
 21
3.8887184326
 31
0.0
 11
6.5014623106
 21
3.891382649
 31
0.0
 11
6.4901074934
 21
3.8989696953
 31
0.0
 11
6.4825204471
 21
3.9103245125
 31
0.0
 11
6.4798562308
 21
3.9237184326
 31
0.0
  0
SPLINE
  5
3FE
100
AcDbEntity
  8
0
100
AcDbSpline
 62
7
  6
CONTINUOUS
 70
0
 71
3
 72
15
 73
11
 74
9
 42
0.0000001
 43
0.0000001
 44
0.0000000001
 12
0.0
 22
0.1099409465
 32
0.0
 13
0.0
 23
-0.1099409465
 33
0.0
 40
0.0
 40
0.0
 40
0.0
 40
0.0
 40
0.125
 40
0.25
 40
0.375
 40
0.5
 40
0.625
 40
0.75
 40
0.875
 40
1.0
 40
1.0
 40
1.0
 40
1.0
 10
5.3838562308
 20
4.6322184326
 30
0.0
 10
5.3838562308
 20
4.6367993054
 30
0.0
 10
5.3820338463
 20
4.6459610509
 30
0.0
 10
5.3742492783
 20
4.6576114802
 30
0.0
 10
5.3625988491
 20
4.6653960481
 30
0.0
 10
5.3488562308
 20
4.6681296248
 30
0.0
 10
5.3351136125
 20
4.6653960481
 30
0.0
 10
5.3234631832
 20
4.6576114802
 30
0.0
 10
5.3156786153
 20
4.6459610509
 30
0.0
 10
5.3138562308
 20
4.6367993054
 30
0.0
 10
5.3138562308
 20
4.6322184326
 30
0.0
 11
5.3838562308
 21
4.6322184326
 31
0.0
 11
5.3811920144
 21
4.6456123527
 31
0.0
 11
5.3736049681
 21
4.6569671699
 31
0.0
 11
5.3622501509
 21
4.6645542162
 31
0.0
 11
5.3488562308
 21
4.6672184326
 31
0.0
 11
5.3354623106
 21
4.6645542162
 31
0.0
 11
5.3241074934
 21
4.6569671699
 31
0.0
 11
5.3165204471
 21
4.6456123527
 31
0.0
 11
5.3138562308
 21
4.6322184326
 31
0.0
  0
SPLINE
  5
3FF
100
AcDbEntity
  8
0
100
AcDbSpline
 62
7
  6
CONTINUOUS
 70
0
 71
3
 72
15
 73
11
 74
9
 42
0.0000001
 43
0.0000001
 44
0.0000000001
 12
0.0
 22
-0.1099409465
 32
0.0
 13
0.0
 23
0.1099409465
 33
0.0
 40
0.0
 40
0.0
 40
0.0
 40
0.0
 40
0.125
 40
0.25
 40
0.375
 40
0.5
 40
0.625
 40
0.75
 40
0.875
 40
1.0
 40
1.0
 40
1.0
 40
1.0
 10
5.3838562308
 20
3.8612184326
 30
0.0
 10
5.3838562308
 20
3.8566375598
 30
0.0
 10
5.3820338463
 20
3.8474758143
 30
0.0
 10
5.3742492783
 20
3.835825385
 30
0.0
 10
5.3625988491
 20
3.8280408171
 30
0.0
 10
5.3488562308
 20
3.8253072403
 30
0.0
 10
5.3351136125
 20
3.8280408171
 30
0.0
 10
5.3234631832
 20
3.835825385
 30
0.0
 10
5.3156786153
 20
3.8474758143
 30
0.0
 10
5.3138562308
 20
3.8566375598
 30
0.0
 10
5.3138562308
 20
3.8612184326
 30
0.0
 11
5.3838562308
 21
3.8612184326
 31
0.0
 11
5.3811920144
 21
3.8478245125
 31
0.0
 11
5.3736049681
 21
3.8364696953
 31
0.0
 11
5.3622501509
 21
3.828882649
 31
0.0
 11
5.3488562308
 21
3.8262184326
 31
0.0
 11
5.3354623106
 21
3.828882649
 31
0.0
 11
5.3241074934
 21
3.8364696953
 31
0.0
 11
5.3165204471
 21
3.8478245125
 31
0.0
 11
5.3138562308
 21
3.8612184326
 31
0.0
  0
SPLINE
  5
400
100
AcDbEntity
  8
0
100
AcDbSpline
 62
7
  6
CONTINUOUS
 70
0
 71
3
 72
11
 73
7
 74
5
 42
0.0000001
 43
0.0000001
 44
0.0000000001
 12
0.0
 22
-0.0385609602
 32
0.0
 13
-0.0291997624
 23
-0.0253035116
 33
0.0
 40
0.0
 40
0.0
 40
0.0
 40
0.0
 40
0.2944836762
 40
0.5760282296
 40
0.8562107012
 40
1.0
 40
1.0
 40
1.0
 40
1.0
 10
6.1480250144
 20
4.1064684326
 30
0.0
 10
6.1480250144
 20
4.1026832415
 30
0.0
 10
6.1470907168
 20
4.0952390355
 30
0.0
 10
6.1429162758
 20
4.0849324267
 30
0.0
 10
6.1374939493
 20
4.0775547608
 30
0.0
 10
6.1335575459
 20
4.0737607594
 30
0.0
 10
6.1321580081
 20
4.072547968
 30
0.0
 11
6.1480250144
 21
4.1064684326
 31
0.0
 11
6.1465799151
 21
4.0952051856
 31
0.0
 11
6.1425130872
 21
4.0851390399
 31
0.0
 11
6.1361496194
 21
4.0764077762
 31
0.0
 11
6.1321580081
 21
4.072547968
 31
0.0
  0
SPLINE
  5
401
100
AcDbEntity
  8
0
100
AcDbSpline
 62
7
  6
CONTINUOUS
 70
0
 71
3
 72
20
 73
16
 74
14
 42
0.0000001
 43
0.0000001
 44
0.0000000001
 12
0.0
 22
-0.1604901851
 32
0.0
 13
-0.1214807765
 23
0.1052109073
 33
0.0
 40
0.0
 40
0.0
 40
0.0
 40
0.0
 40
0.0697477842
 40
0.140986134
 40
0.2148304836
 40
0.2920745982
 40
0.3733292099
 40
0.4575814966
 40
0.5441838341
 40
0.6324440539
 40
0.7219458389
 40
0.8111202472
 40
0.8987390269
 40
0.9818131377
 40
1.0
 40
1.0
 40
1.0
 40
1.0
 10
6.1480250144
 20
4.3869684326
 30
0.0
 10
6.1480250144
 20
4.3832371543
 30
0.0
 10
6.1470913234
 20
4.3756690968
 30
0.0
 10
6.1431221958
 20
4.3647915846
 30
0.0
 10
6.1367366712
 20
4.3546546313
 30
0.0
 10
6.1280580212
 20
4.3456397581
 30
0.0
 10
6.1173060728
 20
4.3382062081
 30
0.0
 10
6.1048659259
 20
4.3327882375
 30
0.0
 10
6.0912801319
 20
4.3296770186
 30
0.0
 10
6.0770869081
 20
4.3289683066
 30
0.0
 10
6.0628399423
 20
4.3306223291
 30
0.0
 10
6.0490690802
 20
4.3344907935
 30
0.0
 10
6.0363776132
 20
4.3403036744
 30
0.0
 10
6.0279332802
 20
4.3459331855
 30
0.0
 10
6.0237623055
 20
4.3494030049
 30
0.0
 10
6.0230258541
 20
4.3500408237
 30
0.0
 11
6.1480250144
 21
4.3869684326
 31
0.0
 11
6.1466922029
 21
4.3758542277
 31
0.0
 11
6.1428119544
 21
4.3650997663
 31
0.0
 11
6.1365227982
 21
4.3550548836
 31
0.0
 11
6.1279465939
 21
4.3461032133
 31
0.0
 11
6.1172373069
 21
4.3386622741
 31
0.0
 11
6.1048536211
 21
4.3332327482
 31
0.0
 11
6.0913131625
 21
4.3300969353
 31
0.0
 11
6.0771674124
 21
4.3293606477
 31
0.0
 11
6.0628968617
 21
4.3309978457
 31
0.0
 11
6.0491179303
 21
4.3348661063
 31
0.0
 11
6.0363414458
 21
4.3407397764
 31
0.0
 11
6.0252720402
 21
4.3481711917
 31
0.0
 11
6.0230258541
 21
4.3500408237
 31
0.0
  0
SPLINE
  5
402
100
AcDbEntity
  8
0
100
AcDbSpline
 62
7
  6
CONTINUOUS
 70
0
 71
3
 72
23
 73
19
 74
17
 42
0.0000001
 43
0.0000001
 44
0.0000000001
 12
-0.1419389123
 22
-0.0308231991
 32
0.0
 13
-0.1431062511
 23
0.0248463457
 33
0.0
 40
0.0
 40
0.0
 40
0.0
 40
0.0
 40
0.0093853596
 40
0.0366577271
 40
0.0807105634
 40
0.1405213537
 40
0.2148644497
 40
0.3004823799
 40
0.3938321577
 40
0.4912300799
 40
0.5895143762
 40
0.6845609508
 40
0.7729055642
 40
0.8496587654
 40
0.9122434663
 40
0.959197888
 40
0.9894062459
 40
1.0
 40
1.0
 40
1.0
 40
1.0
 10
6.1480250144
 20
4.5272184326
 30
0.0
 10
6.1475809652
 20
4.5271220037
 30
0.0
 10
6.1458457084
 20
4.5267493633
 30
0.0
 10
6.1420178162
 20
4.525963249
 30
0.0
 10
6.1357768002
 20
4.5247943609
 30
0.0
 10
6.12725789
 20
4.5234191366
 30
0.0
 10
6.1167026409
 20
4.5220584822
 30
0.0
 10
6.1044863963
 20
4.5209401812
 30
0.0
 10
6.0911201557
 20
4.5202491557
 30
0.0
 10
6.0771237325
 20
4.5200863657
 30
0.0
 10
6.0630496818
 20
4.5204642713
 30
0.0
 10
6.0494359766
 20
4.5213119269
 30
0.0
 10
6.0368938796
 20
4.5224849161
 30
0.0
 10
6.0259477186
 20
4.5237961018
 30
0.0
 10
6.0170156512
 20
4.5250522195
 30
0.0
 10
6.0103305606
 20
4.5260964875
 30
0.0
 10
6.0061395988
 20
4.5267954164
 30
0.0
 10
6.0041927913
 20
4.5271306939
 30
0.0
 10
6.0036874471
 20
4.5272184326
 30
0.0
 11
6.1480250144
 21
4.5272184326
 31
0.0
 11
6.1466922029
 21
4.5269322142
 31
0.0
 11
6.1428119544
 21
4.5261353067
 31
0.0
 11
6.1365227982
 21
4.5249571772
 31
0.0
 11
6.1279465939
 21
4.5235719695
 31
0.0
 11
6.1172373069
 21
4.5221896671
 31
0.0
 11
6.1048536211
 21
4.5210527256
 31
0.0
 11
6.0913131625
 21
4.5203477764
 31
0.0
 11
6.0771674124
 21
4.520177184
 31
0.0
 11
6.0628968617
 21
4.5205538942
 31
0.0
 11
6.0491179303
 21
4.5214059686
 31
0.0
 11
6.0363414458
 21
4.5225962661
 31
0.0
 11
6.0252720402
 21
4.5239192936
 31
0.0
 11
6.0162701522
 21
4.5251837064
 31
0.0
 11
6.0095317729
 21
4.526235677
 31
0.0
 11
6.0052038384
 21
4.526957288
 31
0.0
 11
6.0036874471
 21
4.5272184326
 31
0.0
  0
SPLINE
  5
403
100
AcDbEntity
  8
0
100
AcDbSpline
 62
7
  6
CONTINUOUS
 70
0
 71
3
 72
11
 73
7
 74
5
 42
0.0000001
 43
0.0000001
 44
0.0000000001
 12
0.0224597938
 22
-0.0230927371
 32
0.0
 13
0.0305493954
 23
-0.010151699
 33
0.0
 40
0.0
 40
0.0
 40
0.0
 40
0.0
 40
0.1874629409
 40
0.4330496555
 40
0.7146638799
 40
1.0
 40
1.0
 40
1.0
 40
1.0
 10
6.1027903969
 20
4.160589887
 30
0.0
 10
6.1041938566
 20
4.1591468762
 30
0.0
 10
6.1076691393
 20
4.1560426304
 30
0.0
 10
6.114032852
 20
4.1517303358
 30
0.0
 10
6.1218256882
 20
4.1477840854
 30
0.0
 10
6.1275175373
 20
4.1456186817
 30
0.0
 10
6.1304231526
 20
4.1446531329
 30
0.0
 11
6.1027903969
 21
4.160589887
 31
0.0
 11
6.1072740478
 21
4.1565513322
 31
0.0
 11
6.1137905554
 21
4.1520824137
 31
0.0
 11
6.1218527534
 21
4.1479472638
 31
0.0
 11
6.1304231526
 21
4.1446531329
 31
0.0
  0
SPLINE
  5
404
100
AcDbEntity
  8
0
100
AcDbSpline
 62
7
  6
CONTINUOUS
 70
0
 71
3
 72
11
 73
7
 74
5
 42
0.0000001
 43
0.0000001
 44
0.0000000001
 12
0.0291988941
 22
-0.0253035522
 32
0.0
 13
-0.0
 23
-0.0385604381
 33
0.0
 40
0.0
 40
0.0
 40
0.0
 40
0.0
 40
0.1445231303
 40
0.4244607977
 40
0.7057085265
 40
1.0
 40
1.0
 40
1.0
 40
1.0
 10
6.1321585366
 20
4.4208884392
 30
0.0
 10
6.1335651752
 20
4.4196694563
 30
0.0
 10
6.1375050344
 20
4.4158699682
 30
0.0
 10
6.1429247238
 20
4.4084875544
 30
0.0
 10
6.1470921583
 20
4.3981888372
 30
0.0
 10
6.1480250144
 20
4.390751102
 30
0.0
 10
6.1480250144
 20
4.3869684326
 30
0.0
 11
6.1321585366
 21
4.4208884392
 31
0.0
 11
6.1361692685
 21
4.4170078203
 31
0.0
 11
6.1425225047
 21
4.4082809634
 31
0.0
 11
6.1465818588
 21
4.3982243018
 31
0.0
 11
6.1480250144
 21
4.3869684326
 31
0.0
  0
SPLINE
  5
405
100
AcDbEntity
  8
0
100
AcDbSpline
 62
7
  6
CONTINUOUS
 70
0
 71
3
 72
11
 73
7
 74
5
 42
0.0000001
 43
0.0000001
 44
0.0000000001
 12
-0.0304658454
 22
-0.010154643
 32
0.0
 13
-0.0223951148
 23
-0.0230492108
 33
0.0
 40
0.0
 40
0.0
 40
0.0
 40
0.0
 40
0.2455690802
 40
0.5411123171
 40
0.7943732329
 40
1.0
 40
1.0
 40
1.0
 40
1.0
 10
6.1303303067
 20
4.3487530282
 30
0.0
 10
6.1278364835
 20
4.3479218061
 30
0.0
 10
6.1224092911
 20
4.3458871856
 30
0.0
 10
6.1147589703
 20
4.3421377188
 30
0.0
 10
6.1080064014
 20
4.3376722221
 30
0.0
 10
6.104311474
 20
4.3344124495
 30
0.0
 10
6.1027764623
 20
4.3328326046
 30
0.0
 11
6.1303303067
 21
4.3487530282
 31
0.0
 11
6.1229549898
 21
4.3459681093
 31
0.0
 11
6.1144600056
 21
4.3417473169
 31
0.0
 11
6.1077056552
 21
4.3372246949
 31
0.0
 11
6.1027764623
 21
4.3328326046
 31
0.0
  0
SPLINE
  5
406
100
AcDbEntity
  8
0
100
AcDbSpline
 62
7
  6
CONTINUOUS
 70
0
 71
3
 72
20
 73
16
 74
14
 42
0.0000001
 43
0.0000001
 44
0.0000000001
 12
0.1214812112
 22
0.1052088618
 32
0.0
 13
-0.0
 23
-0.1604889322
 33
0.0
 40
0.0
 40
0.0
 40
0.0
 40
0.0
 40
0.0175673193
 40
0.1005226499
 40
0.1878970264
 40
0.2767846786
 40
0.3661545465
 40
0.4545823059
 40
0.5415320245
 40
0.6260190316
 40
0.7073797657
 40
0.7846510125
 40
0.8585773571
 40
0.9299651583
 40
1.0
 40
1.0
 40
1.0
 40
1.0
 10
6.0230264865
 20
4.1433965742
 30
0.0
 10
6.0237378529
 20
4.1440126534
 30
0.0
 10
6.0278760186
 20
4.1474598605
 30
0.0
 10
6.0362689181
 20
4.153071098
 30
0.0
 10
6.0489193677
 20
4.1588887536
 30
0.0
 10
6.062647841
 20
4.1627744557
 30
0.0
 10
6.0768769819
 20
4.1644611065
 30
0.0
 10
6.0910925139
 20
4.1637875084
 30
0.0
 10
6.1047248883
 20
4.1606975166
 30
0.0
 10
6.1172086779
 20
4.1552864386
 30
0.0
 10
6.1279877953
 20
4.1478572999
 30
0.0
 10
6.1366868935
 20
4.1388462354
 30
0.0
 10
6.1430934988
 20
4.1287060862
 30
0.0
 10
6.1470845104
 20
4.1178066749
 30
0.0
 10
6.1480250144
 20
4.1102150382
 30
0.0
 10
6.1480250144
 20
4.1064684326
 30
0.0
 11
6.0230264865
 21
4.1433965742
 31
0.0
 11
6.0251949715
 21
4.1452039212
 31
0.0
 11
6.0362385878
 21
4.1526393424
 31
0.0
 11
6.0489702482
 21
4.1585163063
 31
0.0
 11
6.0626970827
 21
4.1623993543
 31
0.0
 11
6.0769424841
 21
4.164068663
 31
0.0
 11
6.0911168054
 21
4.1633670211
 31
0.0
 11
6.1047183882
 21
4.1602486709
 31
0.0
 11
6.117145892
 21
4.1548255854
 31
0.0
 11
6.127879898
 21
4.1473905768
 31
0.0
 11
6.1364714718
 21
4.1384477517
 31
0.0
 11
6.1427810766
 21
4.128400268
 31
0.0
 11
6.1466813958
 21
4.1176276518
 31
0.0
 11
6.1480250144
 21
4.1064684326
 31
0.0
  0
SPLINE
  5
407
100
AcDbEntity
  8
0
100
AcDbSpline
 62
7
  6
CONTINUOUS
 70
0
 71
3
 72
23
 73
19
 74
17
 42
0.0000001
 43
0.0000001
 44
0.0000000001
 12
0.1431062465
 22
0.0248463452
 32
0.0
 13
0.1419389053
 23
-0.0308231987
 33
0.0
 40
0.0
 40
0.0
 40
0.0
 40
0.0
 40
0.010525562
 40
0.0405578941
 40
0.087351095
 40
0.149804549
 40
0.2263808847
 40
0.3144185861
 40
0.4091091956
 40
0.5072224275
 40
0.6048164711
 40
0.6985849541
 40
0.7845028427
 40
0.8590149377
 40
0.9189308632
 40
0.9631256401
 40
0.9905385938
 40
1.0
 40
1.0
 40
1.0
 40
1.0
 10
6.0036874471
 20
3.9662184326
 30
0.0
 10
6.0041895384
 20
3.9663056065
 30
0.0
 10
6.0061246904
 20
3.9666388942
 30
0.0
 10
6.0102962607
 20
3.9673347641
 30
0.0
 10
6.0169588467
 20
3.9683761175
 30
0.0
 10
6.0258682403
 20
3.9696302663
 30
0.0
 10
6.0367845797
 20
3.9709399753
 30
0.0
 10
6.0492858468
 20
3.9721126915
 30
0.0
 10
6.062858866
 20
3.9729635292
 30
0.0
 10
6.0769166663
 20
3.9733487832
 30
0.0
 10
6.0909346793
 20
3.9731940217
 30
0.0
 10
6.1043455336
 20
3.97250735
 30
0.0
 10
6.1166050041
 20
3.9713894888
 30
0.0
 10
6.1271881852
 20
3.9700280036
 30
0.0
 10
6.1357272603
 20
3.9686512527
 30
0.0
 10
6.1419868927
 20
3.9674797843
 30
0.0
 10
6.1458318488
 20
3.9666904528
 30
0.0
 10
6.1475773672
 20
3.9663156429
 30
0.0
 10
6.1480250144
 20
3.9662184326
 30
0.0
 11
6.0036874471
 21
3.9662184326
 31
0.0
 11
6.0051940751
 21
3.9664779095
 31
0.0
 11
6.0094967607
 21
3.967195493
 31
0.0
 11
6.01621191
 21
3.968244447
 31
0.0
 11
6.0251947494
 21
3.9695074207
 31
0.0
 11
6.0362383952
 21
3.9708295034
 31
0.0
 11
6.0489701562
 21
3.9720192785
 31
0.0
 11
6.0626971226
 21
3.9728739642
 31
0.0
 11
6.0769426239
 21
3.9732579222
 31
0.0
 11
6.0911169556
 21
3.9730953269
 31
0.0
 11
6.1047184936
 21
3.972393902
 31
0.0
 11
6.1171459671
 21
3.9712573694
 31
0.0
 11
6.1278799533
 21
3.9698746773
 31
0.0
 11
6.1364715055
 21
3.9684887261
 31
0.0
 11
6.1427810903
 21
3.9673076814
 31
0.0
 11
6.1466813982
 21
3.966506945
 31
0.0
 11
6.1480250144
 21
3.9662184326
 31
0.0
  0
SPLINE
  5
408
100
AcDbEntity
  8
0
100
AcDbSpline
 62
7
  6
CONTINUOUS
 70
0
 71
3
 72
20
 73
16
 74
14
 42
0.0000001
 43
0.0000001
 44
0.0000000001
 12
0.0
 22
0.1565624279
 32
0.0
 13
0.1185528479
 23
-0.1027370477
 33
0.0
 40
0.0
 40
0.0
 40
0.0
 40
0.0
 40
0.0644363326
 40
0.1306451089
 40
0.2001795389
 40
0.2768124185
 40
0.3620680854
 40
0.4522860195
 40
0.5417904728
 40
0.6295809177
 40
0.7154444449
 40
0.8000236761
 40
0.8831485808
 40
0.9625716448
 40
1.0
 40
1.0
 40
1.0
 40
1.0
 10
6.0036874471
 20
4.3869684326
 30
0.0
 10
6.0036874471
 20
4.3903312022
 30
0.0
 10
6.0046544394
 20
4.3971900241
 30
0.0
 10
6.0090130463
 20
4.4068217227
 30
0.0
 10
6.0160455724
 20
4.4155200666
 30
0.0
 10
6.0255403562
 20
4.4231110982
 30
0.0
 10
6.037197161
 20
4.4293470571
 30
0.0
 10
6.0502991242
 20
4.433918935
 30
0.0
 10
6.0640128452
 20
4.436724656
 30
0.0
 10
6.0777355355
 20
4.437821732
 30
0.0
 10
6.0912348944
 20
4.4372683616
 30
0.0
 10
6.1043168317
 20
4.4350133686
 30
0.0
 10
6.1166124849
 20
4.4309357873
 30
0.0
 10
6.125836811
 20
4.425914033
 30
0.0
 10
6.1306794573
 20
4.4221701987
 30
0.0
 10
6.1321585366
 20
4.4208884392
 30
0.0
 11
6.0036874471
 21
4.3869684326
 31
0.0
 11
6.005098072
 21
4.3969576322
 31
0.0
 11
6.0093068437
 21
4.406430551
 31
0.0
 11
6.0160723125
 21
4.4149595522
 31
0.0
 11
6.0253755699
 21
4.422535654
 31
0.0
 11
6.0371005939
 21
4.4289144071
 31
0.0
 11
6.0504167509
 21
4.4336248433
 31
0.0
 11
6.0641405797
 21
4.4364570964
 31
0.0
 11
6.0778417744
 21
4.4375496333
 31
0.0
 11
6.0912724307
 21
4.4369736299
 31
0.0
 11
6.1043134963
 21
4.434675954
 31
0.0
 11
6.1166424765
 21
4.4305086277
 31
0.0
 11
6.1275210296
 21
4.424485502
 31
0.0
 11
6.1321585366
 21
4.4208884392
 31
0.0
  0
SPLINE
  5
409
100
AcDbEntity
  8
0
100
AcDbSpline
 62
7
  6
CONTINUOUS
 70
0
 71
3
 72
11
 73
7
 74
5
 42
0.0000001
 43
0.0000001
 44
0.0000000001
 12
-0.0324629127
 22
0.0281151685
 32
0.0
 13
0.0
 23
0.04288727
 33
0.0
 40
0.0
 40
0.0
 40
0.0
 40
0.0
 40
0.2218054758
 40
0.4917765437
 40
0.7500855724
 40
1.0
 40
1.0
 40
1.0
 40
1.0
 10
6.0230258541
 20
4.3500408237
 30
0.0
 10
6.0206257035
 20
4.3521195232
 30
0.0
 10
6.0156026205
 20
4.3570727484
 30
0.0
 10
6.0092574485
 20
4.3658062236
 30
0.0
 10
6.0047782721
 20
4.3760983187
 30
0.0
 10
6.0036874471
 20
4.3833957167
 30
0.0
 10
6.0036874471
 20
4.3869684326
 30
0.0
 11
6.0230258541
 21
4.3500408237
 31
0.0
 11
6.0162701522
 21
4.3567448034
 31
0.0
 11
6.0095317729
 21
4.3661603112
 31
0.0
 11
6.0052038384
 21
4.3763580959
 31
0.0
 11
6.0036874471
 21
4.3869684326
 31
0.0
  0
SPLINE
  5
40A
100
AcDbEntity
  8
0
100
AcDbSpline
 62
7
  6
CONTINUOUS
 70
0
 71
3
 72
11
 73
7
 74
5
 42
0.0000001
 43
0.0000001
 44
0.0000000001
 12
0.0
 22
0.0428885187
 32
0.0
 13
0.0324642275
 23
0.0281156599
 33
0.0
 40
0.0
 40
0.0
 40
0.0
 40
0.0
 40
0.2490852968
 40
0.5065718712
 40
0.7761263697
 40
1.0
 40
1.0
 40
1.0
 40
1.0
 10
6.0036874471
 20
4.1064684326
 30
0.0
 10
6.0036874471
 20
4.1100293991
 30
0.0
 10
6.0047710367
 20
4.1173031468
 30
0.0
 10
6.0092260668
 20
4.1275731104
 30
0.0
 10
6.0155663878
 20
4.136325275
 30
0.0
 10
6.0206038584
 20
4.1412984559
 30
0.0
 10
6.0230264865
 20
4.1433965742
 30
0.0
 11
6.0036874471
 21
4.1064684326
 31
0.0
 11
6.0051941085
 21
4.1170445525
 31
0.0
 11
6.0094968687
 21
4.1272150447
 31
0.0
 11
6.0162120949
 21
4.1366255535
 31
0.0
 11
6.0230264865
 21
4.1433965742
 31
0.0
  0
SPLINE
  5
40B
100
AcDbEntity
  8
0
100
AcDbSpline
 62
7
  6
CONTINUOUS
 70
0
 71
3
 72
20
 73
16
 74
14
 42
0.0000001
 43
0.0000001
 44
0.0000000001
 12
-0.1185543263
 22
-0.1027351089
 32
0.0
 13
0.0
 23
0.1565618443
 33
0.0
 40
0.0
 40
0.0
 40
0.0
 40
0.0
 40
0.0377378124
 40
0.1171786517
 40
0.2001313255
 40
0.2845568738
 40
0.3703959571
 40
0.458301838
 40
0.5479618006
 40
0.6381955196
 40
0.7232486838
 40
0.7997885758
 40
0.8693593549
 40
0.9356631229
 40
1.0
 40
1.0
 40
1.0
 40
1.0
 10
6.1321580081
 20
4.072547968
 30
0.0
 10
6.1306666811
 20
4.0712556353
 30
0.0
 10
6.1258085463
 20
4.0675035319
 30
0.0
 10
6.1165732297
 20
4.0624852646
 30
0.0
 10
6.104291394
 20
4.0584185636
 30
0.0
 10
6.0912274564
 20
4.0561683214
 30
0.0
 10
6.0777314477
 20
4.0556149246
 30
0.0
 10
6.063995922
 20
4.0567137358
 30
0.0
 10
6.0502680862
 20
4.0595257573
 30
0.0
 10
6.0371694964
 20
4.064102492
 30
0.0
 10
6.0255280719
 20
4.0703354444
 30
0.0
 10
6.0160445543
 20
4.0779183621
 30
0.0
 10
6.0090102634
 20
4.0866179032
 30
0.0
 10
6.004652777
 20
4.0962524629
 30
0.0
 10
6.0036874471
 20
4.1031108659
 30
0.0
 10
6.0036874471
 20
4.1064684326
 30
0.0
 11
6.1321580081
 21
4.072547968
 31
0.0
 11
6.1274805562
 21
4.0689232908
 31
0.0
 11
6.1165948347
 21
4.0629074706
 31
0.0
 11
6.1042893968
 21
4.05875486
 31
0.0
 11
6.0912717595
 21
4.0564631636
 31
0.0
 11
6.0778449833
 21
4.0558871718
 31
0.0
 11
6.0641258802
 21
4.0569818446
 31
0.0
 11
6.0503789645
 21
4.0598224285
 31
0.0
 11
6.0370625129
 21
4.0645392807
 31
0.0
 11
6.0253674357
 21
4.070906632
 31
0.0
 11
6.0160757683
 21
4.0784738401
 31
0.0
 11
6.0093064325
 21
4.0870069859
 31
0.0
 11
6.0050937096
 21
4.0964943806
 31
0.0
 11
6.0036874471
 21
4.1064684326
 31
0.0
  0
SPLINE
  5
40C
100
AcDbEntity
  8
THREAD
100
AcDbSpline
 62
7
  6
CONTINUOUS
 70
0
 71
3
 72
15
 73
11
 74
9
 42
0.0000001
 43
0.0000001
 44
0.0000000001
 12
-0.1047017673
 22
0.2030163597
 32
0.0
 13
0.1047017673
 23
0.2030163597
 33
0.0
 40
0.0
 40
0.0
 40
0.0
 40
0.0
 40
0.1346257358
 40
0.2606745914
 40
0.3815608613
 40
0.5000347823
 40
0.6185057449
 40
0.7393842591
 40
0.8653963
 40
1.0
 40
1.0
 40
1.0
 40
1.0
 10
4.5509198967
 20
4.5164159601
 30
0.0
 10
4.5462213792
 20
4.525526369
 30
0.0
 10
4.5378324414
 20
4.5435514227
 30
0.0
 10
4.5283323146
 20
4.5710697542
 30
0.0
 10
4.5225124712
 20
4.5983587481
 30
0.0
 10
4.5205432727
 20
4.6256261966
 30
0.0
 10
4.522514669
 20
4.6528928807
 30
0.0
 10
4.5283355966
 20
4.6801779096
 30
0.0
 10
4.5378349908
 20
4.7076910662
 30
0.0
 10
4.5462221482
 20
4.7257119874
 30
0.0
 10
4.5509198967
 20
4.7348209051
 30
0.0
 11
4.5509198967
 21
4.5164159601
 31
0.0
 11
4.5380628336
 21
4.5443511796
 31
0.0
 11
4.5287809976
 21
4.5716068138
 31
0.0
 11
4.5231104455
 21
4.5986317842
 31
0.0
 11
4.5211956152
 21
4.6256263934
 31
0.0
 11
4.5231125798
 21
4.6526201735
 31
0.0
 11
4.5287845897
 21
4.6796430279
 31
0.0
 11
4.5380647138
 21
4.7068903613
 31
0.0
 11
4.5509198967
 21
4.7348209051
 31
0.0
  0
SPLINE
  5
40D
100
AcDbEntity
  8
THREAD
100
AcDbSpline
 62
7
  6
CONTINUOUS
 70
0
 71
3
 72
15
 73
11
 74
9
 42
0.0000001
 43
0.0000001
 44
0.0000000001
 12
0.1643031241
 22
0.1839340856
 32
0.0
 13
-0.1643031241
 23
0.1839340856
 33
0.0
 40
0.0
 40
0.0
 40
0.0
 40
0.0
 40
0.1498215377
 40
0.2783315905
 40
0.3927788038
 40
0.5000592815
 40
0.6073304266
 40
0.7217569014
 40
0.8502022558
 40
1.0
 40
1.0
 40
1.0
 40
1.0
 10
4.9863562308
 20
4.5164159601
 30
0.0
 10
4.994561613
 20
4.5256017226
 30
0.0
 10
5.0089933925
 20
4.5434446812
 30
0.0
 10
5.0255911212
 20
4.5713030953
 30
0.0
 10
5.0355762282
 20
4.5985301693
 30
0.0
 10
5.0389372513
 20
4.625632525
 30
0.0
 10
5.0355694776
 20
4.6527321888
 30
0.0
 10
5.0255823603
 20
4.6799499654
 30
0.0
 10
5.0089876308
 20
4.7077994258
 30
0.0
 10
4.9945603099
 20
4.7256366014
 30
0.0
 10
4.9863562308
 20
4.7348209051
 30
0.0
 11
4.9863562308
 21
4.5164159601
 31
0.0
 11
5.0093247045
 21
4.5453608731
 31
0.0
 11
5.0252508894
 21
4.5727635881
 31
0.0
 11
5.0346998868
 21
4.5993613695
 31
0.0
 11
5.0378401958
 21
4.6256331334
 31
0.0
 11
5.0346936076
 21
4.6519018279
 31
0.0
 11
5.0252415754
 21
4.6784931027
 31
0.0
 11
5.0093213679
 21
4.7058808357
 31
0.0
 11
4.9863562308
 21
4.7348209051
 31
0.0
  0
SPLINE
  5
40E
100
AcDbEntity
  8
THREAD
100
AcDbSpline
 62
7
  6
CONTINUOUS
 70
0
 71
3
 72
15
 73
11
 74
9
 42
0.0000001
 43
0.0000001
 44
0.0000000001
 12
-0.1047017673
 22
0.2030163597
 32
0.0
 13
0.1047017673
 23
0.2030163597
 33
0.0
 40
0.0
 40
0.0
 40
0.0
 40
0.0
 40
0.1346257358
 40
0.2606745914
 40
0.3815608613
 40
0.5000347823
 40
0.6185057449
 40
0.7393842591
 40
0.8653963
 40
1.0
 40
1.0
 40
1.0
 40
1.0
 10
4.5509198967
 20
3.7586159601
 30
0.0
 10
4.5462213792
 20
3.767726369
 30
0.0
 10
4.5378324414
 20
3.7857514227
 30
0.0
 10
4.5283323146
 20
3.8132697542
 30
0.0
 10
4.5225124712
 20
3.8405587481
 30
0.0
 10
4.5205432727
 20
3.8678261966
 30
0.0
 10
4.522514669
 20
3.8950928807
 30
0.0
 10
4.5283355966
 20
3.9223779096
 30
0.0
 10
4.5378349908
 20
3.9498910662
 30
0.0
 10
4.5462221482
 20
3.9679119874
 30
0.0
 10
4.5509198967
 20
3.9770209051
 30
0.0
 11
4.5509198967
 21
3.7586159601
 31
0.0
 11
4.5380628336
 21
3.7865511796
 31
0.0
 11
4.5287809976
 21
3.8138068138
 31
0.0
 11
4.5231104455
 21
3.8408317842
 31
0.0
 11
4.5211956152
 21
3.8678263934
 31
0.0
 11
4.5231125798
 21
3.8948201735
 31
0.0
 11
4.5287845897
 21
3.9218430279
 31
0.0
 11
4.5380647138
 21
3.9490903613
 31
0.0
 11
4.5509198967
 21
3.9770209051
 31
0.0
  0
SPLINE
  5
40F
100
AcDbEntity
  8
THREAD
100
AcDbSpline
 62
7
  6
CONTINUOUS
 70
0
 71
3
 72
15
 73
11
 74
9
 42
0.0000001
 43
0.0000001
 44
0.0000000001
 12
0.1643031241
 22
0.1839340856
 32
0.0
 13
-0.1643031241
 23
0.1839340856
 33
0.0
 40
0.0
 40
0.0
 40
0.0
 40
0.0
 40
0.1498215377
 40
0.2783315905
 40
0.3927788038
 40
0.5000592815
 40
0.6073304266
 40
0.7217569014
 40
0.8502022558
 40
1.0
 40
1.0
 40
1.0
 40
1.0
 10
4.9863562308
 20
3.7586159601
 30
0.0
 10
4.994561613
 20
3.7678017226
 30
0.0
 10
5.0089933925
 20
3.7856446812
 30
0.0
 10
5.0255911212
 20
3.8135030953
 30
0.0
 10
5.0355762282
 20
3.8407301693
 30
0.0
 10
5.0389372513
 20
3.867832525
 30
0.0
 10
5.0355694776
 20
3.8949321888
 30
0.0
 10
5.0255823603
 20
3.9221499654
 30
0.0
 10
5.0089876308
 20
3.9499994258
 30
0.0
 10
4.9945603099
 20
3.9678366014
 30
0.0
 10
4.9863562308
 20
3.9770209051
 30
0.0
 11
4.9863562308
 21
3.7586159601
 31
0.0
 11
5.0093247045
 21
3.7875608731
 31
0.0
 11
5.0252508894
 21
3.8149635881
 31
0.0
 11
5.0346998868
 21
3.8415613695
 31
0.0
 11
5.0378401958
 21
3.8678331334
 31
0.0
 11
5.0346936076
 21
3.8941018279
 31
0.0
 11
5.0252415754
 21
3.9206931027
 31
0.0
 11
5.0093213679
 21
3.9480808357
 31
0.0
 11
4.9863562308
 21
3.9770209051
 31
0.0
  0
SPLINE
  5
410
100
AcDbEntity
  8
THREAD
100
AcDbSpline
 62
7
  6
CONTINUOUS
 70
0
 71
3
 72
15
 73
11
 74
9
 42
0.0000001
 43
0.0000001
 44
0.0000000001
 12
-0.1103563678
 22
0.4279612204
 32
0.0
 13
0.1103563678
 23
0.4279612204
 33
0.0
 40
0.0
 40
0.0
 40
0.0
 40
0.0
 40
0.1297189924
 40
0.2548338227
 40
0.3778008073
 40
0.5000360058
 40
0.6222676266
 40
0.7452254315
 40
0.8703025816
 40
1.0
 40
1.0
 40
1.0
 40
1.0
 10
4.5509198967
 20
4.0283134876
 30
0.0
 10
4.5461481244
 20
4.046818387
 30
0.0
 10
4.537665398
 20
4.083411409
 30
0.0
 10
4.5282402609
 20
4.138299217
 30
0.0
 10
4.5224897825
 20
4.1925923534
 30
0.0
 10
4.5205499147
 20
4.246733841
 30
0.0
 10
4.5224919516
 20
4.3008738915
 30
0.0
 10
4.5282435419
 20
4.3551594231
 30
0.0
 10
4.5376680165
 20
4.410037083
 30
0.0
 10
4.546148918
 20
4.4466215558
 30
0.0
 10
4.5509198967
 20
4.4651233776
 30
0.0
 11
4.5509198967
 21
4.0283134876
 31
0.0
 11
4.5380628336
 21
4.0841839266
 31
0.0
 11
4.5287809976
 21
4.1386951949
 31
0.0
 11
4.5231104455
 21
4.1927451359
 31
0.0
 11
4.5211956152
 21
4.2467343541
 31
0.0
 11
4.5231125798
 21
4.3007219144
 31
0.0
 11
4.5287845897
 21
4.3547676231
 31
0.0
 11
4.5380647138
 21
4.40926229
 31
0.0
 11
4.5509198967
 21
4.4651233776
 31
0.0
  0
SPLINE
  5
411
100
AcDbEntity
  8
THREAD
100
AcDbSpline
 62
7
  6
CONTINUOUS
 70
0
 71
3
 72
15
 73
11
 74
9
 42
0.0000001
 43
0.0000001
 44
0.0000000001
 12
0.1843202379
 22
0.4126856942
 32
0.0
 13
-0.1843202379
 23
0.4126856942
 33
0.0
 40
0.0
 40
0.0
 40
0.0
 40
0.0
 40
0.1377942686
 40
0.2640673782
 40
0.3836049145
 40
0.5000649493
 40
0.6165122554
 40
0.736022619
 40
0.8622283762
 40
1.0
 40
1.0
 40
1.0
 40
1.0
 10
4.9863562308
 20
4.0283134876
 30
0.0
 10
4.9948223216
 20
4.0472687287
 30
0.0
 10
5.0096538643
 20
4.0842496676
 30
0.0
 10
5.0259909796
 20
4.1397859487
 30
0.0
 10
5.035684149
 20
4.193616688
 30
0.0
 10
5.0389058055
 20
4.2467459909
 30
0.0
 10
5.0356776154
 20
4.2998707415
 30
0.0
 10
5.0259820938
 20
4.3536845241
 30
0.0
 10
5.0096476444
 20
4.4092030193
 30
0.0
 10
4.9948209303
 20
4.4461712515
 30
0.0
 10
4.9863562308
 20
4.4651233776
 30
0.0
 11
4.9863562308
 21
4.0283134876
 31
0.0
 11
5.0093247045
 21
4.0862033136
 31
0.0
 11
5.0252508894
 21
4.1410087437
 31
0.0
 11
5.0346998868
 21
4.1942043063
 31
0.0
 11
5.0378401958
 21
4.2467478343
 31
0.0
 11
5.0346936076
 21
4.2992852232
 31
0.0
 11
5.0252415754
 21
4.3524677729
 31
0.0
 11
5.0093213679
 21
4.4072432389
 31
0.0
 11
4.9863562308
 21
4.4651233776
 31
0.0
  0
ENDSEC
  0
SECTION
  2
OBJECTS
  0
DICTIONARY
  5
C
100
AcDbDictionary
280
0
281
1
  3
ACAD_GROUP
350
D
  3
ACAD_MLINESTYLE
350
17
  3
ACAD_LAYOUT
350
1A
  3
ACAD_PLOTSETTINGS
350
19
  3
ACAD_PLOTSTYLENAME
350
E
  0
DICTIONARY
  5
D
102
{ACAD_REACTORS
330
C
102
}
100
AcDbDictionary
280
0
281
1
  0
ACDBDICTIONARYWDFLT
  5
E
102
{ACAD_REACTORS
330
C
102
}
100
AcDbDictionary
281
1
  3
Normal
350
F
100
AcDbDictionaryWithDefault
340
F
  0
DICTIONARY
  5
17
102
{ACAD_REACTORS
330
C
102
}
100
AcDbDictionary
280
0
281
1
  3
Standard
350
18
  0
DICTIONARY
  5
19
102
{ACAD_REACTORS
330
C
102
}
100
AcDbDictionary
281
1
  0
DICTIONARY
  5
1A
102
{ACAD_REACTORS
330
C
102
}
100
AcDbDictionary
281
1
  3
Layout1
350
1E
  3
Model
350
22
  0
ACDBPLACEHOLDER
  5
F
102
{ACAD_REACTORS
330
E
102
}
  0
MLINESTYLE
  5
18
102
{ACAD_REACTORS
330
17
102
}
100
AcDbMlineStyle
  2
STANDARD
 70
0
  3

 62
256
 51
90.0
 52
90.0
 71
2
 49
0.5
 62
256
  6
BYLAYER
 49
-0.5
 62
256
  6
BYLAYER
  0
LAYOUT
  5
1E
102
{ACAD_REACTORS
330
1A
102
}
100
AcDbPlotSettings
  1

  2

  4

  6

 40
0.0
 41
0.0
 42
0.0
 43
0.0
 44
0.0
 45
0.0
 46
0.0
 47
0.0
 48
0.0
 49
0.0
140
0.0
141
0.0
142
1.0
143
1.0
 70
0
 72
0
 73
0
 74
0
  7

 75
0
147
1.0
148
0.0
149
0.0
100
AcDbLayout
  1
Layout1
 70
0
 71
0
 10
0.0
 20
0.0
 11
0.0
 21
0.0
 12
0.0
 22
0.0
 32
0.0
 14
0.0
 24
0.0
 34
0.0
 15
0.0
 25
0.0
 35
0.0
146
0.0
 13
0.0
 23
0.0
 33
0.0
 16
0.0
 26
0.0
 36
0.0
 17
0.0
 27
0.0
 37
0.0
 76
0
330
1B
331
0
345
0
346
0
  0
LAYOUT
  5
22
102
{ACAD_REACTORS
330
1A
102
}
100
AcDbPlotSettings
  1

  2

  4

  6

 40
0.0
 41
0.0
 42
0.0
 43
0.0
 44
0.0
 45
0.0
 46
0.0
 47
0.0
 48
0.0
 49
0.0
140
0.0
141
0.0
142
1.0
143
1.0
 70
0
 72
0
 73
0
 74
0
  7

 75
0
147
1.0
148
0.0
149
0.0
100
AcDbLayout
  1
Model
 70
0
 71
0
 10
0.0
 20
0.0
 11
0.0
 21
0.0
 12
0.0
 22
0.0
 32
0.0
 14
0.0
 24
0.0
 34
0.0
 15
0.0
 25
0.0
 35
0.0
146
0.0
 13
0.0
 23
0.0
 33
0.0
 16
0.0
 26
0.0
 36
0.0
 17
0.0
 27
0.0
 37
0.0
 76
0
330
1F
331
0
345
0
346
0
  0
ENDSEC
  0
EOF
