999
DXF file: CSAB-XXN.dxf
999
Pro/ENGINEER 2006240 by Parametric Technology Corporation
  0
SECTION
  2
HEADER
  9
$ACADVER
  1
AC1015
  9
$DWGCODEPAGE
  3
ANSI_1252
  9
$EXTMAX
 10
11.6929133858
 20
8.2677165354
 30
0.0
  9
$EXTMIN
 10
0.0
 20
0.0
 30
0.0
  9
$LIMMIN
 10
0.0
 20
0.0
  9
$LIMMAX
 10
11.6929133858
 20
8.2677165354
  9
$VIEWCTR
 10
5.8464566929
 20
4.1338582677
  9
$VIEWSIZE
 40
8.2677165354
  9
$CLAYER
  8
0
  9
$LTSCALE
 40
0.6431102362
  9
$CELTYPE
  6
BYLAYER
  9
$DIMSCALE
 40
1.0
  9
$DIMASZ
 40
0.1875
  9
$DIMEXO
 40
0.0730807087
  9
$DIMDLI
 40
0.4443307087
  9
$DIMEXE
 40
0.2104724409
  9
$DIMCEN
 40
0.1052362205
  9
$DIMLFAC
 40
1.0
  9
$DIMBLK
  1
_CLOSED
  9
$DIMTXT
 40
0.15625
  9
$DIMTOL
 70
0
  9
$DIMLIM
 70
0
  9
$DIMTFAC
 40
1.0
  9
$PDMODE
 70
3
  9
$PDSIZE
 40
0.3125
  9
$HANDSEED
  5
420
  9
$MEASUREMENT
 70
0
  9
$INSUNITS
 70
1
  0
ENDSEC
  0
SECTION
  2
CLASSES
  0
CLASS
  1
ACDBDICTIONARYWDFLT
  2
AcDbDictionaryWithDefault
  3
AutoCAD 2000
 90
0
280
0
281
0
  0
CLASS
  1
ACDBPLACEHOLDER
  2
AcDbPlaceHolder
  3
AutoCAD 2000
 90
0
280
0
281
0
  0
CLASS
  1
LAYOUT
  2
AcDbLayout
  3
AutoCAD 2000
 90
0
280
0
281
0
  0
ENDSEC
  0
SECTION
  2
TABLES
  0
TABLE
  2
VPORT
  5
8
100
AcDbSymbolTable
 70
2
  0
VPORT
  5
1F4
100
AcDbSymbolTableRecord
100
AcDbViewportTableRecord
  2
*ACTIVE
 70
0
 10
0.0
 20
0.0
 11
1.0
 21
1.0
 12
5.8464566929
 22
4.1338582677
 13
0.0
 23
0.0
 14
1.0
 24
1.0
 15
0.0
 25
0.0
 16
0.0
 26
0.0
 36
1.0
 17
0.0
 27
0.0
 37
0.0
 40
8.2677165354
 41
1.4142857143
 42
50.0
 43
0.0
 44
0.0
 50
0.0
 51
0.0
 71
0
 72
100
 73
1
 74
1
 75
0
 76
0
 77
0
 78
0
  0
ENDTAB
  0
TABLE
  2
LTYPE
  5
5
100
AcDbSymbolTable
 70
6
  0
LTYPE
  5
14
100
AcDbSymbolTableRecord
100
AcDbLinetypeTableRecord
  2
BYBLOCK
 70
0
  3

 72
65
 73
0
 40
0.0
  0
LTYPE
  5
15
100
AcDbSymbolTableRecord
100
AcDbLinetypeTableRecord
  2
BYLAYER
 70
0
  3

 72
65
 73
0
 40
0.0
  0
LTYPE
  5
16
100
AcDbSymbolTableRecord
100
AcDbLinetypeTableRecord
  2
CONTINUOUS
 70
64
  3
Solid line
 72
65
 73
0
 40
0.0
  0
LTYPE
  5
1F5
100
AcDbSymbolTableRecord
100
AcDbLinetypeTableRecord
  2
CENTER
 70
64
  3
____ _ ____ _ ____ _ ____ _ ____ _ ____ _ ____
 72
65
 73
4
 40
0.6
 49
0.375
 74
0
 49
-0.075
 74
0
 49
0.075
 74
0
 49
-0.075
 74
0
  0
LTYPE
  5
1F6
100
AcDbSymbolTableRecord
100
AcDbLinetypeTableRecord
  2
HIDDEN
 70
64
  3
- - - - - - - - - - - - - - - - - - - -
 72
65
 73
2
 40
0.2
 49
0.1
 74
0
 49
-0.1
 74
0
  0
LTYPE
  5
1F7
100
AcDbSymbolTableRecord
100
AcDbLinetypeTableRecord
  2
PHANTOM
 70
64
  3
_____ _ _ _____ _ _ _____ _ _ _____
 72
65
 73
6
 40
0.8
 49
0.45
 74
0
 49
-0.05
 74
0
 49
0.1
 74
0
 49
-0.05
 74
0
 49
0.1
 74
0
 49
-0.05
 74
0
  0
LTYPE
  5
1F8
100
AcDbSymbolTableRecord
100
AcDbLinetypeTableRecord
  2
DOT
 70
64
  3
. . . . . . . . . . . . . . . . . . . .
 72
65
 73
2
 40
0.2
 49
0.1
 74
0
 49
-0.1
 74
0
  0
LTYPE
  5
1F9
100
AcDbSymbolTableRecord
100
AcDbLinetypeTableRecord
  2
DASHED
 70
64
  3
- - - - - - - - - - - - - - - - - - - -
 72
65
 73
2
 40
0.2
 49
0.1
 74
0
 49
-0.1
 74
0
  0
ENDTAB
  0
TABLE
  2
LAYER
  5
2
100
AcDbSymbolTable
 70
36
  0
LAYER
  5
10
100
AcDbSymbolTableRecord
100
AcDbLayerTableRecord
  2
0
 70
0
 62
7
  6
CONTINUOUS
370
-3
390
F
  0
LAYER
  5
1FA
100
AcDbSymbolTableRecord
100
AcDbLayerTableRecord
  2
DEFAULT_1
 70
0
 62
7
  6
CENTER
370
-3
390
F
  0
LAYER
  5
1FB
100
AcDbSymbolTableRecord
100
AcDbLayerTableRecord
  2
DEFAULT_2
 70
0
 62
8
  6
HIDDEN
370
-3
390
F
  0
LAYER
  5
1FC
100
AcDbSymbolTableRecord
100
AcDbLayerTableRecord
  2
DEFAULT_3
 70
0
 62
7
  6
PHANTOM
370
-3
390
F
  0
LAYER
  5
1FD
100
AcDbSymbolTableRecord
100
AcDbLayerTableRecord
  2
01_ALL_DTM_PLN
 70
0
 62
7
  6
CONTINUOUS
370
-3
390
F
  0
LAYER
  5
1FE
100
AcDbSymbolTableRecord
100
AcDbLayerTableRecord
  2
01__ASM_ALL_DTM_PLN
 70
0
 62
7
  6
CONTINUOUS
370
-3
390
F
  0
LAYER
  5
1FF
100
AcDbSymbolTableRecord
100
AcDbLayerTableRecord
  2
01__ASM_DEF_DTM_PLN
 70
0
 62
7
  6
CONTINUOUS
370
-3
390
F
  0
LAYER
  5
200
100
AcDbSymbolTableRecord
100
AcDbLayerTableRecord
  2
01___PRT_ALL_DTM_PLN
 70
0
 62
7
  6
CONTINUOUS
370
-3
390
F
  0
LAYER
  5
201
100
AcDbSymbolTableRecord
100
AcDbLayerTableRecord
  2
01___PRT_DEF_DTM_PLN
 70
0
 62
7
  6
CONTINUOUS
370
-3
390
F
  0
LAYER
  5
202
100
AcDbSymbolTableRecord
100
AcDbLayerTableRecord
  2
02_ALL_AXES
 70
0
 62
7
  6
CONTINUOUS
370
-3
390
F
  0
LAYER
  5
203
100
AcDbSymbolTableRecord
100
AcDbLayerTableRecord
  2
02__ASM_ALL_AXES
 70
0
 62
7
  6
CONTINUOUS
370
-3
390
F
  0
LAYER
  5
204
100
AcDbSymbolTableRecord
100
AcDbLayerTableRecord
  2
02___PRT_ALL_AXES
 70
0
 62
7
  6
CONTINUOUS
370
-3
390
F
  0
LAYER
  5
205
100
AcDbSymbolTableRecord
100
AcDbLayerTableRecord
  2
03_ALL_CURVES
 70
0
 62
7
  6
CONTINUOUS
370
-3
390
F
  0
LAYER
  5
206
100
AcDbSymbolTableRecord
100
AcDbLayerTableRecord
  2
03__ASM_ALL_CURVES
 70
0
 62
7
  6
CONTINUOUS
370
-3
390
F
  0
LAYER
  5
207
100
AcDbSymbolTableRecord
100
AcDbLayerTableRecord
  2
03___PRT_ALL_CURVES
 70
0
 62
7
  6
CONTINUOUS
370
-3
390
F
  0
LAYER
  5
208
100
AcDbSymbolTableRecord
100
AcDbLayerTableRecord
  2
04_ALL_DTM_PNT
 70
0
 62
7
  6
CONTINUOUS
370
-3
390
F
  0
LAYER
  5
209
100
AcDbSymbolTableRecord
100
AcDbLayerTableRecord
  2
04__ASM_ALL_DTM_PNT
 70
0
 62
7
  6
CONTINUOUS
370
-3
390
F
  0
LAYER
  5
20A
100
AcDbSymbolTableRecord
100
AcDbLayerTableRecord
  2
04___PRT_ALL_DTM_PNT
 70
0
 62
7
  6
CONTINUOUS
370
-3
390
F
  0
LAYER
  5
20B
100
AcDbSymbolTableRecord
100
AcDbLayerTableRecord
  2
05_ALL_DTM_CSYS
 70
0
 62
7
  6
CONTINUOUS
370
-3
390
F
  0
LAYER
  5
20C
100
AcDbSymbolTableRecord
100
AcDbLayerTableRecord
  2
05__ASM_ALL_DTM_CSYS
 70
0
 62
7
  6
CONTINUOUS
370
-3
390
F
  0
LAYER
  5
20D
100
AcDbSymbolTableRecord
100
AcDbLayerTableRecord
  2
05__ASM_DEF_DTM_CSYS
 70
0
 62
7
  6
CONTINUOUS
370
-3
390
F
  0
LAYER
  5
20E
100
AcDbSymbolTableRecord
100
AcDbLayerTableRecord
  2
05___PRT_ALL_DTM_CSYS
 70
0
 62
7
  6
CONTINUOUS
370
-3
390
F
  0
LAYER
  5
20F
100
AcDbSymbolTableRecord
100
AcDbLayerTableRecord
  2
05___PRT_DEF_DTM_CSYS
 70
0
 62
7
  6
CONTINUOUS
370
-3
390
F
  0
LAYER
  5
210
100
AcDbSymbolTableRecord
100
AcDbLayerTableRecord
  2
06_ALL_SURFS
 70
0
 62
7
  6
CONTINUOUS
370
-3
390
F
  0
LAYER
  5
211
100
AcDbSymbolTableRecord
100
AcDbLayerTableRecord
  2
06__ASM_ALL_SURFS
 70
0
 62
7
  6
CONTINUOUS
370
-3
390
F
  0
LAYER
  5
212
100
AcDbSymbolTableRecord
100
AcDbLayerTableRecord
  2
06___PRT_ALL_SURFS
 70
0
 62
7
  6
CONTINUOUS
370
-3
390
F
  0
LAYER
  5
213
100
AcDbSymbolTableRecord
100
AcDbLayerTableRecord
  2
07__ASM_ALL_SKELETONS
 70
0
 62
7
  6
CONTINUOUS
370
-3
390
F
  0
LAYER
  5
214
100
AcDbSymbolTableRecord
100
AcDbLayerTableRecord
  2
126-300_HEX_FEATURES
 70
0
 62
7
  6
CONTINUOUS
370
-3
390
F
  0
LAYER
  5
215
100
AcDbSymbolTableRecord
100
AcDbLayerTableRecord
  2
126-300_REF_GEOMETRY
 70
0
 62
7
  6
CONTINUOUS
370
-3
390
F
  0
LAYER
  5
216
100
AcDbSymbolTableRecord
100
AcDbLayerTableRecord
  2
126-301_HEX_FEATURES
 70
0
 62
7
  6
CONTINUOUS
370
-3
390
F
  0
LAYER
  5
217
100
AcDbSymbolTableRecord
100
AcDbLayerTableRecord
  2
126-301_REF_GEOMETRY
 70
0
 62
7
  6
CONTINUOUS
370
-3
390
F
  0
LAYER
  5
218
100
AcDbSymbolTableRecord
100
AcDbLayerTableRecord
  2
126-302_HEX_FEATURES
 70
0
 62
7
  6
CONTINUOUS
370
-3
390
F
  0
LAYER
  5
219
100
AcDbSymbolTableRecord
100
AcDbLayerTableRecord
  2
126-302_REF_GEOMETRY
 70
0
 62
7
  6
CONTINUOUS
370
-3
390
F
  0
LAYER
  5
21A
100
AcDbSymbolTableRecord
100
AcDbLayerTableRecord
  2
126-303_HEX_FEATURES
 70
0
 62
7
  6
CONTINUOUS
370
-3
390
F
  0
LAYER
  5
21B
100
AcDbSymbolTableRecord
100
AcDbLayerTableRecord
  2
126-303_REF_GEOMETRY
 70
0
 62
7
  6
CONTINUOUS
370
-3
390
F
  0
LAYER
  5
21C
100
AcDbSymbolTableRecord
100
AcDbLayerTableRecord
  2
BSPP_PORT_PER_S-186
 70
0
 62
7
  6
CONTINUOUS
370
-3
390
F
  0
LAYER
  5
21D
100
AcDbSymbolTableRecord
100
AcDbLayerTableRecord
  2
COPY_GEO_FET
 70
0
 62
7
  6
CONTINUOUS
370
-3
390
F
  0
LAYER
  5
21E
100
AcDbSymbolTableRecord
100
AcDbLayerTableRecord
  2
COSMETIC
 70
0
 62
7
  6
CONTINUOUS
370
-3
390
F
  0
LAYER
  5
21F
100
AcDbSymbolTableRecord
100
AcDbLayerTableRecord
  2
COSMETICS
 70
0
 62
7
  6
CONTINUOUS
370
-3
390
F
  0
LAYER
  5
220
100
AcDbSymbolTableRecord
100
AcDbLayerTableRecord
  2
CUT_REF_SURF
 70
0
 62
7
  6
CONTINUOUS
370
-3
390
F
  0
LAYER
  5
221
100
AcDbSymbolTableRecord
100
AcDbLayerTableRecord
  2
DATUM
 70
0
 62
7
  6
CONTINUOUS
370
-3
390
F
  0
LAYER
  5
222
100
AcDbSymbolTableRecord
100
AcDbLayerTableRecord
  2
DIMENSIONS
 70
0
 62
7
  6
CONTINUOUS
370
-3
390
F
  0
LAYER
  5
223
100
AcDbSymbolTableRecord
100
AcDbLayerTableRecord
  2
DTM230
 70
0
 62
7
  6
CONTINUOUS
370
-3
390
F
  0
LAYER
  5
224
100
AcDbSymbolTableRecord
100
AcDbLayerTableRecord
  2
DTM_500002
 70
0
 62
7
  6
CONTINUOUS
370
-3
390
F
  0
LAYER
  5
225
100
AcDbSymbolTableRecord
100
AcDbLayerTableRecord
  2
DTM_500051
 70
0
 62
7
  6
CONTINUOUS
370
-3
390
F
  0
LAYER
  5
226
100
AcDbSymbolTableRecord
100
AcDbLayerTableRecord
  2
DTM_515002
 70
0
 62
7
  6
CONTINUOUS
370
-3
390
F
  0
LAYER
  5
227
100
AcDbSymbolTableRecord
100
AcDbLayerTableRecord
  2
DTM_800001
 70
0
 62
7
  6
CONTINUOUS
370
-3
390
F
  0
LAYER
  5
228
100
AcDbSymbolTableRecord
100
AcDbLayerTableRecord
  2
GEOMETRICTOLERANCES
 70
0
 62
7
  6
CONTINUOUS
370
-3
390
F
  0
LAYER
  5
229
100
AcDbSymbolTableRecord
100
AcDbLayerTableRecord
  2
LAY0001
 70
0
 62
7
  6
CONTINUOUS
370
-3
390
F
  0
LAYER
  5
22A
100
AcDbSymbolTableRecord
100
AcDbLayerTableRecord
  2
NPTF_PORT_PER_S-164
 70
0
 62
7
  6
CONTINUOUS
370
-3
390
F
  0
LAYER
  5
22B
100
AcDbSymbolTableRecord
100
AcDbLayerTableRecord
  2
PARAMETERDIMENSIONS
 70
0
 62
7
  6
CONTINUOUS
370
-3
390
F
  0
LAYER
  5
22C
100
AcDbSymbolTableRecord
100
AcDbLayerTableRecord
  2
PLANE
 70
0
 62
7
  6
CONTINUOUS
370
-3
390
F
  0
LAYER
  5
22D
100
AcDbSymbolTableRecord
100
AcDbLayerTableRecord
  2
PROTRUSIONS
 70
0
 62
7
  6
CONTINUOUS
370
-3
390
F
  0
LAYER
  5
22E
100
AcDbSymbolTableRecord
100
AcDbLayerTableRecord
  2
STD_SAE-4_PORT
 70
0
 62
7
  6
CONTINUOUS
370
-3
390
F
  0
LAYER
  5
22F
100
AcDbSymbolTableRecord
100
AcDbLayerTableRecord
  2
T-8A_CAVITY
 70
0
 62
7
  6
CONTINUOUS
370
-3
390
F
  0
LAYER
  5
230
100
AcDbSymbolTableRecord
100
AcDbLayerTableRecord
  2
T-8A_CAVITY_REF_GEOMETRY
 70
0
 62
7
  6
CONTINUOUS
370
-3
390
F
  0
LAYER
  5
231
100
AcDbSymbolTableRecord
100
AcDbLayerTableRecord
  2
TEXT
 70
0
 62
7
  6
CONTINUOUS
370
-3
390
F
  0
LAYER
  5
232
100
AcDbSymbolTableRecord
100
AcDbLayerTableRecord
  2
THREAD
 70
0
 62
7
  6
CONTINUOUS
370
-3
390
F
  0
ENDTAB
  0
TABLE
  2
STYLE
  5
3
100
AcDbSymbolTable
 70
1
  0
STYLE
  5
11
100
AcDbSymbolTableRecord
100
AcDbTextStyleTableRecord
  2
STANDARD
 70
0
 40
0.0
 41
0.8
 50
0.0
 71
0
 42
0.2
  3
txt
  4

  0
ENDTAB
  0
TABLE
  2
VIEW
  5
6
100
AcDbSymbolTable
 70
0
  0
ENDTAB
  0
TABLE
  2
UCS
  5
7
100
AcDbSymbolTable
 70
0
  0
ENDTAB
  0
TABLE
  2
APPID
  5
9
100
AcDbSymbolTable
 70
1
  0
APPID
  5
233
100
AcDbSymbolTableRecord
100
AcDbRegAppTableRecord
  2
ACAD
 70
0
  0
ENDTAB
  0
TABLE
  2
BLOCK_RECORD
  5
1
100
AcDbSymbolTable
 70
0
  0
BLOCK_RECORD
  5
1F
100
AcDbSymbolTableRecord
100
AcDbBlockTableRecord
  2
*MODEL_SPACE
  0
BLOCK_RECORD
  5
1B
100
AcDbSymbolTableRecord
100
AcDbBlockTableRecord
  2
*PAPER_SPACE
  0
ENDTAB
  0
TABLE
  2
DIMSTYLE
  5
A
100
AcDbSymbolTable
 70
1
100
AcDbDimStyleTable
 71
0
  0
DIMSTYLE
105
234
100
AcDbSymbolTableRecord
100
AcDbDimStyleTableRecord
  2
STANDARD
 70
0
  3

  4

 40
1.0
 41
0.1875
 42
0.0625
 43
0.38
 44
0.18
 45
0.0
 46
0.0
 47
0.01
 48
0.01
140
0.15625
141
0.09
142
0.0
143
25.4
144
1.0
145
0.0
146
1.0
147
0.09
 71
0.0
 72
0.0
 73
1
 74
1
 75
0
 76
0
 77
0
 78
4
170
0
171
2
172
0
173
0
174
0
175
0
176
0
177
0
178
0
270
2
271
2
272
2
273
2
274
2
275
0
280
0
281
0
282
0
283
1
284
4
285
0
286
0
287
3
288
0
340
11
  0
ENDTAB
  0
ENDSEC
  0
SECTION
  2
BLOCKS
  0
BLOCK
  5
20
100
AcDbEntity
  8
0
100
AcDbBlockBegin
  2
*MODEL_SPACE
 70
0
 10
0.0
 20
0.0
 30
0.0
  3
*MODEL_SPACE
  1

  0
ENDBLK
  5
21
100
AcDbEntity
  8
0
100
AcDbBlockEnd
  0
BLOCK
  5
1C
100
AcDbEntity
  8
0
100
AcDbBlockBegin
  2
*PAPER_SPACE
 70
0
 10
0.0
 20
0.0
 30
0.0
  3
*PAPER_SPACE
  1

  0
ENDBLK
  5
1D
100
AcDbEntity
  8
0
100
AcDbBlockEnd
  0
ENDSEC
  0
SECTION
  2
ENTITIES
  0
LINE
  5
235
100
AcDbEntity
  8
0
100
AcDbLine
 62
7
  6
CONTINUOUS
 10
4.3343923497
 20
3.6162663282
 11
4.3007173247
 21
3.6745931826
  0
LINE
  5
236
100
AcDbEntity
  8
0
100
AcDbLine
 62
7
  6
CONTINUOUS
 10
4.3007173247
 20
3.6745931826
 11
4.3007173247
 21
4.5345931826
  0
LINE
  5
237
100
AcDbEntity
  8
03__ASM_ALL_CURVES
100
AcDbLine
 62
40
  6
CONTINUOUS
 10
4.3007173247
 20
4.5345931826
 11
4.3007173247
 21
5.0496791826
  0
LINE
  5
238
100
AcDbEntity
  8
0
100
AcDbLine
 62
7
  6
CONTINUOUS
 10
4.3347809905
 20
3.6155931826
 11
4.3347809905
 21
3.6164907101
  0
LINE
  5
239
100
AcDbEntity
  8
0
100
AcDbLine
 62
7
  6
CONTINUOUS
 10
4.3347809905
 20
3.8348956551
 11
4.3347809905
 21
3.8861882376
  0
LINE
  5
23A
100
AcDbEntity
  8
0
100
AcDbLine
 62
7
  6
CONTINUOUS
 10
4.3347809905
 20
4.3229981276
 11
4.3347809905
 21
4.3742907101
  0
LINE
  5
23B
100
AcDbEntity
  8
0
100
AcDbLine
 62
7
  6
CONTINUOUS
 10
4.3347809905
 20
4.5926956551
 11
4.3347809905
 21
4.5935931826
  0
LINE
  5
23C
100
AcDbEntity
  8
03__ASM_ALL_CURVES
100
AcDbLine
 62
40
  6
CONTINUOUS
 10
4.3569673247
 20
5.0403041826
 11
4.3569673247
 21
5.0215541826
  0
LINE
  5
23D
100
AcDbEntity
  8
0
100
AcDbLine
 62
7
  6
CONTINUOUS
 10
4.3343923497
 20
4.592920037
 11
4.3007173247
 21
4.5345931826
  0
LINE
  5
23E
100
AcDbEntity
  8
03__ASM_ALL_CURVES
100
AcDbLine
 62
40
  6
CONTINUOUS
 10
4.7676548247
 20
5.0965541815
 11
4.7711704497
 21
5.1012416837
  0
LINE
  5
23F
100
AcDbEntity
  8
03__ASM_ALL_CURVES
100
AcDbLine
 62
40
  6
CONTINUOUS
 10
4.7641391997
 20
5.0684291832
 11
4.7711704497
 21
5.0778041826
  0
LINE
  5
240
100
AcDbEntity
  8
03__ASM_ALL_CURVES
100
AcDbLine
 62
40
  6
CONTINUOUS
 10
4.7957798247
 20
5.0918666826
 11
4.7922641997
 21
5.0871791837
  0
LINE
  5
241
100
AcDbEntity
  8
03__ASM_ALL_CURVES
100
AcDbLine
 62
40
  6
CONTINUOUS
 10
4.7992954497
 20
5.0637416826
 11
4.7922641997
 21
5.0543666827
  0
LINE
  5
242
100
AcDbEntity
  8
03__ASM_ALL_CURVES
100
AcDbLine
 62
40
  6
CONTINUOUS
 10
4.8414829497
 20
5.1059291826
 11
4.8344516997
 21
5.0965541815
  0
LINE
  5
243
100
AcDbEntity
  8
03__ASM_ALL_CURVES
100
AcDbLine
 62
40
  6
CONTINUOUS
 10
4.7711704497
 20
5.1012416837
 11
4.7782016997
 21
5.1059291826
  0
LINE
  5
244
100
AcDbEntity
  8
03__ASM_ALL_CURVES
100
AcDbLine
 62
40
  6
CONTINUOUS
 10
4.6129673247
 20
5.1059291826
 11
4.6129673247
 21
5.0496791826
  0
LINE
  5
245
100
AcDbEntity
  8
03__ASM_ALL_CURVES
100
AcDbLine
 62
40
  6
CONTINUOUS
 10
4.6657016997
 20
5.0496791826
 11
4.6657016997
 21
5.0543666827
  0
LINE
  5
246
100
AcDbEntity
  8
03__ASM_ALL_CURVES
100
AcDbLine
 62
40
  6
CONTINUOUS
 10
4.8344516997
 20
5.0965541815
 11
4.8309360747
 21
5.0824916815
  0
LINE
  5
247
100
AcDbEntity
  8
03__ASM_ALL_CURVES
100
AcDbLine
 62
40
  6
CONTINUOUS
 10
4.8801548247
 20
5.0965541815
 11
4.8836704497
 21
5.1012416837
  0
LINE
  5
248
100
AcDbEntity
  8
03__ASM_ALL_CURVES
100
AcDbLine
 62
40
  6
CONTINUOUS
 10
4.8907016997
 20
5.073116682
 11
4.8836704497
 21
5.0637416826
  0
LINE
  5
249
100
AcDbEntity
  8
03__ASM_ALL_CURVES
100
AcDbLine
 62
40
  6
CONTINUOUS
 10
4.9082798247
 20
5.0871791837
 11
4.9047641997
 21
5.0824916815
  0
LINE
  5
24A
100
AcDbEntity
  8
03__ASM_ALL_CURVES
100
AcDbLine
 62
40
  6
CONTINUOUS
 10
4.9399204497
 20
5.0965541815
 11
4.9434360747
 21
5.1012416837
  0
LINE
  5
24B
100
AcDbEntity
  8
03__ASM_ALL_CURVES
100
AcDbLine
 62
40
  6
CONTINUOUS
 10
4.9610141997
 20
5.0590541829
 11
4.9574985747
 21
5.0543666827
  0
LINE
  5
24C
100
AcDbEntity
  8
03__ASM_ALL_CURVES
100
AcDbLine
 62
40
  6
CONTINUOUS
 10
4.7711704497
 20
5.0778041826
 11
4.7782016997
 21
5.0824916815
  0
LINE
  5
24D
100
AcDbEntity
  8
03__ASM_ALL_CURVES
100
AcDbLine
 62
40
  6
CONTINUOUS
 10
4.7922641997
 20
5.0871791837
 11
4.7852329497
 21
5.0824916815
  0
LINE
  5
24E
100
AcDbEntity
  8
03__ASM_ALL_CURVES
100
AcDbLine
 62
40
  6
CONTINUOUS
 10
4.7922641997
 20
5.0543666827
 11
4.7852329497
 21
5.0496791826
  0
LINE
  5
24F
100
AcDbEntity
  8
03__ASM_ALL_CURVES
100
AcDbLine
 62
40
  6
CONTINUOUS
 10
4.8836704497
 20
5.1012416837
 11
4.8907016997
 21
5.1059291826
  0
LINE
  5
250
100
AcDbEntity
  8
03__ASM_ALL_CURVES
100
AcDbLine
 62
40
  6
CONTINUOUS
 10
4.9047641997
 20
5.0824916815
 11
4.8907016997
 21
5.073116682
  0
LINE
  5
251
100
AcDbEntity
  8
03__ASM_ALL_CURVES
100
AcDbLine
 62
40
  6
CONTINUOUS
 10
4.9434360747
 20
5.1012416837
 11
4.9504673247
 21
5.1059291826
  0
LINE
  5
252
100
AcDbEntity
  8
0
100
AcDbLine
 62
7
  6
CONTINUOUS
 10
4.7082173247
 20
3.6155931826
 11
4.7082173247
 21
3.6164907101
  0
LINE
  5
253
100
AcDbEntity
  8
0
100
AcDbLine
 62
7
  6
CONTINUOUS
 10
4.7082173247
 20
3.8348956551
 11
4.7082173247
 21
3.8861882376
  0
LINE
  5
254
100
AcDbEntity
  8
0
100
AcDbLine
 62
7
  6
CONTINUOUS
 10
4.7082173247
 20
4.3229981276
 11
4.7082173247
 21
4.3742907101
  0
LINE
  5
255
100
AcDbEntity
  8
0
100
AcDbLine
 62
7
  6
CONTINUOUS
 10
4.7082173247
 20
4.5926956551
 11
4.7082173247
 21
4.5935931826
  0
LINE
  5
256
100
AcDbEntity
  8
03__ASM_ALL_CURVES
100
AcDbLine
 62
40
  6
CONTINUOUS
 10
4.7254673247
 20
5.1059291826
 11
4.7254673247
 21
5.0496791826
  0
LINE
  5
257
100
AcDbEntity
  8
03__ASM_ALL_CURVES
100
AcDbLine
 62
40
  6
CONTINUOUS
 10
4.7641391997
 20
5.0637416826
 11
4.7641391997
 21
5.0684291832
  0
LINE
  5
258
100
AcDbEntity
  8
03__ASM_ALL_CURVES
100
AcDbLine
 62
40
  6
CONTINUOUS
 10
4.7676548247
 20
5.0918666826
 11
4.7676548247
 21
5.0965541815
  0
LINE
  5
259
100
AcDbEntity
  8
0
100
AcDbLine
 62
7
  6
CONTINUOUS
 10
4.7687173247
 20
3.6760931826
 11
4.7687173247
 21
4.5330931826
  0
LINE
  5
25A
100
AcDbEntity
  8
03__ASM_ALL_CURVES
100
AcDbLine
 62
40
  6
CONTINUOUS
 10
4.8836704497
 20
5.0637416826
 11
4.8801548247
 21
5.0496791826
  0
LINE
  5
25B
100
AcDbEntity
  8
03__ASM_ALL_CURVES
100
AcDbLine
 62
40
  6
CONTINUOUS
 10
4.9364048247
 20
5.0871791837
 11
4.9399204497
 21
5.0965541815
  0
LINE
  5
25C
100
AcDbEntity
  8
03__ASM_ALL_CURVES
100
AcDbLine
 62
40
  6
CONTINUOUS
 10
4.9645298247
 20
5.0871791837
 11
4.9610141997
 21
5.0778041826
  0
LINE
  5
25D
100
AcDbEntity
  8
03__ASM_ALL_CURVES
100
AcDbLine
 62
40
  6
CONTINUOUS
 10
4.9645298247
 20
5.0684291832
 11
4.9610141997
 21
5.0590541829
  0
LINE
  5
25E
100
AcDbEntity
  8
03__ASM_ALL_CURVES
100
AcDbLine
 62
40
  6
CONTINUOUS
 10
5.0524204497
 20
5.0965541815
 11
5.0559360747
 21
5.1012416837
  0
LINE
  5
25F
100
AcDbEntity
  8
03__ASM_ALL_CURVES
100
AcDbLine
 62
40
  6
CONTINUOUS
 10
5.0735141997
 20
5.0590541829
 11
5.0699985747
 21
5.0543666827
  0
LINE
  5
260
100
AcDbEntity
  8
03__ASM_ALL_CURVES
100
AcDbLine
 62
40
  6
CONTINUOUS
 10
4.9574985747
 20
5.0543666827
 11
4.9504673247
 21
5.0496791826
  0
LINE
  5
261
100
AcDbEntity
  8
03__ASM_ALL_CURVES
100
AcDbLine
 62
40
  6
CONTINUOUS
 10
5.0559360747
 20
5.1012416837
 11
5.0629673247
 21
5.1059291826
  0
LINE
  5
262
100
AcDbEntity
  8
03__ASM_ALL_CURVES
100
AcDbLine
 62
40
  6
CONTINUOUS
 10
5.0699985747
 20
5.0543666827
 11
5.0629673247
 21
5.0496791826
  0
LINE
  5
263
100
AcDbEntity
  8
03__ASM_ALL_CURVES
100
AcDbLine
 62
40
  6
CONTINUOUS
 10
4.9610141997
 20
5.0778041826
 11
4.9504673247
 21
5.073116682
  0
LINE
  5
264
100
AcDbEntity
  8
03__ASM_ALL_CURVES
100
AcDbLine
 62
40
  6
CONTINUOUS
 10
5.0735141997
 20
5.0778041826
 11
5.0629673247
 21
5.073116682
  0
LINE
  5
265
100
AcDbEntity
  8
03__ASM_ALL_CURVES
100
AcDbLine
 62
40
  6
CONTINUOUS
 10
5.1715747508
 20
3.4684056826
 11
5.1663013133
 21
3.4719213077
  0
LINE
  5
266
100
AcDbEntity
  8
03__ASM_ALL_CURVES
100
AcDbLine
 62
40
  6
CONTINUOUS
 10
5.1346606883
 20
3.5105931826
 11
5.1399341258
 21
3.5070775584
  0
LINE
  5
267
100
AcDbEntity
  8
03__ASM_ALL_CURVES
100
AcDbLine
 62
40
  6
CONTINUOUS
 10
4.7957798247
 20
5.0965541815
 11
4.7957798247
 21
5.0918666826
  0
LINE
  5
268
100
AcDbEntity
  8
03__ASM_ALL_CURVES
100
AcDbLine
 62
40
  6
CONTINUOUS
 10
4.7992954497
 20
5.0684291832
 11
4.7992954497
 21
5.0637416826
  0
LINE
  5
269
100
AcDbEntity
  8
03__ASM_ALL_CURVES
100
AcDbLine
 62
40
  6
CONTINUOUS
 10
4.8309360747
 20
5.0824916815
 11
4.8309360747
 21
5.073116682
  0
LINE
  5
26A
100
AcDbEntity
  8
0
100
AcDbLine
 62
7
  6
CONTINUOUS
 10
4.8937173247
 20
3.6760931826
 11
4.8937173247
 21
4.5330931826
  0
LINE
  5
26B
100
AcDbEntity
  8
03__ASM_ALL_CURVES
100
AcDbLine
 62
40
  6
CONTINUOUS
 10
5.0489048247
 20
5.0871791837
 11
5.0524204497
 21
5.0965541815
  0
LINE
  5
26C
100
AcDbEntity
  8
03__ASM_ALL_CURVES
100
AcDbLine
 62
40
  6
CONTINUOUS
 10
5.0770298247
 20
5.0871791837
 11
5.0735141997
 21
5.0778041826
  0
LINE
  5
26D
100
AcDbEntity
  8
03__ASM_ALL_CURVES
100
AcDbLine
 62
40
  6
CONTINUOUS
 10
5.0770298247
 20
5.0684291832
 11
5.0735141997
 21
5.0590541829
  0
LINE
  5
26E
100
AcDbEntity
  8
03__ASM_ALL_CURVES
100
AcDbLine
 62
40
  6
CONTINUOUS
 10
5.1262485747
 20
5.0871791837
 11
5.1332798247
 21
5.1059291826
  0
LINE
  5
26F
100
AcDbEntity
  8
03__ASM_ALL_CURVES
100
AcDbLine
 62
40
  6
CONTINUOUS
 10
5.1789829497
 20
5.0590541829
 11
5.1719516997
 21
5.0496791826
  0
LINE
  5
270
100
AcDbEntity
  8
03__ASM_ALL_CURVES
100
AcDbLine
 62
40
  6
CONTINUOUS
 10
5.1768481883
 20
3.5105931826
 11
5.1821216258
 21
3.5070775584
  0
LINE
  5
271
100
AcDbEntity
  8
03__ASM_ALL_CURVES
100
AcDbLine
 62
40
  6
CONTINUOUS
 10
5.2190356883
 20
3.5105931826
 11
5.2243091258
 21
3.5070775584
  0
LINE
  5
272
100
AcDbEntity
  8
03__ASM_ALL_CURVES
100
AcDbLine
 62
40
  6
CONTINUOUS
 10
5.2981372508
 20
3.4684056826
 11
5.2928638133
 21
3.4719213077
  0
LINE
  5
273
100
AcDbEntity
  8
03__ASM_ALL_CURVES
100
AcDbLine
 62
40
  6
CONTINUOUS
 10
5.3034106883
 20
3.4930150568
 11
5.3086841258
 21
3.4894994326
  0
LINE
  5
274
100
AcDbEntity
  8
03__ASM_ALL_CURVES
100
AcDbLine
 62
40
  6
CONTINUOUS
 10
5.3034106883
 20
3.5105931826
 11
5.3086841258
 21
3.5070775584
  0
LINE
  5
275
100
AcDbEntity
  8
03__ASM_ALL_CURVES
100
AcDbLine
 62
40
  6
CONTINUOUS
 10
5.1399341258
 20
3.5070775584
 11
5.1425708446
 21
3.5035619318
  0
LINE
  5
276
100
AcDbEntity
  8
03__ASM_ALL_CURVES
100
AcDbLine
 62
40
  6
CONTINUOUS
 10
5.1663013133
 20
3.4719213077
 11
5.1610278758
 21
3.4789525576
  0
LINE
  5
277
100
AcDbEntity
  8
03__ASM_ALL_CURVES
100
AcDbLine
 62
40
  6
CONTINUOUS
 10
5.1821216258
 20
3.5070775584
 11
5.1873950633
 21
3.5000463076
  0
LINE
  5
278
100
AcDbEntity
  8
03__ASM_ALL_CURVES
100
AcDbLine
 62
40
  6
CONTINUOUS
 10
5.2243091258
 20
3.5070775584
 11
5.2269458446
 21
3.5035619318
  0
LINE
  5
279
100
AcDbEntity
  8
03__ASM_ALL_CURVES
100
AcDbLine
 62
40
  6
CONTINUOUS
 10
4.9082798247
 20
5.0965541815
 11
4.9082798247
 21
5.0871791837
  0
LINE
  5
27A
100
AcDbEntity
  8
0
100
AcDbLine
 62
7
  6
CONTINUOUS
 10
4.9437173247
 20
3.6765938333
 11
4.9437173247
 21
4.5325925319
  0
LINE
  5
27B
100
AcDbEntity
  8
03__ASM_ALL_CURVES
100
AcDbLine
 62
40
  6
CONTINUOUS
 10
4.9645298247
 20
5.0871791837
 11
4.9645298247
 21
5.0684291832
  0
LINE
  5
27C
100
AcDbEntity
  8
03__ASM_ALL_CURVES
100
AcDbLine
 62
40
  6
CONTINUOUS
 10
5.0032016997
 20
5.0496791826
 11
5.0032016997
 21
5.0543666827
  0
LINE
  5
27D
100
AcDbEntity
  8
0
100
AcDbLine
 62
7
  6
CONTINUOUS
 10
5.0137173247
 20
4.5135931826
 11
5.0137173247
 21
3.6955931826
  0
LINE
  5
27E
100
AcDbEntity
  8
03__ASM_ALL_CURVES
100
AcDbLine
 62
40
  6
CONTINUOUS
 10
5.1192173247
 20
5.0496791826
 11
5.1227329497
 21
5.073116682
  0
LINE
  5
27F
100
AcDbEntity
  8
03__ASM_ALL_CURVES
100
AcDbLine
 62
40
  6
CONTINUOUS
 10
5.1227329497
 20
5.073116682
 11
5.1262485747
 21
5.0871791837
  0
LINE
  5
280
100
AcDbEntity
  8
03__ASM_ALL_CURVES
100
AcDbLine
 62
40
  6
CONTINUOUS
 10
5.1824985747
 20
5.073116682
 11
5.1789829497
 21
5.0590541829
  0
LINE
  5
281
100
AcDbEntity
  8
03__ASM_ALL_CURVES
100
AcDbLine
 62
40
  6
CONTINUOUS
 10
6.3981665313
 20
3.4684056826
 11
6.3928930938
 21
3.4684056826
  0
LINE
  5
282
100
AcDbEntity
  8
03__ASM_ALL_CURVES
100
AcDbLine
 62
40
  6
CONTINUOUS
 10
5.3034106883
 20
3.4684056826
 11
5.2981372508
 21
3.4684056826
  0
LINE
  5
283
100
AcDbEntity
  8
03__ASM_ALL_CURVES
100
AcDbLine
 62
40
  6
CONTINUOUS
 10
5.1768481883
 20
3.4684056826
 11
5.1715747508
 21
3.4684056826
  0
LINE
  5
284
100
AcDbEntity
  8
03__ASM_ALL_CURVES
100
AcDbLine
 62
40
  6
CONTINUOUS
 10
6.5115454376
 20
3.4684056826
 11
6.5326391876
 21
3.4684056826
  0
LINE
  5
285
100
AcDbEntity
  8
03__ASM_ALL_CURVES
100
AcDbLine
 62
40
  6
CONTINUOUS
 10
6.4403540313
 20
3.4894994326
 11
6.4271704376
 21
3.4894994326
  0
LINE
  5
286
100
AcDbEntity
  8
03__ASM_ALL_CURVES
100
AcDbLine
 62
40
  6
CONTINUOUS
 10
6.3559790313
 20
3.4894994326
 11
6.3427954376
 21
3.4894994326
  0
LINE
  5
287
100
AcDbEntity
  8
03__ASM_ALL_CURVES
100
AcDbLine
 62
40
  6
CONTINUOUS
 10
5.2190356883
 20
3.4894994326
 11
5.2058520946
 21
3.4894994326
  0
LINE
  5
288
100
AcDbEntity
  8
03__ASM_ALL_CURVES
100
AcDbLine
 62
40
  6
CONTINUOUS
 10
5.1346606883
 20
3.4894994326
 11
5.1214770946
 21
3.4894994326
  0
LINE
  5
289
100
AcDbEntity
  8
03__ASM_ALL_CURVES
100
AcDbLine
 62
40
  6
CONTINUOUS
 10
5.2981372508
 20
3.4930150568
 11
5.3034106883
 21
3.4930150568
  0
LINE
  5
28A
100
AcDbEntity
  8
03__ASM_ALL_CURVES
100
AcDbLine
 62
40
  6
CONTINUOUS
 10
5.2928638133
 20
3.4719213077
 11
5.2902270946
 21
3.4754369328
  0
LINE
  5
28B
100
AcDbEntity
  8
03__ASM_ALL_CURVES
100
AcDbLine
 62
40
  6
CONTINUOUS
 10
5.3086841258
 20
3.4894994326
 11
5.3139575633
 21
3.482468183
  0
LINE
  5
28C
100
AcDbEntity
  8
03__ASM_ALL_CURVES
100
AcDbLine
 62
40
  6
CONTINUOUS
 10
5.3086841258
 20
3.5070775584
 11
5.3113208446
 21
3.5035619318
  0
LINE
  5
28D
100
AcDbEntity
  8
03__ASM_ALL_CURVES
100
AcDbLine
 62
40
  6
CONTINUOUS
 10
5.2190356883
 20
3.4894994326
 11
5.2269458446
 21
3.4684056826
  0
LINE
  5
28E
100
AcDbEntity
  8
03__ASM_ALL_CURVES
100
AcDbLine
 62
40
  6
CONTINUOUS
 10
5.1610278758
 20
3.4789525576
 11
5.1583911571
 21
3.4894994326
  0
LINE
  5
28F
100
AcDbEntity
  8
03__ASM_ALL_CURVES
100
AcDbLine
 62
40
  6
CONTINUOUS
 10
5.1873950633
 20
3.5000463076
 11
5.1900317821
 21
3.4894994326
  0
LINE
  5
290
100
AcDbEntity
  8
0
100
AcDbLine
 62
7
  6
CONTINUOUS
 10
5.0217173247
 20
3.7305931826
 11
5.0217173247
 21
4.4785931826
  0
LINE
  5
291
100
AcDbEntity
  8
0
100
AcDbLine
 62
7
  6
CONTINUOUS
 10
5.0347173247
 20
3.6760931826
 11
5.0347173247
 21
4.5330931826
  0
LINE
  5
292
100
AcDbEntity
  8
03__ASM_ALL_CURVES
100
AcDbLine
 62
40
  6
CONTINUOUS
 10
5.0770298247
 20
5.0871791837
 11
5.0770298247
 21
5.0684291832
  0
LINE
  5
293
100
AcDbEntity
  8
0
100
AcDbLine
 62
7
  6
CONTINUOUS
 10
5.0847173247
 20
3.6760931826
 11
5.0847173247
 21
4.5330931826
  0
LINE
  5
294
100
AcDbEntity
  8
0
100
AcDbLine
 62
7
  6
CONTINUOUS
 10
5.1076269806
 20
3.7615931826
 11
5.1076269806
 21
4.4475931826
  0
LINE
  5
295
100
AcDbEntity
  8
03__ASM_ALL_CURVES
100
AcDbLine
 62
40
  6
CONTINUOUS
 10
5.1214770946
 20
3.4684056826
 11
5.1214770946
 21
3.5105931826
  0
LINE
  5
296
100
AcDbEntity
  8
03__ASM_ALL_CURVES
100
AcDbLine
 62
40
  6
CONTINUOUS
 10
5.62248295
 20
5.1012416837
 11
5.6295142
 21
5.1059291826
  0
LINE
  5
297
100
AcDbEntity
  8
03__ASM_ALL_CURVES
100
AcDbLine
 62
40
  6
CONTINUOUS
 10
5.67873295
 20
5.1012416837
 11
5.6857642
 21
5.1059291826
  0
LINE
  5
298
100
AcDbEntity
  8
03__ASM_ALL_CURVES
100
AcDbLine
 62
40
  6
CONTINUOUS
 10
5.6435767
 20
5.0543666827
 11
5.63654545
 21
5.0496791826
  0
LINE
  5
299
100
AcDbEntity
  8
03__ASM_ALL_CURVES
100
AcDbLine
 62
40
  6
CONTINUOUS
 10
5.6998267
 20
5.0543666827
 11
5.69279545
 21
5.0496791826
  0
LINE
  5
29A
100
AcDbEntity
  8
03__ASM_ALL_CURVES
100
AcDbLine
 62
40
  6
CONTINUOUS
 10
5.1214770946
 20
3.5105931826
 11
5.1346606883
 21
3.5105931826
  0
LINE
  5
29B
100
AcDbEntity
  8
03__ASM_ALL_CURVES
100
AcDbLine
 62
40
  6
CONTINUOUS
 10
5.1715747508
 20
3.5105931826
 11
5.1768481883
 21
3.5105931826
  0
LINE
  5
29C
100
AcDbEntity
  8
03__ASM_ALL_CURVES
100
AcDbLine
 62
40
  6
CONTINUOUS
 10
5.2058520946
 20
3.5105931826
 11
5.2190356883
 21
3.5105931826
  0
LINE
  5
29D
100
AcDbEntity
  8
03__ASM_ALL_CURVES
100
AcDbLine
 62
40
  6
CONTINUOUS
 10
5.2454028758
 20
3.5105931826
 11
5.2717700633
 21
3.5105931826
  0
LINE
  5
29E
100
AcDbEntity
  8
03__ASM_ALL_CURVES
100
AcDbLine
 62
40
  6
CONTINUOUS
 10
5.2981372508
 20
3.5105931826
 11
5.3034106883
 21
3.5105931826
  0
LINE
  5
29F
100
AcDbEntity
  8
03__ASM_ALL_CURVES
100
AcDbLine
 62
40
  6
CONTINUOUS
 10
6.3427954376
 20
3.5105931826
 11
6.3559790313
 21
3.5105931826
  0
LINE
  5
2A0
100
AcDbEntity
  8
03__ASM_ALL_CURVES
100
AcDbLine
 62
40
  6
CONTINUOUS
 10
6.3928930938
 20
3.5105931826
 11
6.3981665313
 21
3.5105931826
  0
LINE
  5
2A1
100
AcDbEntity
  8
03__ASM_ALL_CURVES
100
AcDbLine
 62
40
  6
CONTINUOUS
 10
6.4271704376
 20
3.5105931826
 11
6.4403540313
 21
3.5105931826
  0
LINE
  5
2A2
100
AcDbEntity
  8
03__ASM_ALL_CURVES
100
AcDbLine
 62
40
  6
CONTINUOUS
 10
6.4667212188
 20
3.5105931826
 11
6.4930884063
 21
3.5105931826
  0
LINE
  5
2A3
100
AcDbEntity
  8
03__ASM_ALL_CURVES
100
AcDbLine
 62
40
  6
CONTINUOUS
 10
6.5194555938
 20
3.5105931826
 11
6.5247290313
 21
3.5105931826
  0
LINE
  5
2A4
100
AcDbEntity
  8
0
100
AcDbLine
 62
7
  6
CONTINUOUS
 10
4.7082173247
 20
3.6155931826
 11
4.3347809905
 21
3.6155931826
  0
LINE
  5
2A5
100
AcDbEntity
  8
0
100
AcDbLine
 62
7
  6
CONTINUOUS
 10
4.7082173247
 20
3.6164907101
 11
4.3347809905
 21
3.6164907101
  0
LINE
  5
2A6
100
AcDbEntity
  8
03__ASM_ALL_CURVES
100
AcDbLine
 62
40
  6
CONTINUOUS
 10
4.8309360747
 20
5.073116682
 11
4.8344516997
 21
5.0590541829
  0
LINE
  5
2A7
100
AcDbEntity
  8
03__ASM_ALL_CURVES
100
AcDbLine
 62
40
  6
CONTINUOUS
 10
5.1425708446
 20
3.5035619318
 11
5.1425708446
 21
3.4965306834
  0
LINE
  5
2A8
100
AcDbEntity
  8
03__ASM_ALL_CURVES
100
AcDbLine
 62
40
  6
CONTINUOUS
 10
5.1824985747
 20
5.0824916815
 11
5.1824985747
 21
5.073116682
  0
LINE
  5
2A9
100
AcDbEntity
  8
03__ASM_ALL_CURVES
100
AcDbLine
 62
40
  6
CONTINUOUS
 10
5.2058520946
 20
3.4684056826
 11
5.2058520946
 21
3.5105931826
  0
LINE
  5
2AA
100
AcDbEntity
  8
03__ASM_ALL_CURVES
100
AcDbLine
 62
40
  6
CONTINUOUS
 10
5.2269458446
 20
3.5035619318
 11
5.2269458446
 21
3.4965306834
  0
LINE
  5
2AB
100
AcDbEntity
  8
03__ASM_ALL_CURVES
100
AcDbLine
 62
40
  6
CONTINUOUS
 10
5.6154517
 20
5.0918666826
 11
5.62248295
 21
5.1012416837
  0
LINE
  5
2AC
100
AcDbEntity
  8
03__ASM_ALL_CURVES
100
AcDbLine
 62
40
  6
CONTINUOUS
 10
5.65060795
 20
5.0637416826
 11
5.6435767
 21
5.0543666827
  0
LINE
  5
2AD
100
AcDbEntity
  8
03__ASM_ALL_CURVES
100
AcDbLine
 62
40
  6
CONTINUOUS
 10
5.6717017
 20
5.0918666826
 11
5.67873295
 21
5.1012416837
  0
LINE
  5
2AE
100
AcDbEntity
  8
03__ASM_ALL_CURVES
100
AcDbLine
 62
40
  6
CONTINUOUS
 10
5.95998295
 20
5.1012416837
 11
5.9670142
 21
5.1059291826
  0
LINE
  5
2AF
100
AcDbEntity
  8
0
100
AcDbLine
 62
7
  6
CONTINUOUS
 10
5.4877173247
 20
3.6760931826
 11
5.4327173247
 21
3.6760931826
  0
LINE
  5
2B0
100
AcDbEntity
  8
0
100
AcDbLine
 62
7
  6
CONTINUOUS
 10
5.0847173247
 20
3.6760931826
 11
5.0347173247
 21
3.6760931826
  0
LINE
  5
2B1
100
AcDbEntity
  8
0
100
AcDbLine
 62
7
  6
CONTINUOUS
 10
4.8937173247
 20
3.6760931826
 11
4.7687173247
 21
3.6760931826
  0
LINE
  5
2B2
100
AcDbEntity
  8
0
100
AcDbLine
 62
7
  6
CONTINUOUS
 10
4.8937173247
 20
3.6765931826
 11
4.9437173247
 21
3.6765931826
  0
LINE
  5
2B3
100
AcDbEntity
  8
THREAD
100
AcDbLine
 62
7
  6
CONTINUOUS
 10
5.5347173247
 20
3.6995931826
 11
5.5033057819
 21
3.6995931826
  0
LINE
  5
2B4
100
AcDbEntity
  8
0
100
AcDbLine
 62
7
  6
CONTINUOUS
 10
5.6047173247
 20
3.7000931826
 11
5.6547173247
 21
3.7000931826
  0
LINE
  5
2B5
100
AcDbEntity
  8
THREAD
100
AcDbLine
 62
7
  6
CONTINUOUS
 10
5.9432173247
 20
3.7170931826
 11
5.6960792846
 21
3.7170931826
  0
LINE
  5
2B6
100
AcDbEntity
  8
0
100
AcDbLine
 62
7
  6
CONTINUOUS
 10
5.0217173247
 20
3.7305931826
 11
5.0137173247
 21
3.7305931826
  0
LINE
  5
2B7
100
AcDbEntity
  8
0
100
AcDbLine
 62
7
  6
CONTINUOUS
 10
4.7687173247
 20
4.5330931826
 11
4.7086660884
 21
4.5931444188
  0
LINE
  5
2B8
100
AcDbEntity
  8
0
100
AcDbLine
 62
7
  6
CONTINUOUS
 10
5.1076269806
 20
4.4475931826
 11
5.0847173247
 21
4.5330931826
  0
LINE
  5
2B9
100
AcDbEntity
  8
03__ASM_ALL_CURVES
100
AcDbLine
 62
40
  6
CONTINUOUS
 10
5.2585864696
 20
3.5105931826
 11
5.2585864696
 21
3.4684056826
  0
LINE
  5
2BA
100
AcDbEntity
  8
03__ASM_ALL_CURVES
100
AcDbLine
 62
40
  6
CONTINUOUS
 10
5.3113208446
 20
3.5035619318
 11
5.3113208446
 21
3.5000463076
  0
LINE
  5
2BB
100
AcDbEntity
  8
03__ASM_ALL_CURVES
100
AcDbLine
 62
40
  6
CONTINUOUS
 10
5.3139575633
 20
3.482468183
 11
5.3139575633
 21
3.4789525576
  0
LINE
  5
2BC
100
AcDbEntity
  8
0
100
AcDbLine
 62
7
  6
CONTINUOUS
 10
5.1076269806
 20
3.7615931826
 11
5.0847173247
 21
3.6760931826
  0
LINE
  5
2BD
100
AcDbEntity
  8
03__ASM_ALL_CURVES
100
AcDbLine
 62
40
  6
CONTINUOUS
 10
5.703342325
 20
5.0590541829
 11
5.6998267
 21
5.0543666827
  0
LINE
  5
2BE
100
AcDbEntity
  8
03__ASM_ALL_CURVES
100
AcDbLine
 62
40
  6
CONTINUOUS
 10
5.9810767
 20
5.0543666827
 11
5.97404545
 21
5.0496791826
  0
LINE
  5
2BF
100
AcDbEntity
  8
03__ASM_ALL_CURVES
100
AcDbLine
 62
40
  6
CONTINUOUS
 10
6.0795142
 20
5.1059291826
 11
6.07248295
 21
5.1012416837
  0
LINE
  5
2C0
100
AcDbEntity
  8
03__ASM_ALL_CURVES
100
AcDbLine
 62
40
  6
CONTINUOUS
 10
6.0935767
 20
5.0543666827
 11
6.08654545
 21
5.0496791826
  0
LINE
  5
2C1
100
AcDbEntity
  8
03__ASM_ALL_CURVES
100
AcDbLine
 62
40
  6
CONTINUOUS
 10
6.18498295
 20
5.1012416837
 11
6.1920142
 21
5.1059291826
  0
LINE
  5
2C2
100
AcDbEntity
  8
THREAD
100
AcDbLine
 62
7
  6
CONTINUOUS
 10
5.6672117712
 20
3.7540931826
 11
5.6547173247
 21
3.7540931826
  0
LINE
  5
2C3
100
AcDbEntity
  8
THREAD
100
AcDbLine
 62
7
  6
CONTINUOUS
 10
6.1657173247
 20
3.7615931826
 11
6.0748716536
 21
3.7615931826
  0
LINE
  5
2C4
100
AcDbEntity
  8
0
100
AcDbLine
 62
7
  6
CONTINUOUS
 10
5.4098076687
 20
3.7615931826
 11
5.2382173247
 21
3.7615931826
  0
LINE
  5
2C5
100
AcDbEntity
  8
0
100
AcDbLine
 62
7
  6
CONTINUOUS
 10
5.1132173247
 20
3.7615931826
 11
5.1076269806
 21
3.7615931826
  0
LINE
  5
2C6
100
AcDbEntity
  8
0
100
AcDbLine
 62
7
  6
CONTINUOUS
 10
6.8467173247
 20
3.7625931826
 11
6.7947173247
 21
3.7625931826
  0
LINE
  5
2C7
100
AcDbEntity
  8
0
100
AcDbLine
 62
7
  6
CONTINUOUS
 10
6.5832173247
 20
3.7625931826
 11
6.7037173247
 21
3.7625931826
  0
LINE
  5
2C8
100
AcDbEntity
  8
0
100
AcDbLine
 62
7
  6
CONTINUOUS
 10
6.7947173247
 20
3.8165931826
 11
6.7737173247
 21
3.8165931826
  0
LINE
  5
2C9
100
AcDbEntity
  8
0
100
AcDbLine
 62
7
  6
CONTINUOUS
 10
6.5832173247
 20
3.8240931826
 11
6.1757173247
 21
3.8240931826
  0
LINE
  5
2CA
100
AcDbEntity
  8
0
100
AcDbLine
 62
7
  6
CONTINUOUS
 10
4.7082173247
 20
3.8348956551
 11
4.3347809905
 21
3.8348956551
  0
LINE
  5
2CB
100
AcDbEntity
  8
03__ASM_ALL_CURVES
100
AcDbLine
 62
40
  6
CONTINUOUS
 10
4.6657016997
 20
5.0543666827
 11
4.6692173247
 21
5.0496791826
  0
LINE
  5
2CC
100
AcDbEntity
  8
03__ASM_ALL_CURVES
100
AcDbLine
 62
40
  6
CONTINUOUS
 10
4.9399204497
 20
5.0778041826
 11
4.9364048247
 21
5.0871791837
  0
LINE
  5
2CD
100
AcDbEntity
  8
03__ASM_ALL_CURVES
100
AcDbLine
 62
40
  6
CONTINUOUS
 10
4.9610141997
 20
5.0965541815
 11
4.9645298247
 21
5.0871791837
  0
LINE
  5
2CE
100
AcDbEntity
  8
0
100
AcDbLine
 62
7
  6
CONTINUOUS
 10
5.4327173247
 20
3.6760931826
 11
5.4098076687
 21
3.7615931826
  0
LINE
  5
2CF
100
AcDbEntity
  8
0
100
AcDbLine
 62
7
  6
CONTINUOUS
 10
5.4098076687
 20
3.7615931826
 11
5.4098076687
 21
4.4475931826
  0
LINE
  5
2D0
100
AcDbEntity
  8
03__ASM_ALL_CURVES
100
AcDbLine
 62
40
  6
CONTINUOUS
 10
5.4314673247
 20
5.0403041826
 11
5.4314673247
 21
5.0215541826
  0
LINE
  5
2D1
100
AcDbEntity
  8
0
100
AcDbLine
 62
7
  6
CONTINUOUS
 10
5.4327173247
 20
3.6760931826
 11
5.4327173247
 21
4.5330931826
  0
LINE
  5
2D2
100
AcDbEntity
  8
03__ASM_ALL_CURVES
100
AcDbLine
 62
40
  6
CONTINUOUS
 10
5.1583911571
 20
3.4894994326
 11
5.1610278758
 21
3.5000463076
  0
LINE
  5
2D3
100
AcDbEntity
  8
03__ASM_ALL_CURVES
100
AcDbLine
 62
40
  6
CONTINUOUS
 10
5.1900317821
 20
3.4894994326
 11
5.1873950633
 21
3.4789525576
  0
LINE
  5
2D4
100
AcDbEntity
  8
03__ASM_ALL_CURVES
100
AcDbLine
 62
40
  6
CONTINUOUS
 10
5.611936075
 20
5.0778041826
 11
5.6154517
 21
5.0918666826
  0
LINE
  5
2D5
100
AcDbEntity
  8
03__ASM_ALL_CURVES
100
AcDbLine
 62
40
  6
CONTINUOUS
 10
5.654123575
 20
5.0778041826
 11
5.65060795
 21
5.0637416826
  0
LINE
  5
2D6
100
AcDbEntity
  8
0
100
AcDbLine
 62
7
  6
CONTINUOUS
 10
5.4327173247
 20
4.5330931826
 11
5.4098076687
 21
4.4475931826
  0
LINE
  5
2D7
100
AcDbEntity
  8
03__ASM_ALL_CURVES
100
AcDbLine
 62
40
  6
CONTINUOUS
 10
5.9529517
 20
5.0918666826
 11
5.95998295
 21
5.1012416837
  0
LINE
  5
2D8
100
AcDbEntity
  8
03__ASM_ALL_CURVES
100
AcDbLine
 62
40
  6
CONTINUOUS
 10
6.2060767
 20
5.0543666827
 11
6.19904545
 21
5.0496791826
  0
LINE
  5
2D9
100
AcDbEntity
  8
03__ASM_ALL_CURVES
100
AcDbLine
 62
40
  6
CONTINUOUS
 10
6.2623267
 20
5.0543666827
 11
6.25529545
 21
5.0496791826
  0
LINE
  5
2DA
100
AcDbEntity
  8
0
100
AcDbLine
 62
7
  6
CONTINUOUS
 10
4.7082173247
 20
3.8861882376
 11
4.3347809905
 21
3.8861882376
  0
LINE
  5
2DB
100
AcDbEntity
  8
03__ASM_ALL_CURVES
100
AcDbLine
 62
40
  6
CONTINUOUS
 10
6.3928930938
 20
3.4684056826
 11
6.3876196563
 21
3.4719213077
  0
LINE
  5
2DC
100
AcDbEntity
  8
03__ASM_ALL_CURVES
100
AcDbLine
 62
40
  6
CONTINUOUS
 10
6.3559790313
 20
3.5105931826
 11
6.3612524688
 21
3.5070775584
  0
LINE
  5
2DD
100
AcDbEntity
  8
03__ASM_ALL_CURVES
100
AcDbLine
 62
40
  6
CONTINUOUS
 10
4.7711704497
 20
5.0543666827
 11
4.7641391997
 21
5.0637416826
  0
LINE
  5
2DE
100
AcDbEntity
  8
03__ASM_ALL_CURVES
100
AcDbLine
 62
40
  6
CONTINUOUS
 10
4.7711704497
 20
5.0871791837
 11
4.7676548247
 21
5.0918666826
  0
LINE
  5
2DF
100
AcDbEntity
  8
03__ASM_ALL_CURVES
100
AcDbLine
 62
40
  6
CONTINUOUS
 10
4.7922641997
 20
5.0778041826
 11
4.7992954497
 21
5.0684291832
  0
LINE
  5
2E0
100
AcDbEntity
  8
THREAD
100
AcDbLine
 62
7
  6
CONTINUOUS
 10
5.6960792846
 20
3.7170931826
 11
5.6784701014
 21
3.7475931826
  0
LINE
  5
2E1
100
AcDbEntity
  8
03__ASM_ALL_CURVES
100
AcDbLine
 62
40
  6
CONTINUOUS
 10
5.0524204497
 20
5.0778041826
 11
5.0489048247
 21
5.0871791837
  0
LINE
  5
2E2
100
AcDbEntity
  8
03__ASM_ALL_CURVES
100
AcDbLine
 62
40
  6
CONTINUOUS
 10
5.0735141997
 20
5.0965541815
 11
5.0770298247
 21
5.0871791837
  0
LINE
  5
2E3
100
AcDbEntity
  8
03__ASM_ALL_CURVES
100
AcDbLine
 62
40
  6
CONTINUOUS
 10
5.1789829497
 20
5.0965541815
 11
5.1824985747
 21
5.0824916815
  0
LINE
  5
2E4
100
AcDbEntity
  8
0
100
AcDbLine
 62
7
  6
CONTINUOUS
 10
5.4877173247
 20
3.6760931826
 11
5.4877173247
 21
4.5330931826
  0
LINE
  5
2E5
100
AcDbEntity
  8
03__ASM_ALL_CURVES
100
AcDbLine
 62
40
  6
CONTINUOUS
 10
5.4877173247
 20
4.5424681826
 11
5.4877173247
 21
5.0496791826
  0
LINE
  5
2E6
100
AcDbEntity
  8
THREAD
100
AcDbLine
 62
7
  6
CONTINUOUS
 10
5.5033057819
 20
3.6995931826
 11
5.5033057819
 21
4.5095931826
  0
LINE
  5
2E7
100
AcDbEntity
  8
0
100
AcDbLine
 62
7
  6
CONTINUOUS
 10
5.5347173247
 20
4.5135931826
 11
5.5347173247
 21
3.6955931826
  0
LINE
  5
2E8
100
AcDbEntity
  8
THREAD
100
AcDbLine
 62
7
  6
CONTINUOUS
 10
5.5347173247
 20
3.6995931826
 11
5.5347173247
 21
4.5095931826
  0
LINE
  5
2E9
100
AcDbEntity
  8
03__ASM_ALL_CURVES
100
AcDbLine
 62
40
  6
CONTINUOUS
 10
5.5439673247
 20
5.0403041826
 11
5.5439673247
 21
5.0215541826
  0
LINE
  5
2EA
100
AcDbEntity
  8
03__ASM_ALL_CURVES
100
AcDbLine
 62
40
  6
CONTINUOUS
 10
5.562717325
 20
5.1059291826
 11
5.562717325
 21
5.0496791826
  0
LINE
  5
2EB
100
AcDbEntity
  8
03__ASM_ALL_CURVES
100
AcDbLine
 62
40
  6
CONTINUOUS
 10
5.668186075
 20
5.0778041826
 11
5.6717017
 21
5.0918666826
  0
LINE
  5
2EC
100
AcDbEntity
  8
03__ASM_ALL_CURVES
100
AcDbLine
 62
40
  6
CONTINUOUS
 10
5.7279517
 20
5.0496791826
 11
5.745529825
 21
5.1059291826
  0
LINE
  5
2ED
100
AcDbEntity
  8
03__ASM_ALL_CURVES
100
AcDbLine
 62
40
  6
CONTINUOUS
 10
5.984592325
 20
5.0590541829
 11
5.9810767
 21
5.0543666827
  0
LINE
  5
2EE
100
AcDbEntity
  8
03__ASM_ALL_CURVES
100
AcDbLine
 62
40
  6
CONTINUOUS
 10
6.07248295
 20
5.1012416837
 11
6.068967325
 21
5.0965541815
  0
LINE
  5
2EF
100
AcDbEntity
  8
03__ASM_ALL_CURVES
100
AcDbLine
 62
40
  6
CONTINUOUS
 10
6.097092325
 20
5.0590541829
 11
6.0935767
 21
5.0543666827
  0
LINE
  5
2F0
100
AcDbEntity
  8
0
100
AcDbLine
 62
7
  6
CONTINUOUS
 10
4.7687173247
 20
3.6760931826
 11
4.7086660884
 21
3.6160419463
  0
LINE
  5
2F1
100
AcDbEntity
  8
03__ASM_ALL_CURVES
100
AcDbLine
 62
40
  6
CONTINUOUS
 10
6.371311075
 20
5.0543666827
 11
6.364279825
 21
5.0496791826
  0
LINE
  5
2F2
100
AcDbEntity
  8
03__ASM_ALL_CURVES
100
AcDbLine
 62
40
  6
CONTINUOUS
 10
6.4873267
 20
5.0824916815
 11
6.48029545
 21
5.0778041826
  0
LINE
  5
2F3
100
AcDbEntity
  8
03__ASM_ALL_CURVES
100
AcDbLine
 62
40
  6
CONTINUOUS
 10
6.3981665313
 20
3.5105931826
 11
6.4034399688
 21
3.5070775584
  0
LINE
  5
2F4
100
AcDbEntity
  8
03__ASM_ALL_CURVES
100
AcDbLine
 62
40
  6
CONTINUOUS
 10
6.4403540313
 20
3.5105931826
 11
6.4456274688
 21
3.5070775584
  0
LINE
  5
2F5
100
AcDbEntity
  8
03__ASM_ALL_CURVES
100
AcDbLine
 62
40
  6
CONTINUOUS
 10
6.5247290313
 20
3.5105931826
 11
6.5300024688
 21
3.5070775584
  0
LINE
  5
2F6
100
AcDbEntity
  8
03__ASM_ALL_CURVES
100
AcDbLine
 62
40
  6
CONTINUOUS
 10
4.7922641997
 20
5.1012416837
 11
4.7957798247
 21
5.0965541815
  0
LINE
  5
2F7
100
AcDbEntity
  8
03__ASM_ALL_CURVES
100
AcDbLine
 62
40
  6
CONTINUOUS
 10
4.8344516997
 20
5.0590541829
 11
4.8414829497
 21
5.0496791826
  0
LINE
  5
2F8
100
AcDbEntity
  8
03__ASM_ALL_CURVES
100
AcDbLine
 62
40
  6
CONTINUOUS
 10
4.9047641997
 20
5.1012416837
 11
4.9082798247
 21
5.0965541815
  0
LINE
  5
2F9
100
AcDbEntity
  8
03__ASM_ALL_CURVES
100
AcDbLine
 62
40
  6
CONTINUOUS
 10
4.9434360747
 20
5.0543666827
 11
4.9399204497
 21
5.0590541829
  0
LINE
  5
2FA
100
AcDbEntity
  8
0
100
AcDbLine
 62
7
  6
CONTINUOUS
 10
5.6047173247
 20
4.5135931826
 11
5.6047173247
 21
3.6955931826
  0
LINE
  5
2FB
100
AcDbEntity
  8
0
100
AcDbLine
 62
7
  6
CONTINUOUS
 10
5.6547173247
 20
3.7000937976
 11
5.6547173247
 21
4.5090925676
  0
LINE
  5
2FC
100
AcDbEntity
  8
0
100
AcDbLine
 62
7
  6
CONTINUOUS
 10
5.6672117712
 20
3.7540931826
 11
5.6672117712
 21
4.4550931826
  0
LINE
  5
2FD
100
AcDbEntity
  8
0
100
AcDbLine
 62
7
  6
CONTINUOUS
 10
5.6784701014
 20
3.7475931826
 11
5.6784701014
 21
4.4615931826
  0
LINE
  5
2FE
100
AcDbEntity
  8
THREAD
100
AcDbLine
 62
7
  6
CONTINUOUS
 10
5.6960792846
 20
3.7170931826
 11
5.6960792846
 21
4.4920931826
  0
LINE
  5
2FF
100
AcDbEntity
  8
THREAD
100
AcDbLine
 62
7
  6
CONTINUOUS
 10
5.6960792846
 20
4.4920931826
 11
5.6784701014
 21
4.4615931826
  0
LINE
  5
300
100
AcDbEntity
  8
03__ASM_ALL_CURVES
100
AcDbLine
 62
40
  6
CONTINUOUS
 10
6.1779517
 20
5.0918666826
 11
6.18498295
 21
5.1012416837
  0
LINE
  5
301
100
AcDbEntity
  8
03__ASM_ALL_CURVES
100
AcDbLine
 62
40
  6
CONTINUOUS
 10
6.21310795
 20
5.0637416826
 11
6.2060767
 21
5.0543666827
  0
LINE
  5
302
100
AcDbEntity
  8
03__ASM_ALL_CURVES
100
AcDbLine
 62
40
  6
CONTINUOUS
 10
7.1780884182
 20
4.1139681826
 11
7.1728149807
 21
4.1139681826
  0
LINE
  5
303
100
AcDbEntity
  8
03__ASM_ALL_CURVES
100
AcDbLine
 62
40
  6
CONTINUOUS
 10
7.2202759182
 20
4.1350619326
 11
7.2070923245
 21
4.1350619326
  0
LINE
  5
304
100
AcDbEntity
  8
03__ASM_ALL_CURVES
100
AcDbLine
 62
40
  6
CONTINUOUS
 10
7.1359009182
 20
4.1350619326
 11
7.1227173245
 21
4.1350619326
  0
LINE
  5
305
100
AcDbEntity
  8
03__ASM_ALL_CURVES
100
AcDbLine
 62
40
  6
CONTINUOUS
 10
7.1227173245
 20
4.1561556826
 11
7.1359009182
 21
4.1561556826
  0
LINE
  5
306
100
AcDbEntity
  8
03__ASM_ALL_CURVES
100
AcDbLine
 62
40
  6
CONTINUOUS
 10
7.1728149807
 20
4.1561556826
 11
7.1780884182
 21
4.1561556826
  0
LINE
  5
307
100
AcDbEntity
  8
03__ASM_ALL_CURVES
100
AcDbLine
 62
40
  6
CONTINUOUS
 10
7.2070923245
 20
4.1561556826
 11
7.2202759182
 21
4.1561556826
  0
LINE
  5
308
100
AcDbEntity
  8
03__ASM_ALL_CURVES
100
AcDbLine
 62
40
  6
CONTINUOUS
 10
7.2466431057
 20
4.1561556826
 11
7.2730102932
 21
4.1561556826
  0
LINE
  5
309
100
AcDbEntity
  8
03__ASM_ALL_CURVES
100
AcDbLine
 62
40
  6
CONTINUOUS
 10
4.9574985747
 20
5.1012416837
 11
4.9610141997
 21
5.0965541815
  0
LINE
  5
30A
100
AcDbEntity
  8
03__ASM_ALL_CURVES
100
AcDbLine
 62
40
  6
CONTINUOUS
 10
5.0032016997
 20
5.0543666827
 11
5.0067173247
 21
5.0496791826
  0
LINE
  5
30B
100
AcDbEntity
  8
03__ASM_ALL_CURVES
100
AcDbLine
 62
40
  6
CONTINUOUS
 10
5.0559360747
 20
5.0543666827
 11
5.0524204497
 21
5.0590541829
  0
LINE
  5
30C
100
AcDbEntity
  8
03__ASM_ALL_CURVES
100
AcDbLine
 62
40
  6
CONTINUOUS
 10
5.801779825
 20
5.1059291826
 11
5.801779825
 21
5.0496791826
  0
LINE
  5
30D
100
AcDbEntity
  8
03__ASM_ALL_CURVES
100
AcDbLine
 62
40
  6
CONTINUOUS
 10
5.949436075
 20
5.0778041826
 11
5.9529517
 21
5.0918666826
  0
LINE
  5
30E
100
AcDbEntity
  8
03__ASM_ALL_CURVES
100
AcDbLine
 62
40
  6
CONTINUOUS
 10
6.265842325
 20
5.0590541829
 11
6.2623267
 21
5.0543666827
  0
LINE
  5
30F
100
AcDbEntity
  8
03__ASM_ALL_CURVES
100
AcDbLine
 62
40
  6
CONTINUOUS
 10
5.1425708446
 20
3.4965306834
 11
5.1399341258
 21
3.4930150568
  0
LINE
  5
310
100
AcDbEntity
  8
03__ASM_ALL_CURVES
100
AcDbLine
 62
40
  6
CONTINUOUS
 10
5.1610278758
 20
3.5000463076
 11
5.1663013133
 21
3.5070775584
  0
LINE
  5
311
100
AcDbEntity
  8
03__ASM_ALL_CURVES
100
AcDbLine
 62
40
  6
CONTINUOUS
 10
5.1873950633
 20
3.4789525576
 11
5.1821216258
 21
3.4719213077
  0
LINE
  5
312
100
AcDbEntity
  8
03__ASM_ALL_CURVES
100
AcDbLine
 62
40
  6
CONTINUOUS
 10
6.378342325
 20
5.0637416826
 11
6.371311075
 21
5.0543666827
  0
LINE
  5
313
100
AcDbEntity
  8
03__ASM_ALL_CURVES
100
AcDbLine
 62
40
  6
CONTINUOUS
 10
5.2269458446
 20
3.4965306834
 11
5.2243091258
 21
3.4930150568
  0
LINE
  5
314
100
AcDbEntity
  8
03__ASM_ALL_CURVES
100
AcDbLine
 62
40
  6
CONTINUOUS
 10
5.0699985747
 20
5.1012416837
 11
5.0735141997
 21
5.0965541815
  0
LINE
  5
315
100
AcDbEntity
  8
03__ASM_ALL_CURVES
100
AcDbLine
 62
40
  6
CONTINUOUS
 10
6.3876196563
 20
3.4719213077
 11
6.3823462188
 21
3.4789525576
  0
LINE
  5
316
100
AcDbEntity
  8
03__ASM_ALL_CURVES
100
AcDbLine
 62
40
  6
CONTINUOUS
 10
6.3612524688
 20
3.5070775584
 11
6.3638891876
 21
3.5035619318
  0
LINE
  5
317
100
AcDbEntity
  8
03__ASM_ALL_CURVES
100
AcDbLine
 62
40
  6
CONTINUOUS
 10
5.1719516997
 20
5.1059291826
 11
5.1789829497
 21
5.0965541815
  0
LINE
  5
318
100
AcDbEntity
  8
03__ASM_ALL_CURVES
100
AcDbLine
 62
40
  6
CONTINUOUS
 10
6.4034399688
 20
3.5070775584
 11
6.4087134063
 21
3.5000463076
  0
LINE
  5
319
100
AcDbEntity
  8
03__ASM_ALL_CURVES
100
AcDbLine
 62
40
  6
CONTINUOUS
 10
5.6154517
 20
5.0637416826
 11
5.611936075
 21
5.0778041826
  0
LINE
  5
31A
100
AcDbEntity
  8
03__ASM_ALL_CURVES
100
AcDbLine
 62
40
  6
CONTINUOUS
 10
5.858029825
 20
5.1059291826
 11
5.858029825
 21
5.0496791826
  0
LINE
  5
31B
100
AcDbEntity
  8
03__ASM_ALL_CURVES
100
AcDbLine
 62
40
  6
CONTINUOUS
 10
5.900217325
 20
5.0496791826
 11
5.900217325
 21
5.1059291826
  0
LINE
  5
31C
100
AcDbEntity
  8
03__ASM_ALL_CURVES
100
AcDbLine
 62
40
  6
CONTINUOUS
 10
5.928342325
 20
5.0496791826
 11
5.928342325
 21
5.1059291826
  0
LINE
  5
31D
100
AcDbEntity
  8
03__ASM_ALL_CURVES
100
AcDbLine
 62
40
  6
CONTINUOUS
 10
6.490842325
 20
5.0871791837
 11
6.4873267
 21
5.0824916815
  0
LINE
  5
31E
100
AcDbEntity
  8
03__ASM_ALL_CURVES
100
AcDbLine
 62
40
  6
CONTINUOUS
 10
5.3113208446
 20
3.5000463076
 11
5.3086841258
 21
3.4965306834
  0
LINE
  5
31F
100
AcDbEntity
  8
03__ASM_ALL_CURVES
100
AcDbLine
 62
40
  6
CONTINUOUS
 10
5.3139575633
 20
3.4789525576
 11
5.3086841258
 21
3.4719213077
  0
LINE
  5
320
100
AcDbEntity
  8
0
100
AcDbLine
 62
7
  6
CONTINUOUS
 10
4.7082173247
 20
4.3229981276
 11
4.3347809905
 21
4.3229981276
  0
LINE
  5
321
100
AcDbEntity
  8
0
100
AcDbLine
 62
7
  6
CONTINUOUS
 10
4.7082173247
 20
4.3742907101
 11
4.3347809905
 21
4.3742907101
  0
LINE
  5
322
100
AcDbEntity
  8
0
100
AcDbLine
 62
7
  6
CONTINUOUS
 10
6.5832173247
 20
4.3850931826
 11
6.1757173247
 21
4.3850931826
  0
LINE
  5
323
100
AcDbEntity
  8
0
100
AcDbLine
 62
7
  6
CONTINUOUS
 10
6.7947173247
 20
4.3925931826
 11
6.7737173247
 21
4.3925931826
  0
LINE
  5
324
100
AcDbEntity
  8
THREAD
100
AcDbLine
 62
7
  6
CONTINUOUS
 10
5.5033057819
 20
4.5095931826
 11
5.4877173247
 21
4.5185931826
  0
LINE
  5
325
100
AcDbEntity
  8
03__ASM_ALL_CURVES
100
AcDbLine
 62
40
  6
CONTINUOUS
 10
4.7782016997
 20
5.0496791826
 11
4.7711704497
 21
5.0543666827
  0
LINE
  5
326
100
AcDbEntity
  8
03__ASM_ALL_CURVES
100
AcDbLine
 62
40
  6
CONTINUOUS
 10
4.7782016997
 20
5.0824916815
 11
4.7711704497
 21
5.0871791837
  0
LINE
  5
327
100
AcDbEntity
  8
03__ASM_ALL_CURVES
100
AcDbLine
 62
40
  6
CONTINUOUS
 10
4.7852329497
 20
5.0824916815
 11
4.7922641997
 21
5.0778041826
  0
LINE
  5
328
100
AcDbEntity
  8
03__ASM_ALL_CURVES
100
AcDbLine
 62
40
  6
CONTINUOUS
 10
4.7852329497
 20
5.1059291826
 11
4.7922641997
 21
5.1012416837
  0
LINE
  5
329
100
AcDbEntity
  8
03__ASM_ALL_CURVES
100
AcDbLine
 62
40
  6
CONTINUOUS
 10
6.4456274688
 20
3.5070775584
 11
6.4482641876
 21
3.5035619318
  0
LINE
  5
32A
100
AcDbEntity
  8
03__ASM_ALL_CURVES
100
AcDbLine
 62
40
  6
CONTINUOUS
 10
6.5300024688
 20
3.5070775584
 11
6.5326391876
 21
3.5035619318
  0
LINE
  5
32B
100
AcDbEntity
  8
03__ASM_ALL_CURVES
100
AcDbLine
 62
40
  6
CONTINUOUS
 10
5.65060795
 20
5.0918666826
 11
5.654123575
 21
5.0778041826
  0
LINE
  5
32C
100
AcDbEntity
  8
03__ASM_ALL_CURVES
100
AcDbLine
 62
40
  6
CONTINUOUS
 10
5.6717017
 20
5.0637416826
 11
5.668186075
 21
5.0778041826
  0
LINE
  5
32D
100
AcDbEntity
  8
THREAD
100
AcDbLine
 62
7
  6
CONTINUOUS
 10
5.9432173247
 20
3.7170931826
 11
5.9432173247
 21
4.4920931826
  0
LINE
  5
32E
100
AcDbEntity
  8
03__ASM_ALL_CURVES
100
AcDbLine
 62
40
  6
CONTINUOUS
 10
5.984592325
 20
5.0778041826
 11
5.984592325
 21
5.0590541829
  0
LINE
  5
32F
100
AcDbEntity
  8
126-301_HEX_FEATURES
100
AcDbLine
 62
7
  6
CONTINUOUS
 10
5.9877173247
 20
3.7631378201
 11
5.9877173247
 21
4.0720780254
  0
LINE
  5
330
100
AcDbEntity
  8
126-301_HEX_FEATURES
100
AcDbLine
 62
7
  6
CONTINUOUS
 10
5.9877173247
 20
4.1371083398
 11
5.9877173247
 21
4.4460485451
  0
LINE
  5
331
100
AcDbEntity
  8
03__ASM_ALL_CURVES
100
AcDbLine
 62
40
  6
CONTINUOUS
 10
6.174436075
 20
5.0778041826
 11
6.1779517
 21
5.0918666826
  0
LINE
  5
332
100
AcDbEntity
  8
03__ASM_ALL_CURVES
100
AcDbLine
 62
40
  6
CONTINUOUS
 10
6.216623575
 20
5.0778041826
 11
6.21310795
 21
5.0637416826
  0
LINE
  5
333
100
AcDbEntity
  8
0
100
AcDbLine
 62
7
  6
CONTINUOUS
 10
6.8467173247
 20
4.4465931826
 11
6.7947173247
 21
4.4465931826
  0
LINE
  5
334
100
AcDbEntity
  8
0
100
AcDbLine
 62
7
  6
CONTINUOUS
 10
6.5832173247
 20
4.4465931826
 11
6.7037173247
 21
4.4465931826
  0
LINE
  5
335
100
AcDbEntity
  8
THREAD
100
AcDbLine
 62
7
  6
CONTINUOUS
 10
6.1657173247
 20
4.4475931826
 11
6.0748716536
 21
4.4475931826
  0
LINE
  5
336
100
AcDbEntity
  8
0
100
AcDbLine
 62
7
  6
CONTINUOUS
 10
5.4098076687
 20
4.4475931826
 11
5.2382173247
 21
4.4475931826
  0
LINE
  5
337
100
AcDbEntity
  8
0
100
AcDbLine
 62
7
  6
CONTINUOUS
 10
5.1132173247
 20
4.4475931826
 11
5.1076269806
 21
4.4475931826
  0
LINE
  5
338
100
AcDbEntity
  8
THREAD
100
AcDbLine
 62
7
  6
CONTINUOUS
 10
5.6672117712
 20
4.4550931826
 11
5.6547173247
 21
4.4550931826
  0
LINE
  5
339
100
AcDbEntity
  8
0
100
AcDbLine
 62
7
  6
CONTINUOUS
 10
5.0217173247
 20
4.4785931826
 11
5.0137173247
 21
4.4785931826
  0
LINE
  5
33A
100
AcDbEntity
  8
THREAD
100
AcDbLine
 62
7
  6
CONTINUOUS
 10
5.9432173247
 20
4.4920931826
 11
5.6960792846
 21
4.4920931826
  0
LINE
  5
33B
100
AcDbEntity
  8
0
100
AcDbLine
 62
7
  6
CONTINUOUS
 10
5.6047173247
 20
4.5090931826
 11
5.6547173247
 21
4.5090931826
  0
LINE
  5
33C
100
AcDbEntity
  8
THREAD
100
AcDbLine
 62
7
  6
CONTINUOUS
 10
5.5347173247
 20
4.5095931826
 11
5.5033057819
 21
4.5095931826
  0
LINE
  5
33D
100
AcDbEntity
  8
03__ASM_ALL_CURVES
100
AcDbLine
 62
40
  6
CONTINUOUS
 10
4.9504673247
 20
5.0496791826
 11
4.9434360747
 21
5.0543666827
  0
LINE
  5
33E
100
AcDbEntity
  8
03__ASM_ALL_CURVES
100
AcDbLine
 62
40
  6
CONTINUOUS
 10
4.8977329497
 20
5.1059291826
 11
4.9047641997
 21
5.1012416837
  0
LINE
  5
33F
100
AcDbEntity
  8
03__ASM_ALL_CURVES
100
AcDbLine
 62
40
  6
CONTINUOUS
 10
4.9504673247
 20
5.1059291826
 11
4.9574985747
 21
5.1012416837
  0
LINE
  5
340
100
AcDbEntity
  8
03__ASM_ALL_CURVES
100
AcDbLine
 62
40
  6
CONTINUOUS
 10
5.0629673247
 20
5.0496791826
 11
5.0559360747
 21
5.0543666827
  0
LINE
  5
341
100
AcDbEntity
  8
03__ASM_ALL_CURVES
100
AcDbLine
 62
40
  6
CONTINUOUS
 10
5.745529825
 20
5.1059291826
 11
5.76310795
 21
5.0496791826
  0
LINE
  5
342
100
AcDbEntity
  8
03__ASM_ALL_CURVES
100
AcDbLine
 62
40
  6
CONTINUOUS
 10
6.068967325
 20
5.0965541815
 11
6.068967325
 21
5.0918666826
  0
LINE
  5
343
100
AcDbEntity
  8
03__ASM_ALL_CURVES
100
AcDbLine
 62
40
  6
CONTINUOUS
 10
6.097092325
 20
5.0684291832
 11
6.097092325
 21
5.0590541829
  0
LINE
  5
344
100
AcDbEntity
  8
03__ASM_ALL_CURVES
100
AcDbLine
 62
40
  6
CONTINUOUS
 10
6.125217325
 20
5.1059291826
 11
6.125217325
 21
5.0496791826
  0
LINE
  5
345
100
AcDbEntity
  8
03__ASM_ALL_CURVES
100
AcDbLine
 62
40
  6
CONTINUOUS
 10
6.153342325
 20
5.1059291826
 11
6.153342325
 21
5.0496791826
  0
LINE
  5
346
100
AcDbEntity
  8
03__ASM_ALL_CURVES
100
AcDbLine
 62
40
  6
CONTINUOUS
 10
5.1399341258
 20
3.4930150568
 11
5.1346606883
 21
3.4894994326
  0
LINE
  5
347
100
AcDbEntity
  8
03__ASM_ALL_CURVES
100
AcDbLine
 62
40
  6
CONTINUOUS
 10
5.1663013133
 20
3.5070775584
 11
5.1715747508
 21
3.5105931826
  0
LINE
  5
348
100
AcDbEntity
  8
03__ASM_ALL_CURVES
100
AcDbLine
 62
40
  6
CONTINUOUS
 10
5.1821216258
 20
3.4719213077
 11
5.1768481883
 21
3.4684056826
  0
LINE
  5
349
100
AcDbEntity
  8
03__ASM_ALL_CURVES
100
AcDbLine
 62
40
  6
CONTINUOUS
 10
5.2243091258
 20
3.4930150568
 11
5.2190356883
 21
3.4894994326
  0
LINE
  5
34A
100
AcDbEntity
  8
0
100
AcDbLine
 62
7
  6
CONTINUOUS
 10
4.8937173247
 20
4.5325931826
 11
4.9437173247
 21
4.5325931826
  0
LINE
  5
34B
100
AcDbEntity
  8
0
100
AcDbLine
 62
7
  6
CONTINUOUS
 10
5.4877173247
 20
4.5330931826
 11
5.4327173247
 21
4.5330931826
  0
LINE
  5
34C
100
AcDbEntity
  8
0
100
AcDbLine
 62
7
  6
CONTINUOUS
 10
5.0847173247
 20
4.5330931826
 11
5.0347173247
 21
4.5330931826
  0
LINE
  5
34D
100
AcDbEntity
  8
0
100
AcDbLine
 62
7
  6
CONTINUOUS
 10
4.8937173247
 20
4.5330931826
 11
4.7687173247
 21
4.5330931826
  0
LINE
  5
34E
100
AcDbEntity
  8
0
100
AcDbLine
 62
7
  6
CONTINUOUS
 10
4.7082173247
 20
4.5926956551
 11
4.3347809905
 21
4.5926956551
  0
LINE
  5
34F
100
AcDbEntity
  8
0
100
AcDbLine
 62
7
  6
CONTINUOUS
 10
4.7082173247
 20
4.5935931826
 11
4.3347809905
 21
4.5935931826
  0
LINE
  5
350
100
AcDbEntity
  8
03__ASM_ALL_CURVES
100
AcDbLine
 62
40
  6
CONTINUOUS
 10
5.0629673247
 20
5.1059291826
 11
5.0699985747
 21
5.1012416837
  0
LINE
  5
351
100
AcDbEntity
  8
THREAD
100
AcDbLine
 62
7
  6
CONTINUOUS
 10
5.9761401602
 20
4.4591703471
 11
5.9432173247
 21
4.4920931826
  0
LINE
  5
352
100
AcDbEntity
  8
03__ASM_ALL_CURVES
100
AcDbLine
 62
40
  6
CONTINUOUS
 10
5.62248295
 20
5.0543666827
 11
5.6154517
 21
5.0637416826
  0
LINE
  5
353
100
AcDbEntity
  8
03__ASM_ALL_CURVES
100
AcDbLine
 62
40
  6
CONTINUOUS
 10
6.4403540313
 20
3.4894994326
 11
6.4482641876
 21
3.4684056826
  0
LINE
  5
354
100
AcDbEntity
  8
03__ASM_ALL_CURVES
100
AcDbLine
 62
40
  6
CONTINUOUS
 10
5.9529517
 20
5.0637416826
 11
5.949436075
 21
5.0778041826
  0
LINE
  5
355
100
AcDbEntity
  8
0
100
AcDbLine
 62
7
  6
CONTINUOUS
 10
6.1657173247
 20
3.7615931826
 11
6.1657173247
 21
4.4475931826
  0
LINE
  5
356
100
AcDbEntity
  8
0
100
AcDbLine
 62
7
  6
CONTINUOUS
 10
6.1757173247
 20
3.7715931826
 11
6.1757173247
 21
4.4375931826
  0
LINE
  5
357
100
AcDbEntity
  8
03__ASM_ALL_CURVES
100
AcDbLine
 62
40
  6
CONTINUOUS
 10
6.237717325
 20
5.0590541829
 11
6.237717325
 21
5.1059291826
  0
LINE
  5
358
100
AcDbEntity
  8
03__ASM_ALL_CURVES
100
AcDbLine
 62
40
  6
CONTINUOUS
 10
6.265842325
 20
5.1059291826
 11
6.265842325
 21
5.0590541829
  0
LINE
  5
359
100
AcDbEntity
  8
03__ASM_ALL_CURVES
100
AcDbLine
 62
40
  6
CONTINUOUS
 10
6.38185795
 20
5.0778041826
 11
6.378342325
 21
5.0637416826
  0
LINE
  5
35A
100
AcDbEntity
  8
03__ASM_ALL_CURVES
100
AcDbLine
 62
40
  6
CONTINUOUS
 10
5.2928638133
 20
3.5070775584
 11
5.2981372508
 21
3.5105931826
  0
LINE
  5
35B
100
AcDbEntity
  8
03__ASM_ALL_CURVES
100
AcDbLine
 62
40
  6
CONTINUOUS
 10
5.3086841258
 20
3.4965306834
 11
5.3034106883
 21
3.4930150568
  0
LINE
  5
35C
100
AcDbEntity
  8
03__ASM_ALL_CURVES
100
AcDbLine
 62
40
  6
CONTINUOUS
 10
5.3086841258
 20
3.4719213077
 11
5.3034106883
 21
3.4684056826
  0
LINE
  5
35D
100
AcDbEntity
  8
THREAD
100
AcDbLine
 62
7
  6
CONTINUOUS
 10
5.5033057819
 20
3.6995931826
 11
5.4877173247
 21
3.6905931826
  0
LINE
  5
35E
100
AcDbEntity
  8
03__ASM_ALL_CURVES
100
AcDbLine
 62
40
  6
CONTINUOUS
 10
4.9504673247
 20
5.073116682
 11
4.9399204497
 21
5.0778041826
  0
LINE
  5
35F
100
AcDbEntity
  8
03__ASM_ALL_CURVES
100
AcDbLine
 62
40
  6
CONTINUOUS
 10
5.0629673247
 20
5.073116682
 11
5.0524204497
 21
5.0778041826
  0
LINE
  5
360
100
AcDbEntity
  8
0
100
AcDbLine
 62
7
  6
CONTINUOUS
 10
6.1757173247
 20
4.4375931826
 11
6.1657173247
 21
4.4475931826
  0
LINE
  5
361
100
AcDbEntity
  8
03__ASM_ALL_CURVES
100
AcDbLine
 62
40
  6
CONTINUOUS
 10
5.67873295
 20
5.0543666827
 11
5.6717017
 21
5.0637416826
  0
LINE
  5
362
100
AcDbEntity
  8
03__ASM_ALL_CURVES
100
AcDbLine
 62
40
  6
CONTINUOUS
 10
5.6435767
 20
5.1012416837
 11
5.65060795
 21
5.0918666826
  0
LINE
  5
363
100
AcDbEntity
  8
03__ASM_ALL_CURVES
100
AcDbLine
 62
40
  6
CONTINUOUS
 10
5.6998267
 20
5.1012416837
 11
5.703342325
 21
5.0965541815
  0
LINE
  5
364
100
AcDbEntity
  8
03__ASM_ALL_CURVES
100
AcDbLine
 62
40
  6
CONTINUOUS
 10
5.900217325
 20
5.1059291826
 11
5.928342325
 21
5.0496791826
  0
LINE
  5
365
100
AcDbEntity
  8
03__ASM_ALL_CURVES
100
AcDbLine
 62
40
  6
CONTINUOUS
 10
6.3823462188
 20
3.4789525576
 11
6.3797095001
 21
3.4894994326
  0
LINE
  5
366
100
AcDbEntity
  8
03__ASM_ALL_CURVES
100
AcDbLine
 62
40
  6
CONTINUOUS
 10
6.4087134063
 20
3.5000463076
 11
6.4113501251
 21
3.4894994326
  0
LINE
  5
367
100
AcDbEntity
  8
03__ASM_ALL_CURVES
100
AcDbLine
 62
40
  6
CONTINUOUS
 10
6.293967325
 20
5.1059291826
 11
6.293967325
 21
5.0496791826
  0
LINE
  5
368
100
AcDbEntity
  8
03__ASM_ALL_CURVES
100
AcDbLine
 62
40
  6
CONTINUOUS
 10
6.3427954376
 20
3.4684056826
 11
6.3427954376
 21
3.5105931826
  0
LINE
  5
369
100
AcDbEntity
  8
03__ASM_ALL_CURVES
100
AcDbLine
 62
40
  6
CONTINUOUS
 10
6.350217325
 20
5.0496791826
 11
6.350217325
 21
5.1059291826
  0
LINE
  5
36A
100
AcDbEntity
  8
03__ASM_ALL_CURVES
100
AcDbLine
 62
40
  6
CONTINUOUS
 10
6.3638891876
 20
3.5035619318
 11
6.3638891876
 21
3.4965306834
  0
LINE
  5
36B
100
AcDbEntity
  8
THREAD
100
AcDbLine
 62
7
  6
CONTINUOUS
 10
5.9761401602
 20
3.7500160181
 11
5.9432173247
 21
3.7170931826
  0
LINE
  5
36C
100
AcDbEntity
  8
03__ASM_ALL_CURVES
100
AcDbLine
 62
40
  6
CONTINUOUS
 10
4.3569673247
 20
5.0246791826
 11
4.3007173247
 21
5.0309291826
  0
LINE
  5
36D
100
AcDbEntity
  8
03__ASM_ALL_CURVES
100
AcDbLine
 62
40
  6
CONTINUOUS
 10
4.3569673247
 20
5.0231166826
 11
4.3007173247
 21
5.0309291826
  0
LINE
  5
36E
100
AcDbEntity
  8
03__ASM_ALL_CURVES
100
AcDbLine
 62
40
  6
CONTINUOUS
 10
4.3569673247
 20
5.0215541826
 11
4.3007173247
 21
5.0309291826
  0
LINE
  5
36F
100
AcDbEntity
  8
03__ASM_ALL_CURVES
100
AcDbLine
 62
40
  6
CONTINUOUS
 10
5.6295142
 20
5.0496791826
 11
5.62248295
 21
5.0543666827
  0
LINE
  5
370
100
AcDbEntity
  8
03__ASM_ALL_CURVES
100
AcDbLine
 62
40
  6
CONTINUOUS
 10
5.6857642
 20
5.0496791826
 11
5.67873295
 21
5.0543666827
  0
LINE
  5
371
100
AcDbEntity
  8
03__ASM_ALL_CURVES
100
AcDbLine
 62
40
  6
CONTINUOUS
 10
6.1779517
 20
5.0637416826
 11
6.174436075
 21
5.0778041826
  0
LINE
  5
372
100
AcDbEntity
  8
03__ASM_ALL_CURVES
100
AcDbLine
 62
40
  6
CONTINUOUS
 10
6.406467325
 20
5.0496791826
 11
6.406467325
 21
5.1059291826
  0
LINE
  5
373
100
AcDbEntity
  8
03__ASM_ALL_CURVES
100
AcDbLine
 62
40
  6
CONTINUOUS
 10
6.4271704376
 20
3.4684056826
 11
6.4271704376
 21
3.5105931826
  0
LINE
  5
374
100
AcDbEntity
  8
03__ASM_ALL_CURVES
100
AcDbLine
 62
40
  6
CONTINUOUS
 10
6.4482641876
 20
3.5035619318
 11
6.4482641876
 21
3.4965306834
  0
LINE
  5
375
100
AcDbEntity
  8
03__ASM_ALL_CURVES
100
AcDbLine
 62
40
  6
CONTINUOUS
 10
6.462717325
 20
5.0496791826
 11
6.462717325
 21
5.1059291826
  0
LINE
  5
376
100
AcDbEntity
  8
03__ASM_ALL_CURVES
100
AcDbLine
 62
40
  6
CONTINUOUS
 10
6.4799048126
 20
3.5105931826
 11
6.4799048126
 21
3.4684056826
  0
LINE
  5
377
100
AcDbEntity
  8
03__ASM_ALL_CURVES
100
AcDbLine
 62
40
  6
CONTINUOUS
 10
6.490842325
 20
5.0965541815
 11
6.490842325
 21
5.0871791837
  0
LINE
  5
378
100
AcDbEntity
  8
0
100
AcDbLine
 62
7
  6
CONTINUOUS
 10
6.1757173247
 20
3.7715931826
 11
6.1657173247
 21
3.7615931826
  0
LINE
  5
379
100
AcDbEntity
  8
03__ASM_ALL_CURVES
100
AcDbLine
 62
40
  6
CONTINUOUS
 10
4.3569673247
 20
5.0278041826
 11
4.3007173247
 21
5.0309291826
  0
LINE
  5
37A
100
AcDbEntity
  8
03__ASM_ALL_CURVES
100
AcDbLine
 62
40
  6
CONTINUOUS
 10
4.3569673247
 20
5.0262416826
 11
4.3007173247
 21
5.0309291826
  0
LINE
  5
37B
100
AcDbEntity
  8
03__ASM_ALL_CURVES
100
AcDbLine
 62
40
  6
CONTINUOUS
 10
5.4314673247
 20
5.0387416826
 11
5.5439673247
 21
5.0231166826
  0
LINE
  5
37C
100
AcDbEntity
  8
03__ASM_ALL_CURVES
100
AcDbLine
 62
40
  6
CONTINUOUS
 10
5.5439673247
 20
5.0215541826
 11
5.4314673247
 21
5.0403041826
  0
LINE
  5
37D
100
AcDbEntity
  8
03__ASM_ALL_CURVES
100
AcDbLine
 62
40
  6
CONTINUOUS
 10
5.63654545
 20
5.1059291826
 11
5.6435767
 21
5.1012416837
  0
LINE
  5
37E
100
AcDbEntity
  8
03__ASM_ALL_CURVES
100
AcDbLine
 62
40
  6
CONTINUOUS
 10
7.1728149807
 20
4.1139681826
 11
7.1675415432
 21
4.1174838077
  0
LINE
  5
37F
100
AcDbEntity
  8
03__ASM_ALL_CURVES
100
AcDbLine
 62
40
  6
CONTINUOUS
 10
5.69279545
 20
5.1059291826
 11
5.6998267
 21
5.1012416837
  0
LINE
  5
380
100
AcDbEntity
  8
03__ASM_ALL_CURVES
100
AcDbLine
 62
40
  6
CONTINUOUS
 10
7.1359009182
 20
4.1561556826
 11
7.1411743557
 21
4.1526400584
  0
LINE
  5
381
100
AcDbEntity
  8
03__ASM_ALL_CURVES
100
AcDbLine
 62
40
  6
CONTINUOUS
 10
7.1780884182
 20
4.1561556826
 11
7.1833618557
 21
4.1526400584
  0
LINE
  5
382
100
AcDbEntity
  8
03__ASM_ALL_CURVES
100
AcDbLine
 62
40
  6
CONTINUOUS
 10
7.2202759182
 20
4.1561556826
 11
7.2255493557
 21
4.1526400584
  0
LINE
  5
383
100
AcDbEntity
  8
03__ASM_ALL_CURVES
100
AcDbLine
 62
40
  6
CONTINUOUS
 10
5.95998295
 20
5.0543666827
 11
5.9529517
 21
5.0637416826
  0
LINE
  5
384
100
AcDbEntity
  8
03__ASM_ALL_CURVES
100
AcDbLine
 62
40
  6
CONTINUOUS
 10
5.9810767
 20
5.1012416837
 11
5.984592325
 21
5.0965541815
  0
LINE
  5
385
100
AcDbEntity
  8
03__ASM_ALL_CURVES
100
AcDbLine
 62
40
  6
CONTINUOUS
 10
6.07248295
 20
5.0543666827
 11
6.0654517
 21
5.0637416826
  0
LINE
  5
386
100
AcDbEntity
  8
03__ASM_ALL_CURVES
100
AcDbLine
 62
40
  6
CONTINUOUS
 10
6.068967325
 20
5.0918666826
 11
6.07248295
 21
5.0871791837
  0
LINE
  5
387
100
AcDbEntity
  8
03__ASM_ALL_CURVES
100
AcDbLine
 62
40
  6
CONTINUOUS
 10
6.21310795
 20
5.0918666826
 11
6.216623575
 21
5.0778041826
  0
LINE
  5
388
100
AcDbEntity
  8
03__ASM_ALL_CURVES
100
AcDbLine
 62
40
  6
CONTINUOUS
 10
6.5326391876
 20
3.5035619318
 11
6.5326391876
 21
3.4965306834
  0
LINE
  5
389
100
AcDbEntity
  8
0
100
AcDbLine
 62
7
  6
CONTINUOUS
 10
6.5832173247
 20
4.4465891753
 11
6.5832173247
 21
3.7625971899
  0
LINE
  5
38A
100
AcDbEntity
  8
03__ASM_ALL_CURVES
100
AcDbLine
 62
40
  6
CONTINUOUS
 10
6.3797095001
 20
3.4894994326
 11
6.3823462188
 21
3.5000463076
  0
LINE
  5
38B
100
AcDbEntity
  8
03__ASM_ALL_CURVES
100
AcDbLine
 62
40
  6
CONTINUOUS
 10
6.4113501251
 20
3.4894994326
 11
6.4087134063
 21
3.4789525576
  0
LINE
  5
38C
100
AcDbEntity
  8
03__ASM_ALL_CURVES
100
AcDbLine
 62
40
  6
CONTINUOUS
 10
5.4314673247
 20
5.0215541826
 11
5.5439673247
 21
5.0403041826
  0
LINE
  5
38D
100
AcDbEntity
  8
03__ASM_ALL_CURVES
100
AcDbLine
 62
40
  6
CONTINUOUS
 10
5.4314673247
 20
5.0231166826
 11
5.5439673247
 21
5.0387416826
  0
LINE
  5
38E
100
AcDbEntity
  8
03__ASM_ALL_CURVES
100
AcDbLine
 62
40
  6
CONTINUOUS
 10
5.4314673247
 20
5.0246791826
 11
5.5439673247
 21
5.0371791826
  0
LINE
  5
38F
100
AcDbEntity
  8
03__ASM_ALL_CURVES
100
AcDbLine
 62
40
  6
CONTINUOUS
 10
5.4314673247
 20
5.0262416826
 11
5.5439673247
 21
5.0356166826
  0
LINE
  5
390
100
AcDbEntity
  8
03__ASM_ALL_CURVES
100
AcDbLine
 62
40
  6
CONTINUOUS
 10
5.4314673247
 20
5.0278041826
 11
5.5439673247
 21
5.0340541826
  0
LINE
  5
391
100
AcDbEntity
  8
03__ASM_ALL_CURVES
100
AcDbLine
 62
40
  6
CONTINUOUS
 10
5.4314673247
 20
5.0293666826
 11
5.5439673247
 21
5.0324916826
  0
LINE
  5
392
100
AcDbEntity
  8
03__ASM_ALL_CURVES
100
AcDbLine
 62
40
  6
CONTINUOUS
 10
4.3569673247
 20
5.0324916826
 11
4.3007173247
 21
5.0309291826
  0
LINE
  5
393
100
AcDbEntity
  8
03__ASM_ALL_CURVES
100
AcDbLine
 62
40
  6
CONTINUOUS
 10
4.3007173247
 20
5.0309291826
 11
6.5564673247
 21
5.0309291826
  0
LINE
  5
394
100
AcDbEntity
  8
03__ASM_ALL_CURVES
100
AcDbLine
 62
40
  6
CONTINUOUS
 10
6.434592325
 20
5.0496791826
 11
6.406467325
 21
5.0496791826
  0
LINE
  5
395
100
AcDbEntity
  8
03__ASM_ALL_CURVES
100
AcDbLine
 62
40
  6
CONTINUOUS
 10
6.364279825
 20
5.0496791826
 11
6.350217325
 21
5.0496791826
  0
LINE
  5
396
100
AcDbEntity
  8
03__ASM_ALL_CURVES
100
AcDbLine
 62
40
  6
CONTINUOUS
 10
6.25529545
 20
5.0496791826
 11
6.2482642
 21
5.0496791826
  0
LINE
  5
397
100
AcDbEntity
  8
03__ASM_ALL_CURVES
100
AcDbLine
 62
40
  6
CONTINUOUS
 10
6.19904545
 20
5.0496791826
 11
6.1920142
 21
5.0496791826
  0
LINE
  5
398
100
AcDbEntity
  8
03__ASM_ALL_CURVES
100
AcDbLine
 62
40
  6
CONTINUOUS
 10
6.08654545
 20
5.0496791826
 11
6.0795142
 21
5.0496791826
  0
LINE
  5
399
100
AcDbEntity
  8
03__ASM_ALL_CURVES
100
AcDbLine
 62
40
  6
CONTINUOUS
 10
5.97404545
 20
5.0496791826
 11
5.9670142
 21
5.0496791826
  0
LINE
  5
39A
100
AcDbEntity
  8
03__ASM_ALL_CURVES
100
AcDbLine
 62
40
  6
CONTINUOUS
 10
5.69279545
 20
5.0496791826
 11
5.6857642
 21
5.0496791826
  0
LINE
  5
39B
100
AcDbEntity
  8
03__ASM_ALL_CURVES
100
AcDbLine
 62
40
  6
CONTINUOUS
 10
5.63654545
 20
5.0496791826
 11
5.6295142
 21
5.0496791826
  0
LINE
  5
39C
100
AcDbEntity
  8
03__ASM_ALL_CURVES
100
AcDbLine
 62
40
  6
CONTINUOUS
 10
5.0067173247
 20
5.0496791826
 11
5.0032016997
 21
5.0496791826
  0
LINE
  5
39D
100
AcDbEntity
  8
03__ASM_ALL_CURVES
100
AcDbLine
 62
40
  6
CONTINUOUS
 10
4.7852329497
 20
5.0496791826
 11
4.7782016997
 21
5.0496791826
  0
LINE
  5
39E
100
AcDbEntity
  8
03__ASM_ALL_CURVES
100
AcDbLine
 62
40
  6
CONTINUOUS
 10
4.6692173247
 20
5.0496791826
 11
4.6657016997
 21
5.0496791826
  0
LINE
  5
39F
100
AcDbEntity
  8
03__ASM_ALL_CURVES
100
AcDbLine
 62
40
  6
CONTINUOUS
 10
4.8801548247
 20
5.0496791826
 11
4.9082798247
 21
5.0496791826
  0
LINE
  5
3A0
100
AcDbEntity
  8
03__ASM_ALL_CURVES
100
AcDbLine
 62
40
  6
CONTINUOUS
 10
5.562717325
 20
5.0496791826
 11
5.590842325
 21
5.0496791826
  0
LINE
  5
3A1
100
AcDbEntity
  8
03__ASM_ALL_CURVES
100
AcDbLine
 62
40
  6
CONTINUOUS
 10
6.293967325
 20
5.0496791826
 11
6.322092325
 21
5.0496791826
  0
LINE
  5
3A2
100
AcDbEntity
  8
03__ASM_ALL_CURVES
100
AcDbLine
 62
40
  6
CONTINUOUS
 10
5.73498295
 20
5.0684291832
 11
5.7560767
 21
5.0684291832
  0
LINE
  5
3A3
100
AcDbEntity
  8
03__ASM_ALL_CURVES
100
AcDbLine
 62
40
  6
CONTINUOUS
 10
6.48029545
 20
5.0778041826
 11
6.462717325
 21
5.0778041826
  0
LINE
  5
3A4
100
AcDbEntity
  8
03__ASM_ALL_CURVES
100
AcDbLine
 62
40
  6
CONTINUOUS
 10
5.970529825
 20
5.0778041826
 11
5.984592325
 21
5.0778041826
  0
LINE
  5
3A5
100
AcDbEntity
  8
03__ASM_ALL_CURVES
100
AcDbLine
 62
40
  6
CONTINUOUS
 10
6.125217325
 20
5.0778041826
 11
6.153342325
 21
5.0778041826
  0
LINE
  5
3A6
100
AcDbEntity
  8
03__ASM_ALL_CURVES
100
AcDbLine
 62
40
  6
CONTINUOUS
 10
6.406467325
 20
5.0778041826
 11
6.42404545
 21
5.0778041826
  0
LINE
  5
3A7
100
AcDbEntity
  8
03__ASM_ALL_CURVES
100
AcDbLine
 62
40
  6
CONTINUOUS
 10
4.7782016997
 20
5.0824916815
 11
4.7852329497
 21
5.0824916815
  0
LINE
  5
3A8
100
AcDbEntity
  8
03__ASM_ALL_CURVES
100
AcDbLine
 62
40
  6
CONTINUOUS
 10
4.3569673247
 20
5.0293666826
 11
4.3007173247
 21
5.0309291826
  0
LINE
  5
3A9
100
AcDbEntity
  8
03__ASM_ALL_CURVES
100
AcDbLine
 62
40
  6
CONTINUOUS
 10
5.4314673247
 20
5.0324916826
 11
5.5439673247
 21
5.0293666826
  0
LINE
  5
3AA
100
AcDbEntity
  8
03__ASM_ALL_CURVES
100
AcDbLine
 62
40
  6
CONTINUOUS
 10
5.4314673247
 20
5.0340541826
 11
5.5439673247
 21
5.0278041826
  0
LINE
  5
3AB
100
AcDbEntity
  8
03__ASM_ALL_CURVES
100
AcDbLine
 62
40
  6
CONTINUOUS
 10
5.4314673247
 20
5.0356166826
 11
5.5439673247
 21
5.0262416826
  0
LINE
  5
3AC
100
AcDbEntity
  8
03__ASM_ALL_CURVES
100
AcDbLine
 62
40
  6
CONTINUOUS
 10
5.4314673247
 20
5.0371791826
 11
5.5439673247
 21
5.0246791826
  0
LINE
  5
3AD
100
AcDbEntity
  8
03__ASM_ALL_CURVES
100
AcDbLine
 62
40
  6
CONTINUOUS
 10
5.9670142
 20
5.0496791826
 11
5.95998295
 21
5.0543666827
  0
LINE
  5
3AE
100
AcDbEntity
  8
03__ASM_ALL_CURVES
100
AcDbLine
 62
40
  6
CONTINUOUS
 10
5.97404545
 20
5.1059291826
 11
5.9810767
 21
5.1012416837
  0
LINE
  5
3AF
100
AcDbEntity
  8
03__ASM_ALL_CURVES
100
AcDbLine
 62
40
  6
CONTINUOUS
 10
6.0795142
 20
5.0496791826
 11
6.07248295
 21
5.0543666827
  0
LINE
  5
3B0
100
AcDbEntity
  8
03__ASM_ALL_CURVES
100
AcDbLine
 62
40
  6
CONTINUOUS
 10
6.0935767
 20
5.073116682
 11
6.097092325
 21
5.0684291832
  0
LINE
  5
3B1
100
AcDbEntity
  8
03__ASM_ALL_CURVES
100
AcDbLine
 62
40
  6
CONTINUOUS
 10
6.097092325
 20
5.0965541815
 11
6.0935767
 21
5.1012416837
  0
LINE
  5
3B2
100
AcDbEntity
  8
03__ASM_ALL_CURVES
100
AcDbLine
 62
40
  6
CONTINUOUS
 10
6.18498295
 20
5.0543666827
 11
6.1779517
 21
5.0637416826
  0
LINE
  5
3B3
100
AcDbEntity
  8
03__ASM_ALL_CURVES
100
AcDbLine
 62
40
  6
CONTINUOUS
 10
6.2060767
 20
5.1012416837
 11
6.21310795
 21
5.0918666826
  0
LINE
  5
3B4
100
AcDbEntity
  8
03__ASM_ALL_CURVES
100
AcDbLine
 62
40
  6
CONTINUOUS
 10
6.24123295
 20
5.0543666827
 11
6.237717325
 21
5.0590541829
  0
LINE
  5
3B5
100
AcDbEntity
  8
03__ASM_ALL_CURVES
100
AcDbLine
 62
40
  6
CONTINUOUS
 10
6.378342325
 20
5.0918666826
 11
6.38185795
 21
5.0778041826
  0
LINE
  5
3B6
100
AcDbEntity
  8
0
100
AcDbLine
 62
7
  6
CONTINUOUS
 10
6.6537173247
 20
4.4465926626
 11
6.6537173247
 21
3.7625971899
  0
LINE
  5
3B7
100
AcDbEntity
  8
0
100
AcDbLine
 62
7
  6
CONTINUOUS
 10
6.7037173247
 20
3.7625937026
 11
6.7037173247
 21
4.4465926626
  0
LINE
  5
3B8
100
AcDbEntity
  8
03__ASM_ALL_CURVES
100
AcDbLine
 62
40
  6
CONTINUOUS
 10
6.5141821563
 20
3.4789525576
 11
6.5115454376
 21
3.4684056826
  0
LINE
  5
3B9
100
AcDbEntity
  8
03__ASM_ALL_CURVES
100
AcDbLine
 62
40
  6
CONTINUOUS
 10
6.3638891876
 20
3.4965306834
 11
6.3612524688
 21
3.4930150568
  0
LINE
  5
3BA
100
AcDbEntity
  8
03__ASM_ALL_CURVES
100
AcDbLine
 62
40
  6
CONTINUOUS
 10
7.1411743557
 20
4.1385775568
 11
7.1359009182
 21
4.1350619326
  0
LINE
  5
3BB
100
AcDbEntity
  8
03__ASM_ALL_CURVES
100
AcDbLine
 62
40
  6
CONTINUOUS
 10
7.1675415432
 20
4.1526400584
 11
7.1728149807
 21
4.1561556826
  0
LINE
  5
3BC
100
AcDbEntity
  8
03__ASM_ALL_CURVES
100
AcDbLine
 62
40
  6
CONTINUOUS
 10
7.1833618557
 20
4.1174838077
 11
7.1780884182
 21
4.1139681826
  0
LINE
  5
3BD
100
AcDbEntity
  8
03__ASM_ALL_CURVES
100
AcDbLine
 62
40
  6
CONTINUOUS
 10
7.2255493557
 20
4.1385775568
 11
7.2202759182
 21
4.1350619326
  0
LINE
  5
3BE
100
AcDbEntity
  8
03__ASM_ALL_CURVES
100
AcDbLine
 62
40
  6
CONTINUOUS
 10
4.3569673247
 20
5.0371791826
 11
4.3007173247
 21
5.0309291826
  0
LINE
  5
3BF
100
AcDbEntity
  8
03__ASM_ALL_CURVES
100
AcDbLine
 62
40
  6
CONTINUOUS
 10
4.3569673247
 20
5.0356166826
 11
4.3007173247
 21
5.0309291826
  0
LINE
  5
3C0
100
AcDbEntity
  8
03__ASM_ALL_CURVES
100
AcDbLine
 62
40
  6
CONTINUOUS
 10
4.3569673247
 20
5.0340541826
 11
4.3007173247
 21
5.0309291826
  0
LINE
  5
3C1
100
AcDbEntity
  8
03__ASM_ALL_CURVES
100
AcDbLine
 62
40
  6
CONTINUOUS
 10
6.08654545
 20
5.1059291826
 11
6.0795142
 21
5.1059291826
  0
LINE
  5
3C2
100
AcDbEntity
  8
03__ASM_ALL_CURVES
100
AcDbLine
 62
40
  6
CONTINUOUS
 10
5.1332798247
 20
5.1059291826
 11
5.1051548247
 21
5.1059291826
  0
LINE
  5
3C3
100
AcDbEntity
  8
03__ASM_ALL_CURVES
100
AcDbLine
 62
40
  6
CONTINUOUS
 10
4.7782016997
 20
5.1059291826
 11
4.7852329497
 21
5.1059291826
  0
LINE
  5
3C4
100
AcDbEntity
  8
03__ASM_ALL_CURVES
100
AcDbLine
 62
40
  6
CONTINUOUS
 10
4.8907016997
 20
5.1059291826
 11
4.8977329497
 21
5.1059291826
  0
LINE
  5
3C5
100
AcDbEntity
  8
03__ASM_ALL_CURVES
100
AcDbLine
 62
40
  6
CONTINUOUS
 10
5.6295142
 20
5.1059291826
 11
5.63654545
 21
5.1059291826
  0
LINE
  5
3C6
100
AcDbEntity
  8
03__ASM_ALL_CURVES
100
AcDbLine
 62
40
  6
CONTINUOUS
 10
5.6857642
 20
5.1059291826
 11
5.69279545
 21
5.1059291826
  0
LINE
  5
3C7
100
AcDbEntity
  8
03__ASM_ALL_CURVES
100
AcDbLine
 62
40
  6
CONTINUOUS
 10
5.7842017
 20
5.1059291826
 11
5.81935795
 21
5.1059291826
  0
LINE
  5
3C8
100
AcDbEntity
  8
03__ASM_ALL_CURVES
100
AcDbLine
 62
40
  6
CONTINUOUS
 10
5.9670142
 20
5.1059291826
 11
5.97404545
 21
5.1059291826
  0
LINE
  5
3C9
100
AcDbEntity
  8
03__ASM_ALL_CURVES
100
AcDbLine
 62
40
  6
CONTINUOUS
 10
6.1920142
 20
5.1059291826
 11
6.19904545
 21
5.1059291826
  0
LINE
  5
3CA
100
AcDbEntity
  8
03__ASM_ALL_CURVES
100
AcDbLine
 62
40
  6
CONTINUOUS
 10
6.350217325
 20
5.1059291826
 11
6.364279825
 21
5.1059291826
  0
LINE
  5
3CB
100
AcDbEntity
  8
03__ASM_ALL_CURVES
100
AcDbLine
 62
40
  6
CONTINUOUS
 10
6.406467325
 20
5.1059291826
 11
6.434592325
 21
5.1059291826
  0
LINE
  5
3CC
100
AcDbEntity
  8
03__ASM_ALL_CURVES
100
AcDbLine
 62
40
  6
CONTINUOUS
 10
6.462717325
 20
5.1059291826
 11
6.48029545
 21
5.1059291826
  0
LINE
  5
3CD
100
AcDbEntity
  8
03__ASM_ALL_CURVES
100
AcDbLine
 62
40
  6
CONTINUOUS
 10
6.07248295
 20
5.0871791837
 11
6.0935767
 21
5.073116682
  0
LINE
  5
3CE
100
AcDbEntity
  8
03__ASM_ALL_CURVES
100
AcDbLine
 62
40
  6
CONTINUOUS
 10
6.0935767
 20
5.1012416837
 11
6.08654545
 21
5.1059291826
  0
LINE
  5
3CF
100
AcDbEntity
  8
03__ASM_ALL_CURVES
100
AcDbLine
 62
40
  6
CONTINUOUS
 10
6.1920142
 20
5.0496791826
 11
6.18498295
 21
5.0543666827
  0
LINE
  5
3D0
100
AcDbEntity
  8
03__ASM_ALL_CURVES
100
AcDbLine
 62
40
  6
CONTINUOUS
 10
6.2482642
 20
5.0496791826
 11
6.24123295
 21
5.0543666827
  0
LINE
  5
3D1
100
AcDbEntity
  8
03__ASM_ALL_CURVES
100
AcDbLine
 62
40
  6
CONTINUOUS
 10
6.19904545
 20
5.1059291826
 11
6.2060767
 21
5.1012416837
  0
LINE
  5
3D2
100
AcDbEntity
  8
0
100
AcDbLine
 62
7
  6
CONTINUOUS
 10
6.8617173247
 20
4.4315931826
 11
6.8467173247
 21
4.4465931826
  0
LINE
  5
3D3
100
AcDbEntity
  8
03__ASM_ALL_CURVES
100
AcDbLine
 62
40
  6
CONTINUOUS
 10
6.48029545
 20
5.0778041826
 11
6.490842325
 21
5.0496791826
  0
LINE
  5
3D4
100
AcDbEntity
  8
0
100
AcDbLine
 62
7
  6
CONTINUOUS
 10
6.7737173247
 20
4.4275931826
 11
6.7737173247
 21
3.7815931826
  0
LINE
  5
3D5
100
AcDbEntity
  8
0
100
AcDbLine
 62
7
  6
CONTINUOUS
 10
6.7947173247
 20
3.7625971899
 11
6.7947173247
 21
4.4465891753
  0
LINE
  5
3D6
100
AcDbEntity
  8
03__ASM_ALL_CURVES
100
AcDbLine
 62
40
  6
CONTINUOUS
 10
6.3823462188
 20
3.5000463076
 11
6.3876196563
 21
3.5070775584
  0
LINE
  5
3D7
100
AcDbEntity
  8
03__ASM_ALL_CURVES
100
AcDbLine
 62
40
  6
CONTINUOUS
 10
6.4087134063
 20
3.4789525576
 11
6.4034399688
 21
3.4719213077
  0
LINE
  5
3D8
100
AcDbEntity
  8
03__ASM_ALL_CURVES
100
AcDbLine
 62
40
  6
CONTINUOUS
 10
6.4482641876
 20
3.4965306834
 11
6.4456274688
 21
3.4930150568
  0
LINE
  5
3D9
100
AcDbEntity
  8
03__ASM_ALL_CURVES
100
AcDbLine
 62
40
  6
CONTINUOUS
 10
6.5115454376
 20
3.5035619318
 11
6.5141821563
 21
3.5070775584
  0
LINE
  5
3DA
100
AcDbEntity
  8
03__ASM_ALL_CURVES
100
AcDbLine
 62
40
  6
CONTINUOUS
 10
6.3612524688
 20
3.4930150568
 11
6.3559790313
 21
3.4894994326
  0
LINE
  5
3DB
100
AcDbEntity
  8
03__ASM_ALL_CURVES
100
AcDbLine
 62
40
  6
CONTINUOUS
 10
6.3876196563
 20
3.5070775584
 11
6.3928930938
 21
3.5105931826
  0
LINE
  5
3DC
100
AcDbEntity
  8
03__ASM_ALL_CURVES
100
AcDbLine
 62
40
  6
CONTINUOUS
 10
6.4034399688
 20
3.4719213077
 11
6.3981665313
 21
3.4684056826
  0
LINE
  5
3DD
100
AcDbEntity
  8
03__ASM_ALL_CURVES
100
AcDbLine
 62
40
  6
CONTINUOUS
 10
6.4456274688
 20
3.4930150568
 11
6.4403540313
 21
3.4894994326
  0
LINE
  5
3DE
100
AcDbEntity
  8
03__ASM_ALL_CURVES
100
AcDbLine
 62
40
  6
CONTINUOUS
 10
4.3007173247
 20
5.0309291826
 11
4.3569673247
 21
5.0403041826
  0
LINE
  5
3DF
100
AcDbEntity
  8
03__ASM_ALL_CURVES
100
AcDbLine
 62
40
  6
CONTINUOUS
 10
4.3569673247
 20
5.0387416826
 11
4.3007173247
 21
5.0309291826
  0
LINE
  5
3E0
100
AcDbEntity
  8
03__ASM_ALL_CURVES
100
AcDbLine
 62
40
  6
CONTINUOUS
 10
6.364279825
 20
5.1059291826
 11
6.371311075
 21
5.1012416837
  0
LINE
  5
3E1
100
AcDbEntity
  8
03__ASM_ALL_CURVES
100
AcDbLine
 62
40
  6
CONTINUOUS
 10
6.371311075
 20
5.1012416837
 11
6.378342325
 21
5.0918666826
  0
LINE
  5
3E2
100
AcDbEntity
  8
03__ASM_ALL_CURVES
100
AcDbLine
 62
40
  6
CONTINUOUS
 10
7.1675415432
 20
4.1174838077
 11
7.1622681057
 21
4.1245150576
  0
LINE
  5
3E3
100
AcDbEntity
  8
03__ASM_ALL_CURVES
100
AcDbLine
 62
40
  6
CONTINUOUS
 10
7.1411743557
 20
4.1526400584
 11
7.1438110745
 21
4.1491244318
  0
LINE
  5
3E4
100
AcDbEntity
  8
03__ASM_ALL_CURVES
100
AcDbLine
 62
40
  6
CONTINUOUS
 10
7.1833618557
 20
4.1526400584
 11
7.1886352932
 21
4.1456088076
  0
LINE
  5
3E5
100
AcDbEntity
  8
03__ASM_ALL_CURVES
100
AcDbLine
 62
40
  6
CONTINUOUS
 10
6.4873267
 20
5.1012416837
 11
6.490842325
 21
5.0965541815
  0
LINE
  5
3E6
100
AcDbEntity
  8
0
100
AcDbLine
 62
7
  6
CONTINUOUS
 10
6.8467173247
 20
3.7625931826
 11
6.8467173247
 21
4.4465931826
  0
LINE
  5
3E7
100
AcDbEntity
  8
0
100
AcDbLine
 62
7
  6
CONTINUOUS
 10
6.8617173247
 20
3.7775970141
 11
6.8617173247
 21
4.4315893511
  0
LINE
  5
3E8
100
AcDbEntity
  8
03__ASM_ALL_CURVES
100
AcDbLine
 62
40
  6
CONTINUOUS
 10
6.5194555938
 20
3.4859838072
 11
6.5141821563
 21
3.4789525576
  0
LINE
  5
3E9
100
AcDbEntity
  8
03__ASM_ALL_CURVES
100
AcDbLine
 62
40
  6
CONTINUOUS
 10
6.5326391876
 20
3.4965306834
 11
6.5300024688
 21
3.4930150568
  0
LINE
  5
3EA
100
AcDbEntity
  8
0
100
AcDbLine
 62
7
  6
CONTINUOUS
 10
6.8617173247
 20
3.7775931826
 11
6.8467173247
 21
3.7625931826
  0
LINE
  5
3EB
100
AcDbEntity
  8
03__ASM_ALL_CURVES
100
AcDbLine
 62
40
  6
CONTINUOUS
 10
6.5141821563
 20
3.5070775584
 11
6.5194555938
 21
3.5105931826
  0
LINE
  5
3EC
100
AcDbEntity
  8
03__ASM_ALL_CURVES
100
AcDbLine
 62
40
  6
CONTINUOUS
 10
6.5300024688
 20
3.4930150568
 11
6.5194555938
 21
3.4859838072
  0
LINE
  5
3ED
100
AcDbEntity
  8
03__ASM_ALL_CURVES
100
AcDbLine
 62
40
  6
CONTINUOUS
 10
6.48029545
 20
5.1059291826
 11
6.4873267
 21
5.1012416837
  0
LINE
  5
3EE
100
AcDbEntity
  8
03__ASM_ALL_CURVES
100
AcDbLine
 62
40
  6
CONTINUOUS
 10
7.2255493557
 20
4.1526400584
 11
7.2281860745
 21
4.1491244318
  0
LINE
  5
3EF
100
AcDbEntity
  8
03__ASM_ALL_CURVES
100
AcDbLine
 62
40
  6
CONTINUOUS
 10
7.1438110745
 20
4.1420931834
 11
7.1411743557
 21
4.1385775568
  0
LINE
  5
3F0
100
AcDbEntity
  8
03__ASM_ALL_CURVES
100
AcDbLine
 62
40
  6
CONTINUOUS
 10
7.1622681057
 20
4.1456088076
 11
7.1675415432
 21
4.1526400584
  0
LINE
  5
3F1
100
AcDbEntity
  8
03__ASM_ALL_CURVES
100
AcDbLine
 62
40
  6
CONTINUOUS
 10
7.1886352932
 20
4.1245150576
 11
7.1833618557
 21
4.1174838077
  0
LINE
  5
3F2
100
AcDbEntity
  8
03__ASM_ALL_CURVES
100
AcDbLine
 62
40
  6
CONTINUOUS
 10
7.2281860745
 20
4.1420931834
 11
7.2255493557
 21
4.1385775568
  0
LINE
  5
3F3
100
AcDbEntity
  8
03__ASM_ALL_CURVES
100
AcDbLine
 62
40
  6
CONTINUOUS
 10
7.1227173245
 20
4.1139681826
 11
7.1227173245
 21
4.1561556826
  0
LINE
  5
3F4
100
AcDbEntity
  8
03__ASM_ALL_CURVES
100
AcDbLine
 62
40
  6
CONTINUOUS
 10
7.1438110745
 20
4.1491244318
 11
7.1438110745
 21
4.1420931834
  0
LINE
  5
3F5
100
AcDbEntity
  8
03__ASM_ALL_CURVES
100
AcDbLine
 62
40
  6
CONTINUOUS
 10
7.159631387
 20
4.1350619326
 11
7.1622681057
 21
4.1456088076
  0
LINE
  5
3F6
100
AcDbEntity
  8
03__ASM_ALL_CURVES
100
AcDbLine
 62
40
  6
CONTINUOUS
 10
7.2202759182
 20
4.1350619326
 11
7.2281860745
 21
4.1139681826
  0
LINE
  5
3F7
100
AcDbEntity
  8
03__ASM_ALL_CURVES
100
AcDbLine
 62
40
  6
CONTINUOUS
 10
7.1622681057
 20
4.1245150576
 11
7.159631387
 21
4.1350619326
  0
LINE
  5
3F8
100
AcDbEntity
  8
03__ASM_ALL_CURVES
100
AcDbLine
 62
40
  6
CONTINUOUS
 10
7.1886352932
 20
4.1456088076
 11
7.191272012
 21
4.1350619326
  0
LINE
  5
3F9
100
AcDbEntity
  8
03__ASM_ALL_CURVES
100
AcDbLine
 62
40
  6
CONTINUOUS
 10
7.2070923245
 20
4.1139681826
 11
7.2070923245
 21
4.1561556826
  0
LINE
  5
3FA
100
AcDbEntity
  8
03__ASM_ALL_CURVES
100
AcDbLine
 62
40
  6
CONTINUOUS
 10
7.2281860745
 20
4.1491244318
 11
7.2281860745
 21
4.1420931834
  0
LINE
  5
3FB
100
AcDbEntity
  8
03__ASM_ALL_CURVES
100
AcDbLine
 62
40
  6
CONTINUOUS
 10
7.2598266995
 20
4.1561556826
 11
7.2598266995
 21
4.1139681826
  0
LINE
  5
3FC
100
AcDbEntity
  8
03__ASM_ALL_CURVES
100
AcDbLine
 62
40
  6
CONTINUOUS
 10
7.191272012
 20
4.1350619326
 11
7.1886352932
 21
4.1245150576
  0
LINE
  5
3FD
100
AcDbEntity
  8
03__ASM_ALL_CURVES
100
AcDbLine
 62
40
  6
CONTINUOUS
 10
7.3020141995
 20
4.1561556826
 11
7.3020141995
 21
4.1139681826
  0
ARC
  5
3FE
100
AcDbEntity
  8
0
100
AcDbCircle
 62
7
  6
CONTINUOUS
 10
5.0217173247
 20
3.7175931826
 40
0.013
100
AcDbArc
 50
0.0000000011
 51
90.0
  0
ARC
  5
3FF
100
AcDbEntity
  8
0
100
AcDbCircle
 62
7
  6
CONTINUOUS
 10
5.0217173247
 20
4.4915931826
 40
0.013
100
AcDbArc
 50
270.0
 51
359.9999999969
  0
ARC
  5
400
100
AcDbEntity
  8
0
100
AcDbCircle
 62
7
  6
CONTINUOUS
 10
5.6672117712
 20
3.7410931826
 40
0.013
100
AcDbArc
 50
29.9999999892
 51
90.0
  0
ARC
  5
401
100
AcDbEntity
  8
0
100
AcDbCircle
 62
7
  6
CONTINUOUS
 10
5.6672117712
 20
4.4680931826
 40
0.013
100
AcDbArc
 50
270.0
 51
330.0000000002
  0
SPLINE
  5
402
100
AcDbEntity
  8
0
100
AcDbSpline
 62
7
  6
CONTINUOUS
 70
0
 71
3
 72
15
 73
11
 74
9
 42
0.0000001
 43
0.0000001
 44
0.0000000001
 12
0.0
 22
0.1099409465
 32
0.0
 13
0.0
 23
-0.1099409465
 33
0.0
 40
0.0
 40
0.0
 40
0.0
 40
0.0
 40
0.125
 40
0.25
 40
0.375
 40
0.5
 40
0.625
 40
0.75
 40
0.875
 40
1.0
 40
1.0
 40
1.0
 40
1.0
 10
6.7737173247
 20
4.4275931826
 30
0.0
 10
6.7737173247
 20
4.4321740554
 30
0.0
 10
6.7718949402
 20
4.4413358009
 30
0.0
 10
6.7641103722
 20
4.4529862302
 30
0.0
 10
6.752459943
 20
4.4607707981
 30
0.0
 10
6.7387173247
 20
4.4635043748
 30
0.0
 10
6.7249747064
 20
4.4607707981
 30
0.0
 10
6.7133242771
 20
4.4529862302
 30
0.0
 10
6.7055397092
 20
4.4413358009
 30
0.0
 10
6.7037173247
 20
4.4321740554
 30
0.0
 10
6.7037173247
 20
4.4275931826
 30
0.0
 11
6.7737173247
 21
4.4275931826
 31
0.0
 11
6.7710531083
 21
4.4409871027
 31
0.0
 11
6.763466062
 21
4.4523419199
 31
0.0
 11
6.7521112448
 21
4.4599289662
 31
0.0
 11
6.7387173247
 21
4.4625931826
 31
0.0
 11
6.7253234045
 21
4.4599289662
 31
0.0
 11
6.7139685873
 21
4.4523419199
 31
0.0
 11
6.706381541
 21
4.4409871027
 31
0.0
 11
6.7037173247
 21
4.4275931826
 31
0.0
  0
SPLINE
  5
403
100
AcDbEntity
  8
0
100
AcDbSpline
 62
7
  6
CONTINUOUS
 70
0
 71
3
 72
15
 73
11
 74
9
 42
0.0000001
 43
0.0000001
 44
0.0000000001
 12
0.0
 22
-0.1099409465
 32
0.0
 13
0.0
 23
0.1099409465
 33
0.0
 40
0.0
 40
0.0
 40
0.0
 40
0.0
 40
0.125
 40
0.25
 40
0.375
 40
0.5
 40
0.625
 40
0.75
 40
0.875
 40
1.0
 40
1.0
 40
1.0
 40
1.0
 10
6.7737173247
 20
3.7815931826
 30
0.0
 10
6.7737173247
 20
3.7770123098
 30
0.0
 10
6.7718949402
 20
3.7678505643
 30
0.0
 10
6.7641103722
 20
3.756200135
 30
0.0
 10
6.752459943
 20
3.7484155671
 30
0.0
 10
6.7387173247
 20
3.7456819903
 30
0.0
 10
6.7249747064
 20
3.7484155671
 30
0.0
 10
6.7133242771
 20
3.756200135
 30
0.0
 10
6.7055397092
 20
3.7678505643
 30
0.0
 10
6.7037173247
 20
3.7770123098
 30
0.0
 10
6.7037173247
 20
3.7815931826
 30
0.0
 11
6.7737173247
 21
3.7815931826
 31
0.0
 11
6.7710531083
 21
3.7681992625
 31
0.0
 11
6.763466062
 21
3.7568444453
 31
0.0
 11
6.7521112448
 21
3.749257399
 31
0.0
 11
6.7387173247
 21
3.7465931826
 31
0.0
 11
6.7253234045
 21
3.749257399
 31
0.0
 11
6.7139685873
 21
3.7568444453
 31
0.0
 11
6.706381541
 21
3.7681992625
 31
0.0
 11
6.7037173247
 21
3.7815931826
 31
0.0
  0
SPLINE
  5
404
100
AcDbEntity
  8
0
100
AcDbSpline
 62
7
  6
CONTINUOUS
 70
0
 71
3
 72
15
 73
11
 74
9
 42
0.0000001
 43
0.0000001
 44
0.0000000001
 12
0.0
 22
0.1099409465
 32
0.0
 13
0.0
 23
-0.1099409465
 33
0.0
 40
0.0
 40
0.0
 40
0.0
 40
0.0
 40
0.125
 40
0.25
 40
0.375
 40
0.5
 40
0.625
 40
0.75
 40
0.875
 40
1.0
 40
1.0
 40
1.0
 40
1.0
 10
5.0137173247
 20
4.5135931826
 30
0.0
 10
5.0137173247
 20
4.5181740554
 30
0.0
 10
5.0118949402
 20
4.5273358009
 30
0.0
 10
5.0041103722
 20
4.5389862302
 30
0.0
 10
4.992459943
 20
4.5467707981
 30
0.0
 10
4.9787173247
 20
4.5495043748
 30
0.0
 10
4.9649747064
 20
4.5467707981
 30
0.0
 10
4.9533242771
 20
4.5389862302
 30
0.0
 10
4.9455397092
 20
4.5273358009
 30
0.0
 10
4.9437173247
 20
4.5181740554
 30
0.0
 10
4.9437173247
 20
4.5135931826
 30
0.0
 11
5.0137173247
 21
4.5135931826
 31
0.0
 11
5.0110531083
 21
4.5269871027
 31
0.0
 11
5.003466062
 21
4.5383419199
 31
0.0
 11
4.9921112448
 21
4.5459289662
 31
0.0
 11
4.9787173247
 21
4.5485931826
 31
0.0
 11
4.9653234045
 21
4.5459289662
 31
0.0
 11
4.9539685873
 21
4.5383419199
 31
0.0
 11
4.946381541
 21
4.5269871027
 31
0.0
 11
4.9437173247
 21
4.5135931826
 31
0.0
  0
SPLINE
  5
405
100
AcDbEntity
  8
0
100
AcDbSpline
 62
7
  6
CONTINUOUS
 70
0
 71
3
 72
15
 73
11
 74
9
 42
0.0000001
 43
0.0000001
 44
0.0000000001
 12
0.0
 22
-0.1099409465
 32
0.0
 13
0.0
 23
0.1099409465
 33
0.0
 40
0.0
 40
0.0
 40
0.0
 40
0.0
 40
0.125
 40
0.25
 40
0.375
 40
0.5
 40
0.625
 40
0.75
 40
0.875
 40
1.0
 40
1.0
 40
1.0
 40
1.0
 10
5.0137173247
 20
3.6955931826
 30
0.0
 10
5.0137173247
 20
3.6910123098
 30
0.0
 10
5.0118949402
 20
3.6818505643
 30
0.0
 10
5.0041103722
 20
3.670200135
 30
0.0
 10
4.992459943
 20
3.6624155671
 30
0.0
 10
4.9787173247
 20
3.6596819903
 30
0.0
 10
4.9649747064
 20
3.6624155671
 30
0.0
 10
4.9533242771
 20
3.670200135
 30
0.0
 10
4.9455397092
 20
3.6818505643
 30
0.0
 10
4.9437173247
 20
3.6910123098
 30
0.0
 10
4.9437173247
 20
3.6955931826
 30
0.0
 11
5.0137173247
 21
3.6955931826
 31
0.0
 11
5.0110531083
 21
3.6821992625
 31
0.0
 11
5.003466062
 21
3.6708444453
 31
0.0
 11
4.9921112448
 21
3.663257399
 31
0.0
 11
4.9787173247
 21
3.6605931826
 31
0.0
 11
4.9653234045
 21
3.663257399
 31
0.0
 11
4.9539685873
 21
3.6708444453
 31
0.0
 11
4.946381541
 21
3.6821992625
 31
0.0
 11
4.9437173247
 21
3.6955931826
 31
0.0
  0
SPLINE
  5
406
100
AcDbEntity
  8
0
100
AcDbSpline
 62
7
  6
CONTINUOUS
 70
0
 71
3
 72
15
 73
11
 74
9
 42
0.0000001
 43
0.0000001
 44
0.0000000001
 12
0.0
 22
0.1099409465
 32
0.0
 13
0.0
 23
-0.1099409465
 33
0.0
 40
0.0
 40
0.0
 40
0.0
 40
0.0
 40
0.125
 40
0.25
 40
0.375
 40
0.5
 40
0.625
 40
0.75
 40
0.875
 40
1.0
 40
1.0
 40
1.0
 40
1.0
 10
5.6047173247
 20
4.5135931826
 30
0.0
 10
5.6047173247
 20
4.5181740554
 30
0.0
 10
5.6028949402
 20
4.5273358009
 30
0.0
 10
5.5951103722
 20
4.5389862302
 30
0.0
 10
5.583459943
 20
4.5467707981
 30
0.0
 10
5.5697173247
 20
4.5495043748
 30
0.0
 10
5.5559747064
 20
4.5467707981
 30
0.0
 10
5.5443242771
 20
4.5389862302
 30
0.0
 10
5.5365397092
 20
4.5273358009
 30
0.0
 10
5.5347173247
 20
4.5181740554
 30
0.0
 10
5.5347173247
 20
4.5135931826
 30
0.0
 11
5.6047173247
 21
4.5135931826
 31
0.0
 11
5.6020531083
 21
4.5269871027
 31
0.0
 11
5.594466062
 21
4.5383419199
 31
0.0
 11
5.5831112448
 21
4.5459289662
 31
0.0
 11
5.5697173247
 21
4.5485931826
 31
0.0
 11
5.5563234045
 21
4.5459289662
 31
0.0
 11
5.5449685873
 21
4.5383419199
 31
0.0
 11
5.537381541
 21
4.5269871027
 31
0.0
 11
5.5347173247
 21
4.5135931826
 31
0.0
  0
SPLINE
  5
407
100
AcDbEntity
  8
0
100
AcDbSpline
 62
7
  6
CONTINUOUS
 70
0
 71
3
 72
15
 73
11
 74
9
 42
0.0000001
 43
0.0000001
 44
0.0000000001
 12
0.0
 22
-0.1099409465
 32
0.0
 13
0.0
 23
0.1099409465
 33
0.0
 40
0.0
 40
0.0
 40
0.0
 40
0.0
 40
0.125
 40
0.25
 40
0.375
 40
0.5
 40
0.625
 40
0.75
 40
0.875
 40
1.0
 40
1.0
 40
1.0
 40
1.0
 10
5.6047173247
 20
3.6955931826
 30
0.0
 10
5.6047173247
 20
3.6910123098
 30
0.0
 10
5.6028949402
 20
3.6818505643
 30
0.0
 10
5.5951103722
 20
3.670200135
 30
0.0
 10
5.583459943
 20
3.6624155671
 30
0.0
 10
5.5697173247
 20
3.6596819903
 30
0.0
 10
5.5559747064
 20
3.6624155671
 30
0.0
 10
5.5443242771
 20
3.670200135
 30
0.0
 10
5.5365397092
 20
3.6818505643
 30
0.0
 10
5.5347173247
 20
3.6910123098
 30
0.0
 10
5.5347173247
 20
3.6955931826
 30
0.0
 11
5.6047173247
 21
3.6955931826
 31
0.0
 11
5.6020531083
 21
3.6821992625
 31
0.0
 11
5.594466062
 21
3.6708444453
 31
0.0
 11
5.5831112448
 21
3.663257399
 31
0.0
 11
5.5697173247
 21
3.6605931826
 31
0.0
 11
5.5563234045
 21
3.663257399
 31
0.0
 11
5.5449685873
 21
3.6708444453
 31
0.0
 11
5.537381541
 21
3.6821992625
 31
0.0
 11
5.5347173247
 21
3.6955931826
 31
0.0
  0
SPLINE
  5
408
100
AcDbEntity
  8
126-301_HEX_FEATURES
100
AcDbSpline
 62
7
  6
CONTINUOUS
 70
0
 71
3
 72
16
 73
12
 74
10
 42
0.0000001
 43
0.0000001
 44
0.0000000001
 12
-0.086979518
 22
-0.0064727334
 32
0.0
 13
-0.0871251761
 23
0.0040668358
 33
0.0
 40
0.0
 40
0.0
 40
0.0
 40
0.0
 40
0.0166500776
 40
0.0691994175
 40
0.1539266085
 40
0.2651289359
 40
0.3964450111
 40
0.5442186533
 40
0.7015597984
 40
0.8573855837
 40
1.0
 40
1.0
 40
1.0
 40
1.0
 10
6.0748716536
 20
4.4475931826
 30
0.0
 10
6.074388915
 20
4.4475572588
 30
0.0
 10
6.0723824811
 20
4.4474096039
 30
0.0
 10
6.067918265
 20
4.4470965045
 30
0.0
 10
6.0607084189
 20
4.4466412712
 30
0.0
 10
6.0512073162
 20
4.4461393757
 30
0.0
 10
6.0398686486
 20
4.4456915483
 30
0.0
 10
6.0271829533
 20
4.4453952481
 30
0.0
 10
6.013781119
 20
4.4453325666
 30
0.0
 10
6.0005307318
 20
4.4455404918
 30
0.0
 10
5.9918590934
 20
4.4458552152
 30
0.0
 10
5.9877173247
 20
4.4460485451
 30
0.0
 11
6.0748716536
 21
4.4475931826
 31
0.0
 11
6.0734233494
 21
4.4474866036
 31
0.0
 11
6.0688512192
 21
4.4471660204
 31
0.0
 11
6.0614759741
 21
4.4467007083
 31
0.0
 11
6.0517903619
 21
4.4461899204
 31
0.0
 11
6.0403458334
 21
4.4457393788
 31
0.0
 11
6.0274604738
 21
4.4454406012
 31
0.0
 11
6.0137373102
 21
4.4453791732
 31
0.0
 11
6.0001478959
 21
4.445595203
 31
0.0
 11
5.9877173247
 21
4.4460485451
 31
0.0
  0
SPLINE
  5
409
100
AcDbEntity
  8
126-301_HEX_FEATURES
100
AcDbSpline
 62
7
  6
CONTINUOUS
 70
0
 71
3
 72
8
 73
4
 74
2
 42
0.0000001
 43
0.0000001
 44
0.0000000001
 12
0.0036547246
 22
0.001680166
 32
0.0
 13
0.003545713
 23
0.0019024932
 33
0.0
 40
0.0
 40
0.0
 40
0.0
 40
0.0
 40
1.0
 40
1.0
 40
1.0
 40
1.0
 10
5.9875785246
 20
4.0724342897
 30
0.0
 10
5.9887967661
 20
4.0729943451
 30
0.0
 10
5.9899982464
 20
4.0735908818
 30
0.0
 10
5.9911801507
 20
4.0742250462
 30
0.0
 11
5.9875785246
 21
4.0724342897
 31
0.0
 11
5.9911801507
 21
4.0742250462
 31
0.0
  0
SPLINE
  5
40A
100
AcDbEntity
  8
126-301_HEX_FEATURES
100
AcDbSpline
 62
7
  6
CONTINUOUS
 70
0
 71
3
 72
11
 73
7
 74
5
 42
0.0000001
 43
0.0000001
 44
0.0000000001
 12
0.034756753
 22
0.0186491364
 32
0.0
 13
0.0
 23
0.0393766932
 33
0.0
 40
0.0
 40
0.0
 40
0.0
 40
0.0
 40
0.2924763856
 40
0.5493894195
 40
0.7844875724
 40
1.0
 40
1.0
 40
1.0
 40
1.0
 10
5.9911801507
 20
4.0742250462
 30
0.0
 10
5.9945686606
 20
4.0760431902
 30
0.0
 10
6.000631409
 20
4.0800393669
 30
0.0
 10
6.0078414504
 20
4.0875302233
 30
0.0
 10
6.0123350325
 20
4.0958103264
 30
0.0
 10
6.0133716536
 20
4.1017644603
 30
0.0
 10
6.0133716536
 20
4.1045931826
 30
0.0
 11
5.9911801507
 21
4.0742250462
 31
0.0
 11
6.0007366433
 21
4.0806522578
 31
0.0
 11
6.0076610044
 21
4.0880275193
 31
0.0
 11
6.011962577
 21
4.0962248178
 31
0.0
 11
6.0133716536
 21
4.1045931826
 31
0.0
  0
SPLINE
  5
40B
100
AcDbEntity
  8
126-301_HEX_FEATURES
100
AcDbSpline
 62
7
  6
CONTINUOUS
 70
0
 71
3
 72
10
 73
6
 74
4
 42
0.0000001
 43
0.0000001
 44
0.0000000001
 12
-0.0307496505
 22
-0.0000087649
 32
0.0
 13
-0.027576672
 23
0.013517703
 33
0.0
 40
0.0
 40
0.0
 40
0.0
 40
0.0
 40
0.1230881029
 40
0.5700644763
 40
1.0
 40
1.0
 40
1.0
 40
1.0
 10
6.017520784
 20
4.0655930689
 30
0.0
 10
6.0162591453
 20
4.0655927093
 30
0.0
 10
6.0104160542
 20
4.0657328391
 30
0.0
 10
6.000220392
 20
4.0671443668
 30
0.0
 10
5.9916693883
 20
4.0701407785
 30
0.0
 10
5.9877173247
 20
4.0720780254
 30
0.0
 11
6.017520784
 21
4.0655930689
 31
0.0
 11
6.0137373102
 21
4.0656842042
 31
0.0
 11
6.0001478959
 21
4.0676253305
 31
0.0
 11
5.9877173247
 21
4.0720780254
 31
0.0
  0
SPLINE
  5
40C
100
AcDbEntity
  8
126-301_HEX_FEATURES
100
AcDbSpline
 62
7
  6
CONTINUOUS
 70
0
 71
3
 72
11
 73
7
 74
5
 42
0.0000001
 43
0.0000001
 44
0.0000000001
 12
-0.0117826567
 22
0.0129384293
 32
0.0
 13
-0.0113772941
 23
0.0132962742
 33
0.0
 40
0.0
 40
0.0
 40
0.0
 40
0.0
 40
0.4169698242
 40
0.7348268184
 40
0.9327281403
 40
1.0
 40
1.0
 40
1.0
 40
1.0
 10
5.9877173247
 20
4.4460485451
 30
0.0
 10
5.9860796539
 20
4.4478468566
 30
0.0
 10
5.9832151259
 20
4.4510357209
 30
0.0
 10
5.9796257988
 20
4.4551246762
 30
0.0
 10
5.9774020902
 20
4.4576979073
 30
0.0
 10
5.9763952841
 20
4.458872192
 30
0.0
 10
5.9761401602
 20
4.4591703471
 30
0.0
 11
5.9877173247
 21
4.4460485451
 31
0.0
 11
5.9828405987
 21
4.4514763027
 31
0.0
 11
5.9791708745
 21
4.4556563601
 31
0.0
 11
5.9769064126
 21
4.4582766357
 31
0.0
 11
5.9761401602
 21
4.4591703471
 31
0.0
  0
SPLINE
  5
40D
100
AcDbEntity
  8
126-301_HEX_FEATURES
100
AcDbSpline
 62
7
  6
CONTINUOUS
 70
0
 71
3
 72
11
 73
7
 74
5
 42
0.0000001
 43
0.0000001
 44
0.0000000001
 12
0.0
 22
0.0353236888
 32
0.0
 13
0.0251959908
 23
0.0247573229
 33
0.0
 40
0.0
 40
0.0
 40
0.0
 40
0.0
 40
0.2704551357
 40
0.5313000955
 40
0.7756887724
 40
1.0
 40
1.0
 40
1.0
 40
1.0
 10
5.9761401602
 20
4.1045931826
 30
0.0
 10
5.9761401602
 20
4.1077776736
 30
0.0
 10
5.9766367163
 20
4.114045584
 30
0.0
 10
5.9788548847
 20
4.1229519322
 30
0.0
 10
5.9824469477
 20
4.1308130589
 30
0.0
 10
5.9858334101
 20
4.1352572246
 30
0.0
 10
5.9877173247
 20
4.1371083398
 30
0.0
 11
5.9761401602
 21
4.1045931826
 31
0.0
 11
5.9769107204
 21
4.1141155292
 31
0.0
 11
5.9791799158
 21
4.1230457398
 31
0.0
 11
5.982839083
 21
4.1308645741
 31
0.0
 11
5.9877173247
 21
4.1371083398
 31
0.0
  0
SPLINE
  5
40E
100
AcDbEntity
  8
126-301_HEX_FEATURES
100
AcDbSpline
 62
7
  6
CONTINUOUS
 70
0
 71
3
 72
11
 73
7
 74
5
 42
0.0000001
 43
0.0000001
 44
0.0000000001
 12
-0.0251960062
 22
0.024757338
 32
0.0
 13
0.0
 23
0.0353237103
 33
0.0
 40
0.0
 40
0.0
 40
0.0
 40
0.0
 40
0.2238582102
 40
0.4687406946
 40
0.7293593754
 40
1.0
 40
1.0
 40
1.0
 40
1.0
 10
5.9877173247
 20
4.0720780254
 30
0.0
 10
5.9858372137
 20
4.0739254032
 30
0.0
 10
5.9824493678
 20
4.0783687822
 30
0.0
 10
5.9788569223
 20
4.0862277479
 30
0.0
 10
5.976637021
 20
4.0951390204
 30
0.0
 10
5.9761401602
 20
4.1014065056
 30
0.0
 10
5.9761401602
 20
4.1045931826
 30
0.0
 11
5.9877173247
 21
4.0720780254
 31
0.0
 11
5.982847433
 21
4.0783080135
 31
0.0
 11
5.9791794371
 21
4.0861419805
 31
0.0
 11
5.9769117892
 21
4.0950643431
 31
0.0
 11
5.9761401602
 21
4.1045931826
 31
0.0
  0
SPLINE
  5
40F
100
AcDbEntity
  8
126-301_HEX_FEATURES
100
AcDbSpline
 62
7
  6
CONTINUOUS
 70
0
 71
3
 72
16
 73
12
 74
10
 42
0.0000001
 43
0.0000001
 44
0.0000000001
 12
0.0871251607
 22
0.0040668351
 32
0.0
 13
0.0869795034
 23
-0.0064727323
 33
0.0
 40
0.0
 40
0.0
 40
0.0
 40
0.0
 40
0.1452442068
 40
0.3029272094
 40
0.4613237353
 40
0.6093882869
 40
0.7395596955
 40
0.8485292669
 40
0.9314683885
 40
0.9830815265
 40
1.0
 40
1.0
 40
1.0
 40
1.0
 10
5.9877173247
 20
3.7631378201
 30
0.0
 10
5.9919354663
 20
3.7633347149
 30
0.0
 10
6.0007375673
 20
3.7636524888
 30
0.0
 10
6.0141491976
 20
3.7638565036
 30
0.0
 10
6.0276441371
 20
3.7637848274
 30
0.0
 10
6.0403354872
 20
3.7634798087
 30
0.0
 10
6.0515842111
 20
3.7630288871
 30
0.0
 10
6.0609351412
 20
3.7625313577
 30
0.0
 10
6.0680010782
 20
3.7620840788
 30
0.0
 10
6.0723940609
 20
3.7617758891
 30
0.0
 10
6.0743811335
 20
3.7616296855
 30
0.0
 10
6.0748716536
 20
3.7615931826
 30
0.0
 11
5.9877173247
 21
3.7631378201
 31
0.0
 11
6.0003771967
 21
3.7635971846
 31
0.0
 11
6.0141286771
 21
3.7638092523
 31
0.0
 11
6.0279438458
 21
3.7637386837
 31
0.0
 11
6.0408543641
 21
3.7634305928
 31
0.0
 11
6.0521988635
 21
3.762977258
 31
0.0
 11
6.0616898103
 21
3.7624730817
 31
0.0
 11
6.0689093344
 21
3.7620164226
 31
0.0
 11
6.0734000018
 21
3.76170146
 31
0.0
 11
6.0748716536
 21
3.7615931826
 31
0.0
  0
SPLINE
  5
410
100
AcDbEntity
  8
126-301_HEX_FEATURES
100
AcDbSpline
 62
7
  6
CONTINUOUS
 70
0
 71
3
 72
10
 73
6
 74
4
 42
0.0000001
 43
0.0000001
 44
0.0000000001
 12
0.0275770127
 22
0.01351787
 32
0.0
 13
0.0307501841
 23
-0.0000092954
 33
0.0
 40
0.0
 40
0.0
 40
0.0
 40
0.0
 40
0.4355102376
 40
0.8856048656
 40
1.0
 40
1.0
 40
1.0
 40
1.0
 10
5.9877173247
 20
4.1371083398
 30
0.0
 10
5.9917206818
 20
4.1390707301
 30
0.0
 10
6.0003631051
 20
4.1420844584
 30
0.0
 10
6.0105635335
 20
4.1434649293
 30
0.0
 10
6.0163496014
 20
4.1435936248
 30
0.0
 10
6.0175221585
 20
4.1435932703
 30
0.0
 11
5.9877173247
 21
4.1371083398
 31
0.0
 11
6.0003153666
 21
4.1416016607
 31
0.0
 11
6.0140056329
 21
4.1435147465
 31
0.0
 11
6.0175221585
 21
4.1435932703
 31
0.0
  0
SPLINE
  5
411
100
AcDbEntity
  8
126-301_HEX_FEATURES
100
AcDbSpline
 62
7
  6
CONTINUOUS
 70
0
 71
3
 72
14
 73
10
 74
8
 42
0.0000001
 43
0.0000001
 44
0.0000000001
 12
-0.0628459058
 22
0.0
 32
0.0
 13
-0.0618278077
 23
0.0112660133
 33
0.0
 40
0.0
 40
0.0
 40
0.0
 40
0.0
 40
0.2192022281
 40
0.4330429768
 40
0.6232009496
 40
0.7794077585
 40
0.9004620854
 40
0.9755263957
 40
1.0
 40
1.0
 40
1.0
 40
1.0
 10
5.1757173247
 20
4.4418508734
 30
0.0
 10
5.1711253371
 20
4.4418508734
 30
0.0
 10
5.1620525856
 20
4.4420363555
 30
0.0
 10
5.1490181263
 20
4.4428275374
 30
0.0
 10
5.1373360452
 20
4.4439709878
 30
0.0
 10
5.1276238822
 20
4.4452268899
 30
0.0
 10
5.1203287045
 20
4.4463510615
 30
0.0
 10
5.1157738865
 20
4.4471317116
 30
0.0
 10
5.1137217078
 20
4.4475012759
 30
0.0
 10
5.1132173247
 20
4.4475931826
 30
0.0
 11
5.1757173247
 21
4.4418508734
 31
0.0
 11
5.1619442307
 21
4.4421319924
 31
0.0
 11
5.1485298258
 21
4.4429449376
 31
0.0
 11
5.1366358772
 21
4.444107703
 31
0.0
 11
5.1268998532
 21
4.4453656808
 31
0.0
 11
5.1193807531
 21
4.4465238178
 31
0.0
 11
5.1147310421
 21
4.4473205913
 31
0.0
 11
5.1132173247
 21
4.4475931826
 31
0.0
  0
SPLINE
  5
412
100
AcDbEntity
  8
126-301_HEX_FEATURES
100
AcDbSpline
 62
7
  6
CONTINUOUS
 70
0
 71
3
 72
14
 73
10
 74
8
 42
0.0000001
 43
0.0000001
 44
0.0000000001
 12
-0.0618278023
 22
-0.0112660119
 32
0.0
 13
-0.0628458985
 23
0.0
 33
0.0
 40
0.0
 40
0.0
 40
0.0
 40
0.0
 40
0.0242663486
 40
0.0989438761
 40
0.220150627
 40
0.3764937341
 40
0.5659789527
 40
0.7796792024
 40
1.0
 40
1.0
 40
1.0
 40
1.0
 10
5.2382173247
 20
4.4475931826
 30
0.0
 10
5.237717213
 20
4.4475020543
 30
0.0
 10
5.2356772884
 20
4.4471346599
 30
0.0
 10
5.2311316439
 20
4.4463552632
 30
0.0
 10
5.2238385972
 20
4.4452307478
 30
0.0
 10
5.2141344951
 20
4.4439752336
 30
0.0
 10
5.2024666825
 20
4.4428318174
 30
0.0
 10
5.1894260007
 20
4.4420377258
 30
0.0
 10
5.1803327442
 20
4.4418508734
 30
0.0
 10
5.1757173247
 20
4.4418508734
 30
0.0
 11
5.2382173247
 21
4.4475931826
 31
0.0
 11
5.2367164311
 21
4.4473228734
 31
0.0
 11
5.2320907334
 21
4.446529889
 31
0.0
 11
5.2245622708
 21
4.4453696178
 31
0.0
 11
5.214817836
 21
4.4441098979
 31
0.0
 11
5.202966103
 21
4.4429498671
 31
0.0
 11
5.1895606704
 21
4.4421348663
 31
0.0
 11
5.1757173247
 21
4.4418508734
 31
0.0
  0
SPLINE
  5
413
100
AcDbEntity
  8
126-301_HEX_FEATURES
100
AcDbSpline
 62
7
  6
CONTINUOUS
 70
0
 71
3
 72
14
 73
10
 74
8
 42
0.0000001
 43
0.0000001
 44
0.0000000001
 12
0.0628459057
 22
0.0
 32
0.0
 13
0.0618278077
 23
-0.0112660133
 33
0.0
 40
0.0
 40
0.0
 40
0.0
 40
0.0
 40
0.2191990466
 40
0.4330575399
 40
0.6232095419
 40
0.779428308
 40
0.9004679464
 40
0.9755202243
 40
1.0
 40
1.0
 40
1.0
 40
1.0
 10
5.1757173247
 20
3.7673354918
 30
0.0
 10
5.1803092455
 20
3.7673354918
 30
0.0
 10
5.189382302
 20
3.7671500062
 30
0.0
 10
5.2024169409
 20
3.7663587995
 30
0.0
 10
5.2140995142
 20
3.7652152762
 30
0.0
 10
5.2238114933
 20
3.7639593723
 30
0.0
 10
5.2311063626
 20
3.7628352312
 30
0.0
 10
5.2356607563
 20
3.762054654
 30
0.0
 10
5.2377128144
 20
3.7616851124
 30
0.0
 10
5.2382173247
 20
3.7615931826
 30
0.0
 11
5.1757173247
 21
3.7673354918
 31
0.0
 11
5.1894902188
 21
3.767054381
 31
0.0
 11
5.2029057359
 21
3.7662413543
 31
0.0
 11
5.2147993086
 21
3.7650786005
 31
0.0
 11
5.2245360747
 21
3.7638205013
 31
0.0
 11
5.2320542597
 21
3.7626624875
 31
0.0
 11
5.2367032254
 21
3.7618658419
 31
0.0
 11
5.2382173247
 21
3.7615931826
 31
0.0
  0
SPLINE
  5
414
100
AcDbEntity
  8
126-301_HEX_FEATURES
100
AcDbSpline
 62
7
  6
CONTINUOUS
 70
0
 71
3
 72
11
 73
7
 74
5
 42
0.0000001
 43
0.0000001
 44
0.0000000001
 12
0.0
 22
0.0430067091
 32
0.0
 13
-0.0390544196
 23
0.0182042088
 33
0.0
 40
0.0
 40
0.0
 40
0.0
 40
0.0
 40
0.2143947477
 40
0.4446167345
 40
0.7020310661
 40
1.0
 40
1.0
 40
1.0
 40
1.0
 10
6.0133716536
 20
4.1045931826
 30
0.0
 10
6.0133716536
 20
4.1076666534
 30
0.0
 10
6.0121498901
 20
4.1140887042
 30
0.0
 10
6.0069600823
 20
4.1228919303
 30
0.0
 10
5.9987113181
 20
4.1307311094
 30
0.0
 10
5.9917915551
 20
4.1347887206
 30
0.0
 10
5.9879125538
 20
4.1365968169
 30
0.0
 11
6.0133716536
 21
4.1045931826
 31
0.0
 11
6.0117132104
 21
4.1136632197
 31
0.0
 11
6.0068233623
 21
4.1222725733
 31
0.0
 11
5.9989033447
 21
4.1300075749
 31
0.0
 11
5.9879125538
 21
4.1365968169
 31
0.0
  0
SPLINE
  5
415
100
AcDbEntity
  8
126-301_HEX_FEATURES
100
AcDbSpline
 62
7
  6
CONTINUOUS
 70
0
 71
3
 72
8
 73
4
 74
2
 42
0.0000001
 43
0.0000001
 44
0.0000000001
 12
-0.0003174063
 22
0.0001479507
 32
0.0
 13
-0.0003181448
 23
0.0001463059
 33
0.0
 40
0.0
 40
0.0
 40
0.0
 40
0.0
 40
1.0
 40
1.0
 40
1.0
 40
1.0
 10
5.9879125538
 20
4.1365968169
 30
0.0
 10
5.9878067517
 20
4.1366461338
 30
0.0
 10
5.9877008258
 20
4.1366951763
 30
0.0
 10
5.9875947775
 20
4.1367439449
 30
0.0
 11
5.9879125538
 21
4.1365968169
 31
0.0
 11
5.9875947775
 21
4.1367439449
 31
0.0
  0
SPLINE
  5
416
100
AcDbEntity
  8
126-301_HEX_FEATURES
100
AcDbSpline
 62
7
  6
CONTINUOUS
 70
0
 71
3
 72
14
 73
10
 74
8
 42
0.0000001
 43
0.0000001
 44
0.0000000001
 12
0.0618278024
 22
0.0112660119
 32
0.0
 13
0.0628458986
 23
0.0
 33
0.0
 40
0.0
 40
0.0
 40
0.0
 40
0.0
 40
0.0242751165
 40
0.0989376583
 40
0.22013582
 40
0.3765008398
 40
0.565987822
 40
0.7796983353
 40
1.0
 40
1.0
 40
1.0
 40
1.0
 10
5.1132173247
 20
3.7615931826
 30
0.0
 10
5.113717617
 20
3.7616843438
 30
0.0
 10
5.1157574138
 20
3.7620517137
 30
0.0
 10
5.1203027526
 20
3.7628310569
 30
0.0
 10
5.1275957627
 20
3.7639555802
 30
0.0
 10
5.1373001779
 20
3.7652111419
 30
0.0
 10
5.1489686998
 20
3.7663546106
 30
0.0
 10
5.1620092355
 20
3.7671486595
 30
0.0
 10
5.171102306
 20
3.7673354918
 30
0.0
 10
5.1757173247
 20
3.7673354918
 30
0.0
 11
5.1132173247
 21
3.7615931826
 31
0.0
 11
5.1147187607
 21
3.7618635883
 31
0.0
 11
5.1193435304
 21
3.7626564126
 31
0.0
 11
5.1268714573
 21
3.7638166154
 31
0.0
 11
5.136617257
 21
3.7650765184
 31
0.0
 11
5.1484691021
 21
3.7662365429
 31
0.0
 11
5.1618751805
 21
3.7670515482
 31
0.0
 11
5.1757173247
 21
3.7673354918
 31
0.0
  0
SPLINE
  5
417
100
AcDbEntity
  8
126-301_HEX_FEATURES
100
AcDbSpline
 62
7
  6
CONTINUOUS
 70
0
 71
3
 72
11
 73
7
 74
5
 42
0.0000001
 43
0.0000001
 44
0.0000000001
 12
0.0113772942
 22
0.0132962742
 32
0.0
 13
0.0117826567
 23
0.0129384293
 33
0.0
 40
0.0
 40
0.0
 40
0.0
 40
0.0
 40
0.0676496198
 40
0.265960637
 40
0.5828996235
 40
1.0
 40
1.0
 40
1.0
 40
1.0
 10
5.9761401602
 20
3.7500160181
 30
0.0
 10
5.9763967167
 20
3.7503158474
 30
0.0
 10
5.9774065191
 20
3.7514936137
 30
0.0
 10
5.9796297743
 20
3.7540662304
 30
0.0
 10
5.9832176894
 20
3.7581534923
 30
0.0
 10
5.9860791411
 20
3.7613389456
 30
0.0
 10
5.9877173247
 20
3.7631378201
 30
0.0
 11
5.9761401602
 21
3.7500160181
 31
0.0
 11
5.9769107204
 21
3.7509147437
 31
0.0
 11
5.9791799158
 21
3.7535404046
 31
0.0
 11
5.982839083
 21
3.757708353
 31
0.0
 11
5.9877173247
 21
3.7631378201
 31
0.0
  0
SPLINE
  5
418
100
AcDbEntity
  8
0
100
AcDbSpline
 62
7
  6
CONTINUOUS
 70
0
 71
3
 72
14
 73
10
 74
8
 42
0.0000001
 43
0.0000001
 44
0.0000000001
 12
-0.1046826132
 22
0.2029792199
 32
0.0
 13
0.1046826132
 23
0.2029792199
 33
0.0
 40
0.0
 40
0.0
 40
0.0
 40
0.0
 40
0.1530438599
 40
0.2956043717
 40
0.4324922324
 40
0.5675957362
 40
0.7044780411
 40
0.8469906498
 40
1.0
 40
1.0
 40
1.0
 40
1.0
 10
4.3347809905
 20
3.6164907101
 30
0.0
 10
4.3294406468
 20
3.6268456179
 30
0.0
 10
4.3200356534
 20
3.6473453462
 30
0.0
 10
4.3099940353
 20
3.6788008705
 30
0.0
 10
4.3048503252
 20
3.7100685393
 30
0.0
 10
4.3048520183
 20
3.7413375635
 30
0.0
 10
4.3099980988
 20
3.7726006685
 30
0.0
 10
4.3200392812
 20
3.8040491835
 30
0.0
 10
4.329441851
 20
3.8245430822
 30
0.0
 10
4.3347809905
 20
3.8348956551
 30
0.0
 11
4.3347809905
 21
3.6164907101
 31
0.0
 11
4.3203833918
 21
3.648340351
 31
0.0
 11
4.3106485196
 21
3.6794094022
 31
0.0
 11
4.3056832858
 21
3.710275516
 31
0.0
 11
4.3056849166
 21
3.7411309241
 31
0.0
 11
4.3106529055
 21
3.7719953094
 31
0.0
 11
4.3203862279
 21
3.8030533815
 31
0.0
 11
4.3347809905
 21
3.8348956551
 31
0.0
  0
SPLINE
  5
419
100
AcDbEntity
  8
0
100
AcDbSpline
 62
7
  6
CONTINUOUS
 70
0
 71
3
 72
15
 73
11
 74
9
 42
0.0000001
 43
0.0000001
 44
0.0000000001
 12
0.1643031241
 22
0.1839340856
 32
0.0
 13
-0.1643031241
 23
0.1839340856
 33
0.0
 40
0.0
 40
0.0
 40
0.0
 40
0.0
 40
0.1498215377
 40
0.2783315905
 40
0.3927788038
 40
0.5000592815
 40
0.6073304266
 40
0.7217569014
 40
0.8502022558
 40
1.0
 40
1.0
 40
1.0
 40
1.0
 10
4.7082173247
 20
3.6164907101
 30
0.0
 10
4.7164227069
 20
3.6256764726
 30
0.0
 10
4.7308544864
 20
3.6435194312
 30
0.0
 10
4.7474522151
 20
3.6713778453
 30
0.0
 10
4.7574373221
 20
3.6986049193
 30
0.0
 10
4.7607983452
 20
3.725707275
 30
0.0
 10
4.7574305715
 20
3.7528069388
 30
0.0
 10
4.7474434542
 20
3.7800247154
 30
0.0
 10
4.7308487247
 20
3.8078741758
 30
0.0
 10
4.7164214038
 20
3.8257113514
 30
0.0
 10
4.7082173247
 20
3.8348956551
 30
0.0
 11
4.7082173247
 21
3.6164907101
 31
0.0
 11
4.7311857984
 21
3.6454356231
 31
0.0
 11
4.7471119833
 21
3.6728383381
 31
0.0
 11
4.7565609807
 21
3.6994361195
 31
0.0
 11
4.7597012897
 21
3.7257078834
 31
0.0
 11
4.7565547015
 21
3.7519765779
 31
0.0
 11
4.7471026693
 21
3.7785678527
 31
0.0
 11
4.7311824618
 21
3.8059555857
 31
0.0
 11
4.7082173247
 21
3.8348956551
 31
0.0
  0
SPLINE
  5
41A
100
AcDbEntity
  8
0
100
AcDbSpline
 62
7
  6
CONTINUOUS
 70
0
 71
3
 72
14
 73
10
 74
8
 42
0.0000001
 43
0.0000001
 44
0.0000000001
 12
-0.1103507163
 22
0.4279393037
 32
0.0
 13
0.1103507163
 23
0.4279393037
 33
0.0
 40
0.0
 40
0.0
 40
0.0
 40
0.0
 40
0.1477720816
 40
0.2900907235
 40
0.430227046
 40
0.569863817
 40
0.7099928421
 40
0.8522618536
 40
1.0
 40
1.0
 40
1.0
 40
1.0
 10
4.3347809905
 20
3.8861882376
 30
0.0
 10
4.3293454055
 20
3.9072673982
 30
0.0
 10
4.3198300534
 20
3.9489614371
 30
0.0
 10
4.30990297
 20
4.0116100761
 30
0.0
 10
4.3048484272
 20
4.073649511
 30
0.0
 10
4.3048500859
 20
4.135575972
 30
0.0
 10
4.3099070038
 20
4.1976067784
 30
0.0
 10
4.3198337792
 20
4.2602418538
 30
0.0
 10
4.3293466538
 20
4.3019238078
 30
0.0
 10
4.3347809905
 20
4.3229981276
 30
0.0
 11
4.3347809905
 21
3.8861882376
 31
0.0
 11
4.3203833918
 21
3.9498875194
 31
0.0
 11
4.3106485196
 21
4.0120256218
 31
0.0
 11
4.3056832858
 21
4.0737578495
 31
0.0
 11
4.3056849166
 21
4.1354686657
 31
0.0
 11
4.3106529055
 21
4.1971974363
 31
0.0
 11
4.3203862279
 21
4.2593135803
 31
0.0
 11
4.3347809905
 21
4.3229981276
 31
0.0
  0
SPLINE
  5
41B
100
AcDbEntity
  8
0
100
AcDbSpline
 62
7
  6
CONTINUOUS
 70
0
 71
3
 72
15
 73
11
 74
9
 42
0.0000001
 43
0.0000001
 44
0.0000000001
 12
0.1843202379
 22
0.4126856942
 32
0.0
 13
-0.1843202379
 23
0.4126856942
 33
0.0
 40
0.0
 40
0.0
 40
0.0
 40
0.0
 40
0.1377942686
 40
0.2640673782
 40
0.3836049145
 40
0.5000649493
 40
0.6165122554
 40
0.736022619
 40
0.8622283762
 40
1.0
 40
1.0
 40
1.0
 40
1.0
 10
4.7082173247
 20
3.8861882376
 30
0.0
 10
4.7166834155
 20
3.9051434787
 30
0.0
 10
4.7315149582
 20
3.9421244176
 30
0.0
 10
4.7478520734
 20
3.9976606987
 30
0.0
 10
4.7575452429
 20
4.051491438
 30
0.0
 10
4.7607668994
 20
4.1046207409
 30
0.0
 10
4.7575387093
 20
4.1577454915
 30
0.0
 10
4.7478431877
 20
4.2115592741
 30
0.0
 10
4.7315087383
 20
4.2670777693
 30
0.0
 10
4.7166820242
 20
4.3040460015
 30
0.0
 10
4.7082173247
 20
4.3229981276
 30
0.0
 11
4.7082173247
 21
3.8861882376
 31
0.0
 11
4.7311857984
 21
3.9440780636
 31
0.0
 11
4.7471119833
 21
3.9988834937
 31
0.0
 11
4.7565609807
 21
4.0520790563
 31
0.0
 11
4.7597012897
 21
4.1046225843
 31
0.0
 11
4.7565547015
 21
4.1571599732
 31
0.0
 11
4.7471026693
 21
4.2103425229
 31
0.0
 11
4.7311824618
 21
4.2651179889
 31
0.0
 11
4.7082173247
 21
4.3229981276
 31
0.0
  0
SPLINE
  5
41C
100
AcDbEntity
  8
0
100
AcDbSpline
 62
7
  6
CONTINUOUS
 70
0
 71
3
 72
14
 73
10
 74
8
 42
0.0000001
 43
0.0000001
 44
0.0000000001
 12
-0.1046826132
 22
0.2029792199
 32
0.0
 13
0.1046826132
 23
0.2029792199
 33
0.0
 40
0.0
 40
0.0
 40
0.0
 40
0.0
 40
0.1530438599
 40
0.2956043717
 40
0.4324922324
 40
0.5675957362
 40
0.7044780411
 40
0.8469906498
 40
1.0
 40
1.0
 40
1.0
 40
1.0
 10
4.3347809905
 20
4.3742907101
 30
0.0
 10
4.3294406468
 20
4.3846456179
 30
0.0
 10
4.3200356534
 20
4.4051453462
 30
0.0
 10
4.3099940353
 20
4.4366008705
 30
0.0
 10
4.3048503252
 20
4.4678685393
 30
0.0
 10
4.3048520183
 20
4.4991375635
 30
0.0
 10
4.3099980988
 20
4.5304006685
 30
0.0
 10
4.3200392812
 20
4.5618491835
 30
0.0
 10
4.329441851
 20
4.5823430822
 30
0.0
 10
4.3347809905
 20
4.5926956551
 30
0.0
 11
4.3347809905
 21
4.3742907101
 31
0.0
 11
4.3203833918
 21
4.406140351
 31
0.0
 11
4.3106485196
 21
4.4372094022
 31
0.0
 11
4.3056832858
 21
4.468075516
 31
0.0
 11
4.3056849166
 21
4.4989309241
 31
0.0
 11
4.3106529055
 21
4.5297953094
 31
0.0
 11
4.3203862279
 21
4.5608533815
 31
0.0
 11
4.3347809905
 21
4.5926956551
 31
0.0
  0
SPLINE
  5
41D
100
AcDbEntity
  8
0
100
AcDbSpline
 62
7
  6
CONTINUOUS
 70
0
 71
3
 72
15
 73
11
 74
9
 42
0.0000001
 43
0.0000001
 44
0.0000000001
 12
0.1643031241
 22
0.1839340856
 32
0.0
 13
-0.1643031241
 23
0.1839340856
 33
0.0
 40
0.0
 40
0.0
 40
0.0
 40
0.0
 40
0.1498215377
 40
0.2783315905
 40
0.3927788038
 40
0.5000592815
 40
0.6073304266
 40
0.7217569014
 40
0.8502022558
 40
1.0
 40
1.0
 40
1.0
 40
1.0
 10
4.7082173247
 20
4.3742907101
 30
0.0
 10
4.7164227069
 20
4.3834764726
 30
0.0
 10
4.7308544864
 20
4.4013194312
 30
0.0
 10
4.7474522151
 20
4.4291778453
 30
0.0
 10
4.7574373221
 20
4.4564049193
 30
0.0
 10
4.7607983452
 20
4.483507275
 30
0.0
 10
4.7574305715
 20
4.5106069388
 30
0.0
 10
4.7474434542
 20
4.5378247154
 30
0.0
 10
4.7308487247
 20
4.5656741758
 30
0.0
 10
4.7164214038
 20
4.5835113514
 30
0.0
 10
4.7082173247
 20
4.5926956551
 30
0.0
 11
4.7082173247
 21
4.3742907101
 31
0.0
 11
4.7311857984
 21
4.4032356231
 31
0.0
 11
4.7471119833
 21
4.4306383381
 31
0.0
 11
4.7565609807
 21
4.4572361195
 31
0.0
 11
4.7597012897
 21
4.4835078834
 31
0.0
 11
4.7565547015
 21
4.5097765779
 31
0.0
 11
4.7471026693
 21
4.5363678527
 31
0.0
 11
4.7311824618
 21
4.5637555857
 31
0.0
 11
4.7082173247
 21
4.5926956551
 31
0.0
  0
SPLINE
  5
41E
100
AcDbEntity
  8
126-301_HEX_FEATURES
100
AcDbSpline
 62
7
  6
CONTINUOUS
 70
0
 71
3
 72
14
 73
10
 74
8
 42
0.0000001
 43
0.0000001
 44
0.0000000001
 12
0.0760803551
 22
-0.0000229981
 32
0.0
 13
0.0
 23
-0.0759857812
 33
0.0
 40
0.0
 40
0.0
 40
0.0
 40
0.0
 40
0.1350336866
 40
0.3084172532
 40
0.4691756281
 40
0.6180194639
 40
0.7552097023
 40
0.8813603094
 40
1.0
 40
1.0
 40
1.0
 40
1.0
 10
6.0175221585
 20
4.1435932703
 30
0.0
 10
6.0209466288
 20
4.1435922351
 30
0.0
 10
6.0287680749
 20
4.143074888
 30
0.0
 10
6.0404380751
 20
4.1405544198
 30
0.0
 10
6.0518462434
 20
4.1359683297
 30
0.0
 10
6.061454275
 20
4.1298504477
 30
0.0
 10
6.068906844
 20
4.1223920879
 30
0.0
 10
6.0737323433
 20
4.1138432536
 30
0.0
 10
6.0748716536
 20
4.1075981591
 30
0.0
 10
6.0748716536
 20
4.1045931826
 30
0.0
 11
6.0175221585
 21
4.1435932703
 31
0.0
 11
6.0277667592
 21
4.1429207811
 31
0.0
 11
6.0406393486
 21
4.1401156452
 31
0.0
 11
6.0519510692
 21
4.1355048134
 31
0.0
 11
6.0614396917
 21
4.1293499384
 31
0.0
 11
6.0687170885
 21
4.1218860352
 31
0.0
 11
6.0733085328
 21
4.1134715613
 31
0.0
 11
6.0748716536
 21
4.1045931826
 31
0.0
  0
SPLINE
  5
41F
100
AcDbEntity
  8
126-301_HEX_FEATURES
100
AcDbSpline
 62
7
  6
CONTINUOUS
 70
0
 71
3
 72
14
 73
10
 74
8
 42
0.0000001
 43
0.0000001
 44
0.0000000001
 12
0.0
 22
-0.0759872683
 32
0.0
 13
-0.0760814639
 23
-0.0000216864
 33
0.0
 40
0.0
 40
0.0
 40
0.0
 40
0.0
 40
0.1141212264
 40
0.24186779
 40
0.3813735384
 40
0.5331948138
 40
0.695605932
 40
0.8690092899
 40
1.0
 40
1.0
 40
1.0
 40
1.0
 10
6.0748716536
 20
4.1045931826
 30
0.0
 10
6.0748716536
 20
4.1017025958
 30
0.0
 10
6.0737923198
 20
4.0955348845
 30
0.0
 10
6.069046508
 20
4.0869492273
 30
0.0
 10
6.0614870218
 20
4.0793427531
 30
0.0
 10
6.0517183125
 20
4.0731417561
 30
0.0
 10
6.0401831184
 20
4.0685519267
 30
0.0
 10
6.0285623662
 20
4.0660894761
 30
0.0
 10
6.0208427723
 20
4.0655940158
 30
0.0
 10
6.017520784
 20
4.0655930689
 30
0.0
 11
6.0748716536
 21
4.1045931826
 31
0.0
 11
6.0734233494
 21
4.0960432211
 31
0.0
 11
6.0688512192
 21
4.0874802978
 31
0.0
 11
6.0614759741
 21
4.0798658531
 31
0.0
 11
6.0517903619
 21
4.0735985268
 31
0.0
 11
6.0403458334
 21
4.0689803645
 31
0.0
 11
6.0274604738
 21
4.0662260449
 31
0.0
 11
6.017520784
 21
4.0655930689
 31
0.0
  0
ENDSEC
  0
SECTION
  2
OBJECTS
  0
DICTIONARY
  5
C
100
AcDbDictionary
280
0
281
1
  3
ACAD_GROUP
350
D
  3
ACAD_MLINESTYLE
350
17
  3
ACAD_LAYOUT
350
1A
  3
ACAD_PLOTSETTINGS
350
19
  3
ACAD_PLOTSTYLENAME
350
E
  0
DICTIONARY
  5
D
102
{ACAD_REACTORS
330
C
102
}
100
AcDbDictionary
280
0
281
1
  0
ACDBDICTIONARYWDFLT
  5
E
102
{ACAD_REACTORS
330
C
102
}
100
AcDbDictionary
281
1
  3
Normal
350
F
100
AcDbDictionaryWithDefault
340
F
  0
DICTIONARY
  5
17
102
{ACAD_REACTORS
330
C
102
}
100
AcDbDictionary
280
0
281
1
  3
Standard
350
18
  0
DICTIONARY
  5
19
102
{ACAD_REACTORS
330
C
102
}
100
AcDbDictionary
281
1
  0
DICTIONARY
  5
1A
102
{ACAD_REACTORS
330
C
102
}
100
AcDbDictionary
281
1
  3
Layout1
350
1E
  3
Model
350
22
  0
ACDBPLACEHOLDER
  5
F
102
{ACAD_REACTORS
330
E
102
}
  0
MLINESTYLE
  5
18
102
{ACAD_REACTORS
330
17
102
}
100
AcDbMlineStyle
  2
STANDARD
 70
0
  3

 62
256
 51
90.0
 52
90.0
 71
2
 49
0.5
 62
256
  6
BYLAYER
 49
-0.5
 62
256
  6
BYLAYER
  0
LAYOUT
  5
1E
102
{ACAD_REACTORS
330
1A
102
}
100
AcDbPlotSettings
  1

  2

  4

  6

 40
0.0
 41
0.0
 42
0.0
 43
0.0
 44
0.0
 45
0.0
 46
0.0
 47
0.0
 48
0.0
 49
0.0
140
0.0
141
0.0
142
1.0
143
1.0
 70
0
 72
0
 73
0
 74
0
  7

 75
0
147
1.0
148
0.0
149
0.0
100
AcDbLayout
  1
Layout1
 70
0
 71
0
 10
0.0
 20
0.0
 11
0.0
 21
0.0
 12
0.0
 22
0.0
 32
0.0
 14
0.0
 24
0.0
 34
0.0
 15
0.0
 25
0.0
 35
0.0
146
0.0
 13
0.0
 23
0.0
 33
0.0
 16
0.0
 26
0.0
 36
0.0
 17
0.0
 27
0.0
 37
0.0
 76
0
330
1B
331
0
345
0
346
0
  0
LAYOUT
  5
22
102
{ACAD_REACTORS
330
1A
102
}
100
AcDbPlotSettings
  1

  2

  4

  6

 40
0.0
 41
0.0
 42
0.0
 43
0.0
 44
0.0
 45
0.0
 46
0.0
 47
0.0
 48
0.0
 49
0.0
140
0.0
141
0.0
142
1.0
143
1.0
 70
0
 72
0
 73
0
 74
0
  7

 75
0
147
1.0
148
0.0
149
0.0
100
AcDbLayout
  1
Model
 70
0
 71
0
 10
0.0
 20
0.0
 11
0.0
 21
0.0
 12
0.0
 22
0.0
 32
0.0
 14
0.0
 24
0.0
 34
0.0
 15
0.0
 25
0.0
 35
0.0
146
0.0
 13
0.0
 23
0.0
 33
0.0
 16
0.0
 26
0.0
 36
0.0
 17
0.0
 27
0.0
 37
0.0
 76
0
330
1F
331
0
345
0
346
0
  0
ENDSEC
  0
EOF
