999
DXF file: COFA-XAN.dxf
999
Pro/ENGINEER 2006240 by Parametric Technology Corporation
  0
SECTION
  2
HEADER
  9
$ACADVER
  1
AC1015
  9
$DWGCODEPAGE
  3
ANSI_1252
  9
$EXTMAX
 10
11.6929133858
 20
8.2677165354
 30
0.0
  9
$EXTMIN
 10
0.0
 20
0.0
 30
0.0
  9
$LIMMIN
 10
0.0
 20
0.0
  9
$LIMMAX
 10
11.6929133858
 20
8.2677165354
  9
$VIEWCTR
 10
5.8464566929
 20
4.1338582677
  9
$VIEWSIZE
 40
8.2677165354
  9
$CLAYER
  8
0
  9
$LTSCALE
 40
0.6431102362
  9
$CELTYPE
  6
BYLAYER
  9
$DIMSCALE
 40
1.0
  9
$DIMASZ
 40
0.1875
  9
$DIMEXO
 40
0.0730807087
  9
$DIMDLI
 40
0.4443307087
  9
$DIMEXE
 40
0.2104724409
  9
$DIMCEN
 40
0.1052362205
  9
$DIMLFAC
 40
1.0
  9
$DIMBLK
  1
_CLOSED
  9
$DIMTXT
 40
0.15625
  9
$DIMTOL
 70
0
  9
$DIMLIM
 70
0
  9
$DIMTFAC
 40
1.0
  9
$PDMODE
 70
3
  9
$PDSIZE
 40
0.3125
  9
$HANDSEED
  5
474
  9
$MEASUREMENT
 70
0
  9
$INSUNITS
 70
1
  0
ENDSEC
  0
SECTION
  2
CLASSES
  0
CLASS
  1
ACDBDICTIONARYWDFLT
  2
AcDbDictionaryWithDefault
  3
AutoCAD 2000
 90
0
280
0
281
0
  0
CLASS
  1
ACDBPLACEHOLDER
  2
AcDbPlaceHolder
  3
AutoCAD 2000
 90
0
280
0
281
0
  0
CLASS
  1
LAYOUT
  2
AcDbLayout
  3
AutoCAD 2000
 90
0
280
0
281
0
  0
ENDSEC
  0
SECTION
  2
TABLES
  0
TABLE
  2
VPORT
  5
8
100
AcDbSymbolTable
 70
2
  0
VPORT
  5
1F4
100
AcDbSymbolTableRecord
100
AcDbViewportTableRecord
  2
*ACTIVE
 70
0
 10
0.0
 20
0.0
 11
1.0
 21
1.0
 12
5.8464566929
 22
4.1338582677
 13
0.0
 23
0.0
 14
1.0
 24
1.0
 15
0.0
 25
0.0
 16
0.0
 26
0.0
 36
1.0
 17
0.0
 27
0.0
 37
0.0
 40
8.2677165354
 41
1.4142857143
 42
50.0
 43
0.0
 44
0.0
 50
0.0
 51
0.0
 71
0
 72
100
 73
1
 74
1
 75
0
 76
0
 77
0
 78
0
  0
ENDTAB
  0
TABLE
  2
LTYPE
  5
5
100
AcDbSymbolTable
 70
6
  0
LTYPE
  5
14
100
AcDbSymbolTableRecord
100
AcDbLinetypeTableRecord
  2
BYBLOCK
 70
0
  3

 72
65
 73
0
 40
0.0
  0
LTYPE
  5
15
100
AcDbSymbolTableRecord
100
AcDbLinetypeTableRecord
  2
BYLAYER
 70
0
  3

 72
65
 73
0
 40
0.0
  0
LTYPE
  5
16
100
AcDbSymbolTableRecord
100
AcDbLinetypeTableRecord
  2
CONTINUOUS
 70
64
  3
Solid line
 72
65
 73
0
 40
0.0
  0
LTYPE
  5
1F5
100
AcDbSymbolTableRecord
100
AcDbLinetypeTableRecord
  2
CENTER
 70
64
  3
____ _ ____ _ ____ _ ____ _ ____ _ ____ _ ____
 72
65
 73
4
 40
0.6
 49
0.375
 74
0
 49
-0.075
 74
0
 49
0.075
 74
0
 49
-0.075
 74
0
  0
LTYPE
  5
1F6
100
AcDbSymbolTableRecord
100
AcDbLinetypeTableRecord
  2
HIDDEN
 70
64
  3
- - - - - - - - - - - - - - - - - - - -
 72
65
 73
2
 40
0.2
 49
0.1
 74
0
 49
-0.1
 74
0
  0
LTYPE
  5
1F7
100
AcDbSymbolTableRecord
100
AcDbLinetypeTableRecord
  2
PHANTOM
 70
64
  3
_____ _ _ _____ _ _ _____ _ _ _____
 72
65
 73
6
 40
0.8
 49
0.45
 74
0
 49
-0.05
 74
0
 49
0.1
 74
0
 49
-0.05
 74
0
 49
0.1
 74
0
 49
-0.05
 74
0
  0
LTYPE
  5
1F8
100
AcDbSymbolTableRecord
100
AcDbLinetypeTableRecord
  2
DOT
 70
64
  3
. . . . . . . . . . . . . . . . . . . .
 72
65
 73
2
 40
0.2
 49
0.1
 74
0
 49
-0.1
 74
0
  0
LTYPE
  5
1F9
100
AcDbSymbolTableRecord
100
AcDbLinetypeTableRecord
  2
DASHED
 70
64
  3
- - - - - - - - - - - - - - - - - - - -
 72
65
 73
2
 40
0.2
 49
0.1
 74
0
 49
-0.1
 74
0
  0
ENDTAB
  0
TABLE
  2
LAYER
  5
2
100
AcDbSymbolTable
 70
36
  0
LAYER
  5
10
100
AcDbSymbolTableRecord
100
AcDbLayerTableRecord
  2
0
 70
0
 62
7
  6
CONTINUOUS
370
-3
390
F
  0
LAYER
  5
1FA
100
AcDbSymbolTableRecord
100
AcDbLayerTableRecord
  2
DEFAULT_1
 70
0
 62
7
  6
CENTER
370
-3
390
F
  0
LAYER
  5
1FB
100
AcDbSymbolTableRecord
100
AcDbLayerTableRecord
  2
DEFAULT_2
 70
0
 62
8
  6
HIDDEN
370
-3
390
F
  0
LAYER
  5
1FC
100
AcDbSymbolTableRecord
100
AcDbLayerTableRecord
  2
DEFAULT_3
 70
0
 62
7
  6
PHANTOM
370
-3
390
F
  0
LAYER
  5
1FD
100
AcDbSymbolTableRecord
100
AcDbLayerTableRecord
  2
_BLACK_HOLE
 70
0
 62
7
  6
CONTINUOUS
370
-3
390
F
  0
LAYER
  5
1FE
100
AcDbSymbolTableRecord
100
AcDbLayerTableRecord
  2
01_ALL_DTM_PLN
 70
0
 62
7
  6
CONTINUOUS
370
-3
390
F
  0
LAYER
  5
1FF
100
AcDbSymbolTableRecord
100
AcDbLayerTableRecord
  2
01__ASM_ALL_DTM_PLN
 70
0
 62
7
  6
CONTINUOUS
370
-3
390
F
  0
LAYER
  5
200
100
AcDbSymbolTableRecord
100
AcDbLayerTableRecord
  2
01__ASM_DEF_DTM_PLN
 70
0
 62
7
  6
CONTINUOUS
370
-3
390
F
  0
LAYER
  5
201
100
AcDbSymbolTableRecord
100
AcDbLayerTableRecord
  2
01___PRT_ALL_DTM_PLN
 70
0
 62
7
  6
CONTINUOUS
370
-3
390
F
  0
LAYER
  5
202
100
AcDbSymbolTableRecord
100
AcDbLayerTableRecord
  2
01___PRT_DEF_DTM_PLN
 70
0
 62
7
  6
CONTINUOUS
370
-3
390
F
  0
LAYER
  5
203
100
AcDbSymbolTableRecord
100
AcDbLayerTableRecord
  2
02_ALL_AXES
 70
0
 62
7
  6
CONTINUOUS
370
-3
390
F
  0
LAYER
  5
204
100
AcDbSymbolTableRecord
100
AcDbLayerTableRecord
  2
02__ASM_ALL_AXES
 70
0
 62
7
  6
CONTINUOUS
370
-3
390
F
  0
LAYER
  5
205
100
AcDbSymbolTableRecord
100
AcDbLayerTableRecord
  2
02___PRT_ALL_AXES
 70
0
 62
7
  6
CONTINUOUS
370
-3
390
F
  0
LAYER
  5
206
100
AcDbSymbolTableRecord
100
AcDbLayerTableRecord
  2
03_ALL_CURVES
 70
0
 62
7
  6
CONTINUOUS
370
-3
390
F
  0
LAYER
  5
207
100
AcDbSymbolTableRecord
100
AcDbLayerTableRecord
  2
03__ASM_ALL_CURVES
 70
0
 62
7
  6
CONTINUOUS
370
-3
390
F
  0
LAYER
  5
208
100
AcDbSymbolTableRecord
100
AcDbLayerTableRecord
  2
03___PRT_ALL_CURVES
 70
0
 62
7
  6
CONTINUOUS
370
-3
390
F
  0
LAYER
  5
209
100
AcDbSymbolTableRecord
100
AcDbLayerTableRecord
  2
04_ALL_DTM_PNT
 70
0
 62
7
  6
CONTINUOUS
370
-3
390
F
  0
LAYER
  5
20A
100
AcDbSymbolTableRecord
100
AcDbLayerTableRecord
  2
04__ASM_ALL_DTM_PNT
 70
0
 62
7
  6
CONTINUOUS
370
-3
390
F
  0
LAYER
  5
20B
100
AcDbSymbolTableRecord
100
AcDbLayerTableRecord
  2
04___PRT_ALL_DTM_PNT
 70
0
 62
7
  6
CONTINUOUS
370
-3
390
F
  0
LAYER
  5
20C
100
AcDbSymbolTableRecord
100
AcDbLayerTableRecord
  2
05_ALL_DTM_CSYS
 70
0
 62
7
  6
CONTINUOUS
370
-3
390
F
  0
LAYER
  5
20D
100
AcDbSymbolTableRecord
100
AcDbLayerTableRecord
  2
05__ASM_ALL_DTM_CSYS
 70
0
 62
7
  6
CONTINUOUS
370
-3
390
F
  0
LAYER
  5
20E
100
AcDbSymbolTableRecord
100
AcDbLayerTableRecord
  2
05__ASM_DEF_DTM_CSYS
 70
0
 62
7
  6
CONTINUOUS
370
-3
390
F
  0
LAYER
  5
20F
100
AcDbSymbolTableRecord
100
AcDbLayerTableRecord
  2
05___PRT_ALL_DTM_CSYS
 70
0
 62
7
  6
CONTINUOUS
370
-3
390
F
  0
LAYER
  5
210
100
AcDbSymbolTableRecord
100
AcDbLayerTableRecord
  2
05___PRT_DEF_DTM_CSYS
 70
0
 62
7
  6
CONTINUOUS
370
-3
390
F
  0
LAYER
  5
211
100
AcDbSymbolTableRecord
100
AcDbLayerTableRecord
  2
06_ALL_SURFS
 70
0
 62
7
  6
CONTINUOUS
370
-3
390
F
  0
LAYER
  5
212
100
AcDbSymbolTableRecord
100
AcDbLayerTableRecord
  2
06__ASM_ALL_SURFS
 70
0
 62
7
  6
CONTINUOUS
370
-3
390
F
  0
LAYER
  5
213
100
AcDbSymbolTableRecord
100
AcDbLayerTableRecord
  2
06___PRT_ALL_SURFS
 70
0
 62
7
  6
CONTINUOUS
370
-3
390
F
  0
LAYER
  5
214
100
AcDbSymbolTableRecord
100
AcDbLayerTableRecord
  2
07__ASM_ALL_SKELETONS
 70
0
 62
7
  6
CONTINUOUS
370
-3
390
F
  0
LAYER
  5
215
100
AcDbSymbolTableRecord
100
AcDbLayerTableRecord
  2
125-021_FEATURES
 70
0
 62
7
  6
CONTINUOUS
370
-3
390
F
  0
LAYER
  5
216
100
AcDbSymbolTableRecord
100
AcDbLayerTableRecord
  2
125-021_REF_GEOMETRY
 70
0
 62
7
  6
CONTINUOUS
370
-3
390
F
  0
LAYER
  5
217
100
AcDbSymbolTableRecord
100
AcDbLayerTableRecord
  2
125-089_FEATURES
 70
0
 62
7
  6
CONTINUOUS
370
-3
390
F
  0
LAYER
  5
218
100
AcDbSymbolTableRecord
100
AcDbLayerTableRecord
  2
125-089_REF_GEOMETRY
 70
0
 62
7
  6
CONTINUOUS
370
-3
390
F
  0
LAYER
  5
219
100
AcDbSymbolTableRecord
100
AcDbLayerTableRecord
  2
125-094_FEATURES
 70
0
 62
7
  6
CONTINUOUS
370
-3
390
F
  0
LAYER
  5
21A
100
AcDbSymbolTableRecord
100
AcDbLayerTableRecord
  2
125-094_REF_GEOMETRY
 70
0
 62
7
  6
CONTINUOUS
370
-3
390
F
  0
LAYER
  5
21B
100
AcDbSymbolTableRecord
100
AcDbLayerTableRecord
  2
127-310_FEATURES
 70
0
 62
7
  6
CONTINUOUS
370
-3
390
F
  0
LAYER
  5
21C
100
AcDbSymbolTableRecord
100
AcDbLayerTableRecord
  2
127-310_REF_GEOMETRY
 70
0
 62
7
  6
CONTINUOUS
370
-3
390
F
  0
LAYER
  5
21D
100
AcDbSymbolTableRecord
100
AcDbLayerTableRecord
  2
127-311_FEATURES
 70
0
 62
7
  6
CONTINUOUS
370
-3
390
F
  0
LAYER
  5
21E
100
AcDbSymbolTableRecord
100
AcDbLayerTableRecord
  2
127-311_REF_GEOMETRY
 70
0
 62
7
  6
CONTINUOUS
370
-3
390
F
  0
LAYER
  5
21F
100
AcDbSymbolTableRecord
100
AcDbLayerTableRecord
  2
127-312_FEATURES
 70
0
 62
7
  6
CONTINUOUS
370
-3
390
F
  0
LAYER
  5
220
100
AcDbSymbolTableRecord
100
AcDbLayerTableRecord
  2
127-312_REF_GEOMETRY
 70
0
 62
7
  6
CONTINUOUS
370
-3
390
F
  0
LAYER
  5
221
100
AcDbSymbolTableRecord
100
AcDbLayerTableRecord
  2
COPY_GEO_FET
 70
0
 62
7
  6
CONTINUOUS
370
-3
390
F
  0
LAYER
  5
222
100
AcDbSymbolTableRecord
100
AcDbLayerTableRecord
  2
COSMETIC
 70
0
 62
7
  6
CONTINUOUS
370
-3
390
F
  0
LAYER
  5
223
100
AcDbSymbolTableRecord
100
AcDbLayerTableRecord
  2
CURVES
 70
0
 62
7
  6
CONTINUOUS
370
-3
390
F
  0
LAYER
  5
224
100
AcDbSymbolTableRecord
100
AcDbLayerTableRecord
  2
CUT_REF_SURF
 70
0
 62
7
  6
CONTINUOUS
370
-3
390
F
  0
LAYER
  5
225
100
AcDbSymbolTableRecord
100
AcDbLayerTableRecord
  2
DATUM
 70
0
 62
7
  6
CONTINUOUS
370
-3
390
F
  0
LAYER
  5
226
100
AcDbSymbolTableRecord
100
AcDbLayerTableRecord
  2
DATUMCURVES
 70
0
 62
7
  6
CONTINUOUS
370
-3
390
F
  0
LAYER
  5
227
100
AcDbSymbolTableRecord
100
AcDbLayerTableRecord
  2
DIMENSIONS
 70
0
 62
7
  6
CONTINUOUS
370
-3
390
F
  0
LAYER
  5
228
100
AcDbSymbolTableRecord
100
AcDbLayerTableRecord
  2
DRAWINGNOTES
 70
0
 62
7
  6
CONTINUOUS
370
-3
390
F
  0
LAYER
  5
229
100
AcDbSymbolTableRecord
100
AcDbLayerTableRecord
  2
DTM
 70
0
 62
7
  6
CONTINUOUS
370
-3
390
F
  0
LAYER
  5
22A
100
AcDbSymbolTableRecord
100
AcDbLayerTableRecord
  2
DTM230
 70
0
 62
7
  6
CONTINUOUS
370
-3
390
F
  0
LAYER
  5
22B
100
AcDbSymbolTableRecord
100
AcDbLayerTableRecord
  2
DTM_500001
 70
0
 62
7
  6
CONTINUOUS
370
-3
390
F
  0
LAYER
  5
22C
100
AcDbSymbolTableRecord
100
AcDbLayerTableRecord
  2
DTM_500002
 70
0
 62
7
  6
CONTINUOUS
370
-3
390
F
  0
LAYER
  5
22D
100
AcDbSymbolTableRecord
100
AcDbLayerTableRecord
  2
DTM_515002
 70
0
 62
7
  6
CONTINUOUS
370
-3
390
F
  0
LAYER
  5
22E
100
AcDbSymbolTableRecord
100
AcDbLayerTableRecord
  2
DTM_530-102
 70
0
 62
7
  6
CONTINUOUS
370
-3
390
F
  0
LAYER
  5
22F
100
AcDbSymbolTableRecord
100
AcDbLayerTableRecord
  2
DTM_SPRING_RH
 70
0
 62
7
  6
CONTINUOUS
370
-3
390
F
  0
LAYER
  5
230
100
AcDbSymbolTableRecord
100
AcDbLayerTableRecord
  2
DTM_SP_RH_CONSTR
 70
0
 62
7
  6
CONTINUOUS
370
-3
390
F
  0
LAYER
  5
231
100
AcDbSymbolTableRecord
100
AcDbLayerTableRecord
  2
GEOMETRICTOLERANCES
 70
0
 62
7
  6
CONTINUOUS
370
-3
390
F
  0
LAYER
  5
232
100
AcDbSymbolTableRecord
100
AcDbLayerTableRecord
  2
PARAMETERDIMENSIONS
 70
0
 62
7
  6
CONTINUOUS
370
-3
390
F
  0
LAYER
  5
233
100
AcDbSymbolTableRecord
100
AcDbLayerTableRecord
  2
PART
 70
0
 62
7
  6
CONTINUOUS
370
-3
390
F
  0
LAYER
  5
234
100
AcDbSymbolTableRecord
100
AcDbLayerTableRecord
  2
PLANE
 70
0
 62
7
  6
CONTINUOUS
370
-3
390
F
  0
LAYER
  5
235
100
AcDbSymbolTableRecord
100
AcDbLayerTableRecord
  2
S-151_METRIC_ORING_BOSS_PORT
 70
0
 62
7
  6
CONTINUOUS
370
-3
390
F
  0
LAYER
  5
236
100
AcDbSymbolTableRecord
100
AcDbLayerTableRecord
  2
S-164_NPTF_PORT
 70
0
 62
7
  6
CONTINUOUS
370
-3
390
F
  0
LAYER
  5
237
100
AcDbSymbolTableRecord
100
AcDbLayerTableRecord
  2
S-186_BSPP_PORT
 70
0
 62
7
  6
CONTINUOUS
370
-3
390
F
  0
LAYER
  5
238
100
AcDbSymbolTableRecord
100
AcDbLayerTableRecord
  2
SUN_STD_SAE-4_PORT
 70
0
 62
7
  6
CONTINUOUS
370
-3
390
F
  0
LAYER
  5
239
100
AcDbSymbolTableRecord
100
AcDbLayerTableRecord
  2
T-8A_CAVITY
 70
0
 62
7
  6
CONTINUOUS
370
-3
390
F
  0
LAYER
  5
23A
100
AcDbSymbolTableRecord
100
AcDbLayerTableRecord
  2
T-8A_CAVITY-INCOMPLETE
 70
0
 62
7
  6
CONTINUOUS
370
-3
390
F
  0
LAYER
  5
23B
100
AcDbSymbolTableRecord
100
AcDbLayerTableRecord
  2
T-8A_CAVITY-INCOMPLETE_REF_GEOM
 70
0
 62
7
  6
CONTINUOUS
370
-3
390
F
  0
LAYER
  5
23C
100
AcDbSymbolTableRecord
100
AcDbLayerTableRecord
  2
T-8A_CAVITY_REF_GEOMETRY
 70
0
 62
7
  6
CONTINUOUS
370
-3
390
F
  0
LAYER
  5
23D
100
AcDbSymbolTableRecord
100
AcDbLayerTableRecord
  2
TEXT
 70
0
 62
7
  6
CONTINUOUS
370
-3
390
F
  0
LAYER
  5
23E
100
AcDbSymbolTableRecord
100
AcDbLayerTableRecord
  2
THREAD
 70
0
 62
7
  6
CONTINUOUS
370
-3
390
F
  0
LAYER
  5
23F
100
AcDbSymbolTableRecord
100
AcDbLayerTableRecord
  2
XSEC_DATUMS
 70
0
 62
7
  6
CONTINUOUS
370
-3
390
F
  0
ENDTAB
  0
TABLE
  2
STYLE
  5
3
100
AcDbSymbolTable
 70
1
  0
STYLE
  5
11
100
AcDbSymbolTableRecord
100
AcDbTextStyleTableRecord
  2
STANDARD
 70
0
 40
0.0
 41
0.8
 50
0.0
 71
0
 42
0.2
  3
txt
  4

  0
ENDTAB
  0
TABLE
  2
VIEW
  5
6
100
AcDbSymbolTable
 70
0
  0
ENDTAB
  0
TABLE
  2
UCS
  5
7
100
AcDbSymbolTable
 70
0
  0
ENDTAB
  0
TABLE
  2
APPID
  5
9
100
AcDbSymbolTable
 70
1
  0
APPID
  5
240
100
AcDbSymbolTableRecord
100
AcDbRegAppTableRecord
  2
ACAD
 70
0
  0
ENDTAB
  0
TABLE
  2
BLOCK_RECORD
  5
1
100
AcDbSymbolTable
 70
0
  0
BLOCK_RECORD
  5
1F
100
AcDbSymbolTableRecord
100
AcDbBlockTableRecord
  2
*MODEL_SPACE
  0
BLOCK_RECORD
  5
1B
100
AcDbSymbolTableRecord
100
AcDbBlockTableRecord
  2
*PAPER_SPACE
  0
ENDTAB
  0
TABLE
  2
DIMSTYLE
  5
A
100
AcDbSymbolTable
 70
1
100
AcDbDimStyleTable
 71
0
  0
DIMSTYLE
105
241
100
AcDbSymbolTableRecord
100
AcDbDimStyleTableRecord
  2
STANDARD
 70
0
  3

  4

 40
1.0
 41
0.1875
 42
0.0625
 43
0.38
 44
0.18
 45
0.0
 46
0.0
 47
0.01
 48
0.01
140
0.15625
141
0.09
142
0.0
143
25.4
144
1.0
145
0.0
146
1.0
147
0.09
 71
0.0
 72
0.0
 73
1
 74
1
 75
0
 76
0
 77
0
 78
4
170
0
171
2
172
0
173
0
174
0
175
0
176
0
177
0
178
0
270
2
271
2
272
2
273
2
274
2
275
0
280
0
281
0
282
0
283
1
284
4
285
0
286
0
287
3
288
0
340
11
  0
ENDTAB
  0
ENDSEC
  0
SECTION
  2
BLOCKS
  0
BLOCK
  5
20
100
AcDbEntity
  8
0
100
AcDbBlockBegin
  2
*MODEL_SPACE
 70
0
 10
0.0
 20
0.0
 30
0.0
  3
*MODEL_SPACE
  1

  0
ENDBLK
  5
21
100
AcDbEntity
  8
0
100
AcDbBlockEnd
  0
BLOCK
  5
1C
100
AcDbEntity
  8
0
100
AcDbBlockBegin
  2
*PAPER_SPACE
 70
0
 10
0.0
 20
0.0
 30
0.0
  3
*PAPER_SPACE
  1

  0
ENDBLK
  5
1D
100
AcDbEntity
  8
0
100
AcDbBlockEnd
  0
ENDSEC
  0
SECTION
  2
ENTITIES
  0
LINE
  5
242
100
AcDbEntity
  8
0
100
AcDbLine
 62
7
  6
CONTINUOUS
 10
4.1276841213
 20
3.7115429326
 11
4.1276841213
 21
4.8215429326
  0
LINE
  5
243
100
AcDbEntity
  8
03__ASM_ALL_CURVES
100
AcDbLine
 62
40
  6
CONTINUOUS
 10
4.1276841213
 20
4.8215429326
 11
4.1276841213
 21
5.1196669326
  0
LINE
  5
244
100
AcDbEntity
  8
0
100
AcDbLine
 62
7
  6
CONTINUOUS
 10
4.1730286237
 20
4.9000819147
 11
4.1276841213
 21
4.8215429326
  0
LINE
  5
245
100
AcDbEntity
  8
0
100
AcDbLine
 62
7
  6
CONTINUOUS
 10
4.1730286237
 20
3.6330039505
 11
4.1276841213
 21
3.7115429326
  0
LINE
  5
246
100
AcDbEntity
  8
0
100
AcDbLine
 62
7
  6
CONTINUOUS
 10
4.1732947925
 20
3.6325429326
 11
4.1732947925
 21
3.6331576231
  0
LINE
  5
247
100
AcDbEntity
  8
0
100
AcDbLine
 62
7
  6
CONTINUOUS
 10
4.1732947925
 20
3.9256782421
 11
4.1732947925
 21
3.9740223137
  0
LINE
  5
248
100
AcDbEntity
  8
0
100
AcDbLine
 62
7
  6
CONTINUOUS
 10
4.1732947925
 20
4.5590635515
 11
4.1732947925
 21
4.6074076231
  0
LINE
  5
249
100
AcDbEntity
  8
0
100
AcDbLine
 62
7
  6
CONTINUOUS
 10
4.1732947925
 20
4.8999282421
 11
4.1732947925
 21
4.9005429326
  0
LINE
  5
24A
100
AcDbEntity
  8
03__ASM_ALL_CURVES
100
AcDbLine
 62
40
  6
CONTINUOUS
 10
4.2101841213
 20
5.1059169326
 11
4.2101841213
 21
5.0784169326
  0
LINE
  5
24B
100
AcDbEntity
  8
03__ASM_ALL_CURVES
100
AcDbLine
 62
40
  6
CONTINUOUS
 10
4.6261216213
 20
5.1712294326
 11
4.6218247463
 21
5.1655002673
  0
LINE
  5
24C
100
AcDbEntity
  8
03__ASM_ALL_CURVES
100
AcDbLine
 62
40
  6
CONTINUOUS
 10
4.6304184963
 20
5.1368544326
 11
4.6218247463
 21
5.1253960994
  0
LINE
  5
24D
100
AcDbEntity
  8
03__ASM_ALL_CURVES
100
AcDbLine
 62
40
  6
CONTINUOUS
 10
4.7507309963
 20
5.1884169326
 11
4.7421372463
 21
5.1769585979
  0
LINE
  5
24E
100
AcDbEntity
  8
03__ASM_ALL_CURVES
100
AcDbLine
 62
40
  6
CONTINUOUS
 10
4.5960434963
 20
5.1826877673
 11
4.6046372463
 21
5.1884169326
  0
LINE
  5
24F
100
AcDbEntity
  8
03__ASM_ALL_CURVES
100
AcDbLine
 62
40
  6
CONTINUOUS
 10
4.6218247463
 20
5.1655002673
 11
4.6132309963
 21
5.1597710979
  0
LINE
  5
250
100
AcDbEntity
  8
03__ASM_ALL_CURVES
100
AcDbLine
 62
40
  6
CONTINUOUS
 10
4.4714341213
 20
5.1884169326
 11
4.4714341213
 21
5.1196669326
  0
LINE
  5
251
100
AcDbEntity
  8
03__ASM_ALL_CURVES
100
AcDbLine
 62
40
  6
CONTINUOUS
 10
4.5358872463
 20
5.1196669326
 11
4.5358872463
 21
5.1253960994
  0
LINE
  5
252
100
AcDbEntity
  8
03__ASM_ALL_CURVES
100
AcDbLine
 62
40
  6
CONTINUOUS
 10
4.6819809963
 20
5.1483127652
 11
4.6862778713
 21
5.1655002673
  0
LINE
  5
253
100
AcDbEntity
  8
03__ASM_ALL_CURVES
100
AcDbLine
 62
40
  6
CONTINUOUS
 10
4.6862778713
 20
5.1655002673
 11
4.6948716213
 21
5.1884169326
  0
LINE
  5
254
100
AcDbEntity
  8
03__ASM_ALL_CURVES
100
AcDbLine
 62
40
  6
CONTINUOUS
 10
4.8323716213
 20
5.1712294326
 11
4.8280747463
 21
5.1655002673
  0
LINE
  5
255
100
AcDbEntity
  8
03__ASM_ALL_CURVES
100
AcDbLine
 62
40
  6
CONTINUOUS
 10
4.8366684963
 20
5.1368544326
 11
4.8280747463
 21
5.1253960994
  0
LINE
  5
256
100
AcDbEntity
  8
03__ASM_ALL_CURVES
100
AcDbLine
 62
40
  6
CONTINUOUS
 10
4.6218247463
 20
5.1253960994
 11
4.6132309963
 21
5.1196669326
  0
LINE
  5
257
100
AcDbEntity
  8
03__ASM_ALL_CURVES
100
AcDbLine
 62
40
  6
CONTINUOUS
 10
4.8022934963
 20
5.1826877673
 11
4.8108872463
 21
5.1884169326
  0
LINE
  5
258
100
AcDbEntity
  8
03__ASM_ALL_CURVES
100
AcDbLine
 62
40
  6
CONTINUOUS
 10
4.8280747463
 20
5.1655002673
 11
4.8194809963
 21
5.1597710979
  0
LINE
  5
259
100
AcDbEntity
  8
03__ASM_ALL_CURVES
100
AcDbLine
 62
40
  6
CONTINUOUS
 10
4.6261216213
 20
5.1769585979
 11
4.6261216213
 21
5.1712294326
  0
LINE
  5
25A
100
AcDbEntity
  8
03__ASM_ALL_CURVES
100
AcDbLine
 62
40
  6
CONTINUOUS
 10
4.6304184963
 20
5.1425835999
 11
4.6304184963
 21
5.1368544326
  0
LINE
  5
25B
100
AcDbEntity
  8
0
100
AcDbLine
 62
7
  6
CONTINUOUS
 10
4.6352584954
 20
3.6325429326
 11
4.6352584954
 21
3.6331576231
  0
LINE
  5
25C
100
AcDbEntity
  8
0
100
AcDbLine
 62
7
  6
CONTINUOUS
 10
4.6352584954
 20
3.9256782421
 11
4.6352584954
 21
3.9740223137
  0
LINE
  5
25D
100
AcDbEntity
  8
0
100
AcDbLine
 62
7
  6
CONTINUOUS
 10
4.6352584954
 20
4.5590635515
 11
4.6352584954
 21
4.6074076231
  0
LINE
  5
25E
100
AcDbEntity
  8
0
100
AcDbLine
 62
7
  6
CONTINUOUS
 10
4.6352584954
 20
4.8999282421
 11
4.6352584954
 21
4.9005429326
  0
LINE
  5
25F
100
AcDbEntity
  8
03__ASM_ALL_CURVES
100
AcDbLine
 62
40
  6
CONTINUOUS
 10
4.6776841213
 20
5.1196669326
 11
4.6819809963
 21
5.1483127652
  0
LINE
  5
260
100
AcDbEntity
  8
03__ASM_ALL_CURVES
100
AcDbLine
 62
40
  6
CONTINUOUS
 10
4.7421372463
 20
5.1769585979
 11
4.7378403713
 21
5.1597710979
  0
LINE
  5
261
100
AcDbEntity
  8
03__ASM_ALL_CURVES
100
AcDbLine
 62
40
  6
CONTINUOUS
 10
4.8968247463
 20
5.1884169326
 11
4.8667466213
 21
5.1368544326
  0
LINE
  5
262
100
AcDbEntity
  8
03__ASM_ALL_CURVES
100
AcDbLine
 62
40
  6
CONTINUOUS
 10
4.8280747463
 20
5.1253960994
 11
4.8194809963
 21
5.1196669326
  0
LINE
  5
263
100
AcDbEntity
  8
03__ASM_ALL_CURVES
100
AcDbLine
 62
40
  6
CONTINUOUS
 10
5.0815903713
 20
5.1826877673
 11
5.0901841213
 21
5.1884169326
  0
LINE
  5
264
100
AcDbEntity
  8
0
100
AcDbLine
 62
7
  6
CONTINUOUS
 10
4.6906841213
 20
3.7285429326
 11
4.6906841213
 21
4.8045429326
  0
LINE
  5
265
100
AcDbEntity
  8
03__ASM_ALL_CURVES
100
AcDbLine
 62
40
  6
CONTINUOUS
 10
4.7378403713
 20
5.1597710979
 11
4.7378403713
 21
5.1483127652
  0
LINE
  5
266
100
AcDbEntity
  8
03__ASM_ALL_CURVES
100
AcDbLine
 62
40
  6
CONTINUOUS
 10
5.0300278713
 20
5.1655002673
 11
5.0386216213
 21
5.1884169326
  0
LINE
  5
267
100
AcDbEntity
  8
03__ASM_ALL_CURVES
100
AcDbLine
 62
40
  6
CONTINUOUS
 10
5.0772934963
 20
5.1769585979
 11
5.0815903713
 21
5.1826877673
  0
LINE
  5
268
100
AcDbEntity
  8
03__ASM_ALL_CURVES
100
AcDbLine
 62
40
  6
CONTINUOUS
 10
5.1030747463
 20
5.1311252663
 11
5.0987778713
 21
5.1253960994
  0
LINE
  5
269
100
AcDbEntity
  8
03__ASM_ALL_CURVES
100
AcDbLine
 62
40
  6
CONTINUOUS
 10
5.1632309963
 20
5.1311252663
 11
5.1546372463
 21
5.1196669326
  0
LINE
  5
26A
100
AcDbEntity
  8
03__ASM_ALL_CURVES
100
AcDbLine
 62
40
  6
CONTINUOUS
 10
5.0987778713
 20
5.1253960994
 11
5.0901841213
 21
5.1196669326
  0
LINE
  5
26B
100
AcDbEntity
  8
03__ASM_ALL_CURVES
100
AcDbLine
 62
40
  6
CONTINUOUS
 10
5.1030747463
 20
5.1540419326
 11
5.0901841213
 21
5.1483127652
  0
LINE
  5
26C
100
AcDbEntity
  8
03__ASM_ALL_CURVES
100
AcDbLine
 62
40
  6
CONTINUOUS
 10
5.1311704498
 20
3.4374804326
 11
5.1376157623
 21
3.4331835586
  0
LINE
  5
26D
100
AcDbEntity
  8
03__ASM_ALL_CURVES
100
AcDbLine
 62
40
  6
CONTINUOUS
 10
5.2794126373
 20
3.3859179326
 11
5.2729673248
 21
3.3902148077
  0
LINE
  5
26E
100
AcDbEntity
  8
03__ASM_ALL_CURVES
100
AcDbLine
 62
40
  6
CONTINUOUS
 10
5.1762876373
 20
3.4649804326
 11
5.1698423248
 21
3.4692773077
  0
LINE
  5
26F
100
AcDbEntity
  8
03__ASM_ALL_CURVES
100
AcDbLine
 62
40
  6
CONTINUOUS
 10
5.1311704498
 20
3.5165429326
 11
5.1376157623
 21
3.5122460586
  0
LINE
  5
270
100
AcDbEntity
  8
03__ASM_ALL_CURVES
100
AcDbLine
 62
40
  6
CONTINUOUS
 10
5.1376157623
 20
3.4331835586
 11
5.1408384185
 21
3.4288866816
  0
LINE
  5
271
100
AcDbEntity
  8
03__ASM_ALL_CURVES
100
AcDbLine
 62
40
  6
CONTINUOUS
 10
4.8323716213
 20
5.1769585979
 11
4.8323716213
 21
5.1712294326
  0
LINE
  5
272
100
AcDbEntity
  8
03__ASM_ALL_CURVES
100
AcDbLine
 62
40
  6
CONTINUOUS
 10
4.8366684963
 20
5.1425835999
 11
4.8366684963
 21
5.1368544326
  0
LINE
  5
273
100
AcDbEntity
  8
0
100
AcDbLine
 62
7
  6
CONTINUOUS
 10
4.8776841213
 20
3.7285429326
 11
4.8776841213
 21
4.8045429326
  0
LINE
  5
274
100
AcDbEntity
  8
03__ASM_ALL_CURVES
100
AcDbLine
 62
40
  6
CONTINUOUS
 10
4.8968247463
 20
5.1196669326
 11
4.8968247463
 21
5.1884169326
  0
LINE
  5
275
100
AcDbEntity
  8
0
100
AcDbLine
 62
7
  6
CONTINUOUS
 10
4.9276841213
 20
3.7300429326
 11
4.9276841213
 21
4.8030429326
  0
LINE
  5
276
100
AcDbEntity
  8
03__ASM_ALL_CURVES
100
AcDbLine
 62
40
  6
CONTINUOUS
 10
5.0214341213
 20
5.1196669326
 11
5.0257309963
 21
5.1483127652
  0
LINE
  5
277
100
AcDbEntity
  8
03__ASM_ALL_CURVES
100
AcDbLine
 62
40
  6
CONTINUOUS
 10
5.0257309963
 20
5.1483127652
 11
5.0300278713
 21
5.1655002673
  0
LINE
  5
278
100
AcDbEntity
  8
03__ASM_ALL_CURVES
100
AcDbLine
 62
40
  6
CONTINUOUS
 10
5.0729966213
 20
5.1655002673
 11
5.0772934963
 21
5.1769585979
  0
LINE
  5
279
100
AcDbEntity
  8
03__ASM_ALL_CURVES
100
AcDbLine
 62
40
  6
CONTINUOUS
 10
5.1073716213
 20
5.1655002673
 11
5.1030747463
 21
5.1540419326
  0
LINE
  5
27A
100
AcDbEntity
  8
03__ASM_ALL_CURVES
100
AcDbLine
 62
40
  6
CONTINUOUS
 10
5.1073716213
 20
5.1425835999
 11
5.1030747463
 21
5.1311252663
  0
LINE
  5
27B
100
AcDbEntity
  8
03__ASM_ALL_CURVES
100
AcDbLine
 62
40
  6
CONTINUOUS
 10
6.3945298304
 20
3.3859179326
 11
6.3687485804
 21
3.3859179326
  0
LINE
  5
27C
100
AcDbEntity
  8
03__ASM_ALL_CURVES
100
AcDbLine
 62
40
  6
CONTINUOUS
 10
6.2301743617
 20
3.3859179326
 11
6.2237290492
 21
3.3859179326
  0
LINE
  5
27D
100
AcDbEntity
  8
03__ASM_ALL_CURVES
100
AcDbLine
 62
40
  6
CONTINUOUS
 10
6.1786118617
 20
3.3859179326
 11
6.1721665492
 21
3.3859179326
  0
LINE
  5
27E
100
AcDbEntity
  8
03__ASM_ALL_CURVES
100
AcDbLine
 62
40
  6
CONTINUOUS
 10
5.2858579498
 20
3.3859179326
 11
5.2794126373
 21
3.3859179326
  0
LINE
  5
27F
100
AcDbEntity
  8
03__ASM_ALL_CURVES
100
AcDbLine
 62
40
  6
CONTINUOUS
 10
5.2181821685
 20
3.3859179326
 11
5.2439634185
 21
3.3859179326
  0
LINE
  5
280
100
AcDbEntity
  8
03__ASM_ALL_CURVES
100
AcDbLine
 62
40
  6
CONTINUOUS
 10
6.3171860804
 20
3.3859179326
 11
6.3429673304
 21
3.3859179326
  0
LINE
  5
281
100
AcDbEntity
  8
03__ASM_ALL_CURVES
100
AcDbLine
 62
40
  6
CONTINUOUS
 10
5.1311704498
 20
3.4116991826
 11
5.1150571685
 21
3.4116991826
  0
LINE
  5
282
100
AcDbEntity
  8
03__ASM_ALL_CURVES
100
AcDbLine
 62
40
  6
CONTINUOUS
 10
6.3687485804
 20
3.4116991826
 11
6.3848618617
 21
3.4116991826
  0
LINE
  5
283
100
AcDbEntity
  8
03__ASM_ALL_CURVES
100
AcDbLine
 62
40
  6
CONTINUOUS
 10
5.2858579498
 20
3.4374804326
 11
5.2923032623
 21
3.4331835586
  0
LINE
  5
284
100
AcDbEntity
  8
03__ASM_ALL_CURVES
100
AcDbLine
 62
40
  6
CONTINUOUS
 10
5.1827329498
 20
3.5165429326
 11
5.1891782623
 21
3.5122460586
  0
LINE
  5
285
100
AcDbEntity
  8
03__ASM_ALL_CURVES
100
AcDbLine
 62
40
  6
CONTINUOUS
 10
5.2342954498
 20
3.5165429326
 11
5.2407407623
 21
3.5122460586
  0
LINE
  5
286
100
AcDbEntity
  8
03__ASM_ALL_CURVES
100
AcDbLine
 62
40
  6
CONTINUOUS
 10
5.3309751373
 20
3.4649804326
 11
5.3245298248
 21
3.4692773077
  0
LINE
  5
287
100
AcDbEntity
  8
03__ASM_ALL_CURVES
100
AcDbLine
 62
40
  6
CONTINUOUS
 10
5.3374204498
 20
3.4950585566
 11
5.3438657623
 21
3.4907616826
  0
LINE
  5
288
100
AcDbEntity
  8
03__ASM_ALL_CURVES
100
AcDbLine
 62
40
  6
CONTINUOUS
 10
5.3374204498
 20
3.5165429326
 11
5.3438657623
 21
3.5122460586
  0
LINE
  5
289
100
AcDbEntity
  8
03__ASM_ALL_CURVES
100
AcDbLine
 62
40
  6
CONTINUOUS
 10
5.1698423248
 20
3.4692773077
 11
5.1633970123
 21
3.4778710576
  0
LINE
  5
28A
100
AcDbEntity
  8
03__ASM_ALL_CURVES
100
AcDbLine
 62
40
  6
CONTINUOUS
 10
5.1376157623
 20
3.5122460586
 11
5.1408384185
 21
3.5079491816
  0
LINE
  5
28B
100
AcDbEntity
  8
03__ASM_ALL_CURVES
100
AcDbLine
 62
40
  6
CONTINUOUS
 10
5.2729673248
 20
3.3902148077
 11
5.2665220123
 21
3.3988085576
  0
LINE
  5
28C
100
AcDbEntity
  8
03__ASM_ALL_CURVES
100
AcDbLine
 62
40
  6
CONTINUOUS
 10
5.1891782623
 20
3.5122460586
 11
5.1956235748
 21
3.5036523076
  0
LINE
  5
28D
100
AcDbEntity
  8
03__ASM_ALL_CURVES
100
AcDbLine
 62
40
  6
CONTINUOUS
 10
5.2923032623
 20
3.4331835586
 11
5.2987485748
 21
3.4245898076
  0
LINE
  5
28E
100
AcDbEntity
  8
03__ASM_ALL_CURVES
100
AcDbLine
 62
40
  6
CONTINUOUS
 10
5.2407407623
 20
3.5122460586
 11
5.2439634185
 21
3.5079491816
  0
LINE
  5
28F
100
AcDbEntity
  8
03__ASM_ALL_CURVES
100
AcDbLine
 62
40
  6
CONTINUOUS
 10
5.3245298248
 20
3.4692773077
 11
5.3213071685
 21
3.4735741829
  0
LINE
  5
290
100
AcDbEntity
  8
03__ASM_ALL_CURVES
100
AcDbLine
 62
40
  6
CONTINUOUS
 10
4.9483872463
 20
5.1196669326
 11
4.9483872463
 21
5.1253960994
  0
LINE
  5
291
100
AcDbEntity
  8
0
100
AcDbLine
 62
7
  6
CONTINUOUS
 10
4.9976841213
 20
4.7840429326
 11
4.9976841213
 21
3.7490429326
  0
LINE
  5
292
100
AcDbEntity
  8
0
100
AcDbLine
 62
7
  6
CONTINUOUS
 10
5.0186841213
 20
3.7287929326
 11
5.0186841213
 21
4.8042929326
  0
LINE
  5
293
100
AcDbEntity
  8
03__ASM_ALL_CURVES
100
AcDbLine
 62
40
  6
CONTINUOUS
 10
5.1675278713
 20
5.1483127652
 11
5.1632309963
 21
5.1311252663
  0
LINE
  5
294
100
AcDbEntity
  8
03__ASM_ALL_CURVES
100
AcDbLine
 62
40
  6
CONTINUOUS
 10
5.6857309959
 20
5.1826877673
 11
5.6943247459
 21
5.1884169326
  0
LINE
  5
295
100
AcDbEntity
  8
03__ASM_ALL_CURVES
100
AcDbLine
 62
40
  6
CONTINUOUS
 10
5.7544809959
 20
5.1826877673
 11
5.7630747459
 21
5.1884169326
  0
LINE
  5
296
100
AcDbEntity
  8
03__ASM_ALL_CURVES
100
AcDbLine
 62
40
  6
CONTINUOUS
 10
5.7115122459
 20
5.1253960994
 11
5.7029184959
 21
5.1196669326
  0
LINE
  5
297
100
AcDbEntity
  8
03__ASM_ALL_CURVES
100
AcDbLine
 62
40
  6
CONTINUOUS
 10
5.1150571685
 20
3.4374804326
 11
5.1311704498
 21
3.4374804326
  0
LINE
  5
298
100
AcDbEntity
  8
03__ASM_ALL_CURVES
100
AcDbLine
 62
40
  6
CONTINUOUS
 10
5.2794126373
 20
3.4374804326
 11
5.2858579498
 21
3.4374804326
  0
LINE
  5
299
100
AcDbEntity
  8
03__ASM_ALL_CURVES
100
AcDbLine
 62
40
  6
CONTINUOUS
 10
5.3180845123
 20
3.4374804326
 11
5.3503110748
 21
3.4374804326
  0
LINE
  5
29A
100
AcDbEntity
  8
03__ASM_ALL_CURVES
100
AcDbLine
 62
40
  6
CONTINUOUS
 10
6.1721665492
 20
3.4374804326
 11
6.1786118617
 21
3.4374804326
  0
LINE
  5
29B
100
AcDbEntity
  8
03__ASM_ALL_CURVES
100
AcDbLine
 62
40
  6
CONTINUOUS
 10
6.2624009242
 20
3.4374804326
 11
6.2946274867
 21
3.4374804326
  0
LINE
  5
29C
100
AcDbEntity
  8
03__ASM_ALL_CURVES
100
AcDbLine
 62
40
  6
CONTINUOUS
 10
6.3687485804
 20
3.4374804326
 11
6.3945298304
 21
3.4374804326
  0
LINE
  5
29D
100
AcDbEntity
  8
03__ASM_ALL_CURVES
100
AcDbLine
 62
40
  6
CONTINUOUS
 10
6.4170884242
 20
3.4374804326
 11
6.4493149867
 21
3.4374804326
  0
LINE
  5
29E
100
AcDbEntity
  8
03__ASM_ALL_CURVES
100
AcDbLine
 62
40
  6
CONTINUOUS
 10
6.2543442896
 20
3.4649804326
 11
6.2478989771
 21
3.4649804326
  0
LINE
  5
29F
100
AcDbEntity
  8
03__ASM_ALL_CURVES
100
AcDbLine
 62
40
  6
CONTINUOUS
 10
5.3374204498
 20
3.4649804326
 11
5.3309751373
 21
3.4649804326
  0
LINE
  5
2A0
100
AcDbEntity
  8
03__ASM_ALL_CURVES
100
AcDbLine
 62
40
  6
CONTINUOUS
 10
5.1827329498
 20
3.4649804326
 11
5.1762876373
 21
3.4649804326
  0
LINE
  5
2A1
100
AcDbEntity
  8
03__ASM_ALL_CURVES
100
AcDbLine
 62
40
  6
CONTINUOUS
 10
6.3929185084
 20
3.4649804326
 11
6.4186997584
 21
3.4649804326
  0
LINE
  5
2A2
100
AcDbEntity
  8
03__ASM_ALL_CURVES
100
AcDbLine
 62
40
  6
CONTINUOUS
 10
6.3059067896
 20
3.4907616826
 11
6.2897935084
 21
3.4907616826
  0
LINE
  5
2A3
100
AcDbEntity
  8
03__ASM_ALL_CURVES
100
AcDbLine
 62
40
  6
CONTINUOUS
 10
6.2027817896
 20
3.4907616826
 11
6.1866685084
 21
3.4907616826
  0
LINE
  5
2A4
100
AcDbEntity
  8
03__ASM_ALL_CURVES
100
AcDbLine
 62
40
  6
CONTINUOUS
 10
5.2342954498
 20
3.4907616826
 11
5.2181821685
 21
3.4907616826
  0
LINE
  5
2A5
100
AcDbEntity
  8
03__ASM_ALL_CURVES
100
AcDbLine
 62
40
  6
CONTINUOUS
 10
5.1311704498
 20
3.4907616826
 11
5.1150571685
 21
3.4907616826
  0
LINE
  5
2A6
100
AcDbEntity
  8
03__ASM_ALL_CURVES
100
AcDbLine
 62
40
  6
CONTINUOUS
 10
5.3309751373
 20
3.4950585566
 11
5.3374204498
 21
3.4950585566
  0
LINE
  5
2A7
100
AcDbEntity
  8
03__ASM_ALL_CURVES
100
AcDbLine
 62
40
  6
CONTINUOUS
 10
5.1150571685
 20
3.5165429326
 11
5.1311704498
 21
3.5165429326
  0
LINE
  5
2A8
100
AcDbEntity
  8
03__ASM_ALL_CURVES
100
AcDbLine
 62
40
  6
CONTINUOUS
 10
5.1762876373
 20
3.5165429326
 11
5.1827329498
 21
3.5165429326
  0
LINE
  5
2A9
100
AcDbEntity
  8
03__ASM_ALL_CURVES
100
AcDbLine
 62
40
  6
CONTINUOUS
 10
5.2181821685
 20
3.5165429326
 11
5.2342954498
 21
3.5165429326
  0
LINE
  5
2AA
100
AcDbEntity
  8
03__ASM_ALL_CURVES
100
AcDbLine
 62
40
  6
CONTINUOUS
 10
5.2665220123
 20
3.5165429326
 11
5.2987485748
 21
3.5165429326
  0
LINE
  5
2AB
100
AcDbEntity
  8
03__ASM_ALL_CURVES
100
AcDbLine
 62
40
  6
CONTINUOUS
 10
5.3309751373
 20
3.5165429326
 11
5.3374204498
 21
3.5165429326
  0
LINE
  5
2AC
100
AcDbEntity
  8
03__ASM_ALL_CURVES
100
AcDbLine
 62
40
  6
CONTINUOUS
 10
6.1866685084
 20
3.5165429326
 11
6.2027817896
 21
3.5165429326
  0
LINE
  5
2AD
100
AcDbEntity
  8
03__ASM_ALL_CURVES
100
AcDbLine
 62
40
  6
CONTINUOUS
 10
6.2478989771
 20
3.5165429326
 11
6.2543442896
 21
3.5165429326
  0
LINE
  5
2AE
100
AcDbEntity
  8
03__ASM_ALL_CURVES
100
AcDbLine
 62
40
  6
CONTINUOUS
 10
6.2897935084
 20
3.5165429326
 11
6.3059067896
 21
3.5165429326
  0
LINE
  5
2AF
100
AcDbEntity
  8
03__ASM_ALL_CURVES
100
AcDbLine
 62
40
  6
CONTINUOUS
 10
6.3381333521
 20
3.5165429326
 11
6.3703599146
 21
3.5165429326
  0
LINE
  5
2B0
100
AcDbEntity
  8
03__ASM_ALL_CURVES
100
AcDbLine
 62
40
  6
CONTINUOUS
 10
6.4025864771
 20
3.5165429326
 11
6.4090317896
 21
3.5165429326
  0
LINE
  5
2B1
100
AcDbEntity
  8
03__ASM_ALL_CURVES
100
AcDbLine
 62
40
  6
CONTINUOUS
 10
5.3438657623
 20
3.4907616826
 11
5.3503110748
 21
3.4821679331
  0
LINE
  5
2B2
100
AcDbEntity
  8
03__ASM_ALL_CURVES
100
AcDbLine
 62
40
  6
CONTINUOUS
 10
5.3438657623
 20
3.5122460586
 11
5.3470884185
 21
3.5079491816
  0
LINE
  5
2B3
100
AcDbEntity
  8
03__ASM_ALL_CURVES
100
AcDbLine
 62
40
  6
CONTINUOUS
 10
5.2342954498
 20
3.4907616826
 11
5.2439634185
 21
3.4649804326
  0
LINE
  5
2B4
100
AcDbEntity
  8
03__ASM_ALL_CURVES
100
AcDbLine
 62
40
  6
CONTINUOUS
 10
4.7378403713
 20
5.1483127652
 11
4.7421372463
 21
5.1311252663
  0
LINE
  5
2B5
100
AcDbEntity
  8
03__ASM_ALL_CURVES
100
AcDbLine
 62
40
  6
CONTINUOUS
 10
5.1633970123
 20
3.4778710576
 11
5.160174356
 21
3.4907616826
  0
LINE
  5
2B6
100
AcDbEntity
  8
03__ASM_ALL_CURVES
100
AcDbLine
 62
40
  6
CONTINUOUS
 10
5.1956235748
 20
3.5036523076
 11
5.198846231
 21
3.4907616826
  0
LINE
  5
2B7
100
AcDbEntity
  8
0
100
AcDbLine
 62
7
  6
CONTINUOUS
 10
5.0636841213
 20
3.7287929326
 11
5.0636841213
 21
4.8042929326
  0
LINE
  5
2B8
100
AcDbEntity
  8
0
100
AcDbLine
 62
7
  6
CONTINUOUS
 10
5.0850530694
 20
3.809592962
 11
5.0850530694
 21
4.7234929032
  0
LINE
  5
2B9
100
AcDbEntity
  8
03__ASM_ALL_CURVES
100
AcDbLine
 62
40
  6
CONTINUOUS
 10
5.1073716213
 20
5.1655002673
 11
5.1073716213
 21
5.1425835999
  0
LINE
  5
2BA
100
AcDbEntity
  8
03__ASM_ALL_CURVES
100
AcDbLine
 62
40
  6
CONTINUOUS
 10
5.1150571685
 20
3.3859179326
 11
5.1150571685
 21
3.4374804326
  0
LINE
  5
2BB
100
AcDbEntity
  8
03__ASM_ALL_CURVES
100
AcDbLine
 62
40
  6
CONTINUOUS
 10
5.1150571685
 20
3.4649804326
 11
5.1150571685
 21
3.5165429326
  0
LINE
  5
2BC
100
AcDbEntity
  8
03__ASM_ALL_CURVES
100
AcDbLine
 62
40
  6
CONTINUOUS
 10
5.1408384185
 20
3.5079491816
 11
5.1408384185
 21
3.4993554336
  0
LINE
  5
2BD
100
AcDbEntity
  8
03__ASM_ALL_CURVES
100
AcDbLine
 62
40
  6
CONTINUOUS
 10
5.1408384185
 20
3.4288866816
 11
5.1408384185
 21
3.4202929336
  0
LINE
  5
2BE
100
AcDbEntity
  8
03__ASM_ALL_CURVES
100
AcDbLine
 62
40
  6
CONTINUOUS
 10
5.1675278713
 20
5.1597710979
 11
5.1675278713
 21
5.1483127652
  0
LINE
  5
2BF
100
AcDbEntity
  8
03__ASM_ALL_CURVES
100
AcDbLine
 62
40
  6
CONTINUOUS
 10
5.1795102935
 20
3.4374804326
 11
5.1795102935
 21
3.3859179326
  0
LINE
  5
2C0
100
AcDbEntity
  8
0
100
AcDbLine
 62
7
  6
CONTINUOUS
 10
4.6906841213
 20
3.7285429326
 11
4.6355246642
 21
3.6330039505
  0
LINE
  5
2C1
100
AcDbEntity
  8
03__ASM_ALL_CURVES
100
AcDbLine
 62
40
  6
CONTINUOUS
 10
5.6771372459
 20
5.1712294326
 11
5.6857309959
 21
5.1826877673
  0
LINE
  5
2C2
100
AcDbEntity
  8
03__ASM_ALL_CURVES
100
AcDbLine
 62
40
  6
CONTINUOUS
 10
5.7802622459
 20
5.1253960994
 11
5.7716684959
 21
5.1196669326
  0
LINE
  5
2C3
100
AcDbEntity
  8
0
100
AcDbLine
 62
7
  6
CONTINUOUS
 10
4.6352584954
 20
3.6325429326
 11
4.1732947925
 21
3.6325429326
  0
LINE
  5
2C4
100
AcDbEntity
  8
0
100
AcDbLine
 62
7
  6
CONTINUOUS
 10
4.6352584954
 20
3.6331576231
 11
4.1732947925
 21
3.6331576231
  0
LINE
  5
2C5
100
AcDbEntity
  8
0
100
AcDbLine
 62
7
  6
CONTINUOUS
 10
4.6906841213
 20
4.8045429326
 11
4.6355246642
 21
4.9000819147
  0
LINE
  5
2C6
100
AcDbEntity
  8
03__ASM_ALL_CURVES
100
AcDbLine
 62
40
  6
CONTINUOUS
 10
5.2665220123
 20
3.3988085576
 11
5.263299356
 21
3.4116991826
  0
LINE
  5
2C7
100
AcDbEntity
  8
03__ASM_ALL_CURVES
100
AcDbLine
 62
40
  6
CONTINUOUS
 10
5.2987485748
 20
3.4245898076
 11
5.301971231
 21
3.4116991826
  0
LINE
  5
2C8
100
AcDbEntity
  8
03__ASM_ALL_CURVES
100
AcDbLine
 62
40
  6
CONTINUOUS
 10
5.2181821685
 20
3.4374804326
 11
5.2181821685
 21
3.3859179326
  0
LINE
  5
2C9
100
AcDbEntity
  8
03__ASM_ALL_CURVES
100
AcDbLine
 62
40
  6
CONTINUOUS
 10
5.2181821685
 20
3.4649804326
 11
5.2181821685
 21
3.5165429326
  0
LINE
  5
2CA
100
AcDbEntity
  8
03__ASM_ALL_CURVES
100
AcDbLine
 62
40
  6
CONTINUOUS
 10
5.2439634185
 20
3.5079491816
 11
5.2439634185
 21
3.4993554336
  0
LINE
  5
2CB
100
AcDbEntity
  8
03__ASM_ALL_CURVES
100
AcDbLine
 62
40
  6
CONTINUOUS
 10
5.2826352935
 20
3.5165429326
 11
5.2826352935
 21
3.4649804326
  0
LINE
  5
2CC
100
AcDbEntity
  8
0
100
AcDbLine
 62
7
  6
CONTINUOUS
 10
5.0737062818
 20
3.7661961451
 11
5.0636841213
 21
3.7287929326
  0
LINE
  5
2CD
100
AcDbEntity
  8
03__ASM_ALL_CURVES
100
AcDbLine
 62
40
  6
CONTINUOUS
 10
5.7201059959
 20
5.1368544326
 11
5.7115122459
 21
5.1253960994
  0
LINE
  5
2CE
100
AcDbEntity
  8
03__ASM_ALL_CURVES
100
AcDbLine
 62
40
  6
CONTINUOUS
 10
5.7458872459
 20
5.1712294326
 11
5.7544809959
 21
5.1826877673
  0
LINE
  5
2CF
100
AcDbEntity
  8
03__ASM_ALL_CURVES
100
AcDbLine
 62
40
  6
CONTINUOUS
 10
5.7845591209
 20
5.1311252663
 11
5.7802622459
 21
5.1253960994
  0
LINE
  5
2D0
100
AcDbEntity
  8
03__ASM_ALL_CURVES
100
AcDbLine
 62
40
  6
CONTINUOUS
 10
6.0982309959
 20
5.1826877673
 11
6.1068247459
 21
5.1884169326
  0
LINE
  5
2D1
100
AcDbEntity
  8
03__ASM_ALL_CURVES
100
AcDbLine
 62
40
  6
CONTINUOUS
 10
6.1240122459
 20
5.1253960994
 11
6.1154184959
 21
5.1196669326
  0
LINE
  5
2D2
100
AcDbEntity
  8
03__ASM_ALL_CURVES
100
AcDbLine
 62
40
  6
CONTINUOUS
 10
6.2443247459
 20
5.1884169326
 11
6.2357309959
 21
5.1826877673
  0
LINE
  5
2D3
100
AcDbEntity
  8
0
100
AcDbLine
 62
7
  6
CONTINUOUS
 10
5.5026841213
 20
3.7285429326
 11
5.4376841213
 21
3.7285429326
  0
LINE
  5
2D4
100
AcDbEntity
  8
0
100
AcDbLine
 62
7
  6
CONTINUOUS
 10
4.8776841213
 20
3.7285429326
 11
4.6906841213
 21
3.7285429326
  0
LINE
  5
2D5
100
AcDbEntity
  8
0
100
AcDbLine
 62
7
  6
CONTINUOUS
 10
5.0636841213
 20
3.7287929326
 11
5.0186841213
 21
3.7287929326
  0
LINE
  5
2D6
100
AcDbEntity
  8
0
100
AcDbLine
 62
7
  6
CONTINUOUS
 10
4.8776841213
 20
3.7300429326
 11
4.9276841213
 21
3.7300429326
  0
LINE
  5
2D7
100
AcDbEntity
  8
THREAD
100
AcDbLine
 62
7
  6
CONTINUOUS
 10
5.5496841213
 20
3.7520429326
 11
5.5182725785
 21
3.7520429326
  0
LINE
  5
2D8
100
AcDbEntity
  8
0
100
AcDbLine
 62
7
  6
CONTINUOUS
 10
5.6196841213
 20
3.7545429326
 11
5.6696841213
 21
3.7545429326
  0
LINE
  5
2D9
100
AcDbEntity
  8
THREAD
100
AcDbLine
 62
7
  6
CONTINUOUS
 10
5.9836841213
 20
3.7705429326
 11
5.7126234315
 21
3.7705429326
  0
LINE
  5
2DA
100
AcDbEntity
  8
0
100
AcDbLine
 62
7
  6
CONTINUOUS
 10
5.0186841213
 20
3.7840429326
 11
4.9976841213
 21
3.7840429326
  0
LINE
  5
2DB
100
AcDbEntity
  8
03__ASM_ALL_CURVES
100
AcDbLine
 62
40
  6
CONTINUOUS
 10
6.1721665492
 20
3.3859179326
 11
6.1657212367
 21
3.3902148077
  0
LINE
  5
2DC
100
AcDbEntity
  8
03__ASM_ALL_CURVES
100
AcDbLine
 62
40
  6
CONTINUOUS
 10
6.2237290492
 20
3.3859179326
 11
6.2172837367
 21
3.3902148077
  0
LINE
  5
2DD
100
AcDbEntity
  8
03__ASM_ALL_CURVES
100
AcDbLine
 62
40
  6
CONTINUOUS
 10
6.1786118617
 20
3.4374804326
 11
6.1850571742
 21
3.4331835586
  0
LINE
  5
2DE
100
AcDbEntity
  8
03__ASM_ALL_CURVES
100
AcDbLine
 62
40
  6
CONTINUOUS
 10
4.5358872463
 20
5.1253960994
 11
4.5401841213
 21
5.1196669326
  0
LINE
  5
2DF
100
AcDbEntity
  8
0
100
AcDbLine
 62
7
  6
CONTINUOUS
 10
5.0737062818
 20
4.7668897201
 11
5.0636841213
 21
4.8042929326
  0
LINE
  5
2E0
100
AcDbEntity
  8
0
100
AcDbLine
 62
7
  6
CONTINUOUS
 10
5.4376841213
 20
3.7285429326
 11
5.4162481859
 21
3.8085429326
  0
LINE
  5
2E1
100
AcDbEntity
  8
03__ASM_ALL_CURVES
100
AcDbLine
 62
40
  6
CONTINUOUS
 10
5.3341977935
 20
3.4374804326
 11
5.3341977935
 21
3.3859179326
  0
LINE
  5
2E2
100
AcDbEntity
  8
03__ASM_ALL_CURVES
100
AcDbLine
 62
40
  6
CONTINUOUS
 10
5.3470884185
 20
3.5079491816
 11
5.3470884185
 21
3.5036523076
  0
LINE
  5
2E3
100
AcDbEntity
  8
03__ASM_ALL_CURVES
100
AcDbLine
 62
40
  6
CONTINUOUS
 10
5.3503110748
 20
3.4821679331
 11
5.3503110748
 21
3.4778710576
  0
LINE
  5
2E4
100
AcDbEntity
  8
0
100
AcDbLine
 62
7
  6
CONTINUOUS
 10
5.4162481859
 20
3.8085429326
 11
5.4162481859
 21
4.7245429326
  0
LINE
  5
2E5
100
AcDbEntity
  8
03__ASM_ALL_CURVES
100
AcDbLine
 62
40
  6
CONTINUOUS
 10
5.4201841213
 20
5.1059169326
 11
5.4201841213
 21
5.0784169326
  0
LINE
  5
2E6
100
AcDbEntity
  8
0
100
AcDbLine
 62
7
  6
CONTINUOUS
 10
5.4376841213
 20
3.7285429326
 11
5.4376841213
 21
4.8045429326
  0
LINE
  5
2E7
100
AcDbEntity
  8
03__ASM_ALL_CURVES
100
AcDbLine
 62
40
  6
CONTINUOUS
 10
5.160174356
 20
3.4907616826
 11
5.1633970123
 21
3.5036523076
  0
LINE
  5
2E8
100
AcDbEntity
  8
03__ASM_ALL_CURVES
100
AcDbLine
 62
40
  6
CONTINUOUS
 10
5.198846231
 20
3.4907616826
 11
5.1956235748
 21
3.4778710576
  0
LINE
  5
2E9
100
AcDbEntity
  8
0
100
AcDbLine
 62
7
  6
CONTINUOUS
 10
5.4376841213
 20
4.8045429326
 11
5.4162481859
 21
4.7245429326
  0
LINE
  5
2EA
100
AcDbEntity
  8
03__ASM_ALL_CURVES
100
AcDbLine
 62
40
  6
CONTINUOUS
 10
6.2615122459
 20
5.1253960994
 11
6.2529184959
 21
5.1196669326
  0
LINE
  5
2EB
100
AcDbEntity
  8
03__ASM_ALL_CURVES
100
AcDbLine
 62
40
  6
CONTINUOUS
 10
6.3732309959
 20
5.1826877673
 11
6.3818247459
 21
5.1884169326
  0
LINE
  5
2EC
100
AcDbEntity
  8
03__ASM_ALL_CURVES
100
AcDbLine
 62
40
  6
CONTINUOUS
 10
6.3990122459
 20
5.1253960994
 11
6.3904184959
 21
5.1196669326
  0
LINE
  5
2ED
100
AcDbEntity
  8
THREAD
100
AcDbLine
 62
7
  6
CONTINUOUS
 10
5.6834672429
 20
3.8085429326
 11
5.6696841213
 21
3.8085429326
  0
LINE
  5
2EE
100
AcDbEntity
  8
0
100
AcDbLine
 62
7
  6
CONTINUOUS
 10
5.4162481859
 20
3.8085429326
 11
5.120848786
 21
3.8085429326
  0
LINE
  5
2EF
100
AcDbEntity
  8
THREAD
100
AcDbLine
 62
7
  6
CONTINUOUS
 10
6.1116841213
 20
3.8145429326
 11
6.0276841213
 21
3.8145429326
  0
LINE
  5
2F0
100
AcDbEntity
  8
0
100
AcDbLine
 62
7
  6
CONTINUOUS
 10
6.5646841213
 20
3.8300429326
 11
6.6216841213
 21
3.8300429326
  0
LINE
  5
2F1
100
AcDbEntity
  8
0
100
AcDbLine
 62
7
  6
CONTINUOUS
 10
6.8196841213
 20
3.8300429326
 11
6.8616841213
 21
3.8300429326
  0
LINE
  5
2F2
100
AcDbEntity
  8
0
100
AcDbLine
 62
7
  6
CONTINUOUS
 10
6.6216841213
 20
3.8305429326
 11
6.6716841213
 21
3.8305429326
  0
LINE
  5
2F3
100
AcDbEntity
  8
0
100
AcDbLine
 62
7
  6
CONTINUOUS
 10
6.7416841213
 20
3.8305429326
 11
6.7916841213
 21
3.8305429326
  0
LINE
  5
2F4
100
AcDbEntity
  8
0
100
AcDbLine
 62
7
  6
CONTINUOUS
 10
6.8196841213
 20
3.8845429326
 11
6.7916841213
 21
3.8845429326
  0
LINE
  5
2F5
100
AcDbEntity
  8
0
100
AcDbLine
 62
7
  6
CONTINUOUS
 10
6.5646841213
 20
3.8925429326
 11
6.1276841213
 21
3.8925429326
  0
LINE
  5
2F6
100
AcDbEntity
  8
03__ASM_ALL_CURVES
100
AcDbLine
 62
40
  6
CONTINUOUS
 10
6.2478989771
 20
3.4649804326
 11
6.2414536646
 21
3.4692773077
  0
LINE
  5
2F7
100
AcDbEntity
  8
03__ASM_ALL_CURVES
100
AcDbLine
 62
40
  6
CONTINUOUS
 10
6.2027817896
 20
3.5165429326
 11
6.2092271021
 21
3.5122460586
  0
LINE
  5
2F8
100
AcDbEntity
  8
03__ASM_ALL_CURVES
100
AcDbLine
 62
40
  6
CONTINUOUS
 10
6.2543442896
 20
3.5165429326
 11
6.2607896021
 21
3.5122460586
  0
LINE
  5
2F9
100
AcDbEntity
  8
03__ASM_ALL_CURVES
100
AcDbLine
 62
40
  6
CONTINUOUS
 10
4.5960434963
 20
5.1253960994
 11
4.5917466213
 21
5.1311252663
  0
LINE
  5
2FA
100
AcDbEntity
  8
03__ASM_ALL_CURVES
100
AcDbLine
 62
40
  6
CONTINUOUS
 10
4.6218247463
 20
5.1540419326
 11
4.6304184963
 21
5.1425835999
  0
LINE
  5
2FB
100
AcDbEntity
  8
03__ASM_ALL_CURVES
100
AcDbLine
 62
40
  6
CONTINUOUS
 10
4.6218247463
 20
5.1826877673
 11
4.6261216213
 21
5.1769585979
  0
LINE
  5
2FC
100
AcDbEntity
  8
03__ASM_ALL_CURVES
100
AcDbLine
 62
40
  6
CONTINUOUS
 10
5.0772934963
 20
5.1540419326
 11
5.0729966213
 21
5.1655002673
  0
LINE
  5
2FD
100
AcDbEntity
  8
03__ASM_ALL_CURVES
100
AcDbLine
 62
40
  6
CONTINUOUS
 10
5.1632309963
 20
5.1769585979
 11
5.1675278713
 21
5.1597710979
  0
LINE
  5
2FE
100
AcDbEntity
  8
0
100
AcDbLine
 62
7
  6
CONTINUOUS
 10
5.5026841213
 20
3.7285429326
 11
5.5026841213
 21
4.8045429326
  0
LINE
  5
2FF
100
AcDbEntity
  8
03__ASM_ALL_CURVES
100
AcDbLine
 62
40
  6
CONTINUOUS
 10
5.5026841213
 20
4.8182929326
 11
5.5026841213
 21
5.1196669326
  0
LINE
  5
300
100
AcDbEntity
  8
THREAD
100
AcDbLine
 62
7
  6
CONTINUOUS
 10
5.5182725785
 20
3.7520429326
 11
5.5182725785
 21
4.7810429326
  0
LINE
  5
301
100
AcDbEntity
  8
THREAD
100
AcDbLine
 62
7
  6
CONTINUOUS
 10
5.5496841213
 20
3.7520429326
 11
5.5496841213
 21
4.7810429326
  0
LINE
  5
302
100
AcDbEntity
  8
03__ASM_ALL_CURVES
100
AcDbLine
 62
40
  6
CONTINUOUS
 10
5.6728403709
 20
5.1540419326
 11
5.6771372459
 21
5.1712294326
  0
LINE
  5
303
100
AcDbEntity
  8
03__ASM_ALL_CURVES
100
AcDbLine
 62
40
  6
CONTINUOUS
 10
5.263299356
 20
3.4116991826
 11
5.2665220123
 21
3.4245898076
  0
LINE
  5
304
100
AcDbEntity
  8
03__ASM_ALL_CURVES
100
AcDbLine
 62
40
  6
CONTINUOUS
 10
5.7244028709
 20
5.1540419326
 11
5.7201059959
 21
5.1368544326
  0
LINE
  5
305
100
AcDbEntity
  8
03__ASM_ALL_CURVES
100
AcDbLine
 62
40
  6
CONTINUOUS
 10
5.301971231
 20
3.4116991826
 11
5.2987485748
 21
3.3988085576
  0
LINE
  5
306
100
AcDbEntity
  8
03__ASM_ALL_CURVES
100
AcDbLine
 62
40
  6
CONTINUOUS
 10
5.7415903709
 20
5.1540419326
 11
5.7458872459
 21
5.1712294326
  0
LINE
  5
307
100
AcDbEntity
  8
THREAD
100
AcDbLine
 62
7
  6
CONTINUOUS
 10
5.7126234315
 20
4.7625429326
 11
5.6942925604
 21
4.7307929326
  0
LINE
  5
308
100
AcDbEntity
  8
03__ASM_ALL_CURVES
100
AcDbLine
 62
40
  6
CONTINUOUS
 10
6.0896372459
 20
5.1712294326
 11
6.0982309959
 21
5.1826877673
  0
LINE
  5
309
100
AcDbEntity
  8
03__ASM_ALL_CURVES
100
AcDbLine
 62
40
  6
CONTINUOUS
 10
6.1283091209
 20
5.1311252663
 11
6.1240122459
 21
5.1253960994
  0
LINE
  5
30A
100
AcDbEntity
  8
03__ASM_ALL_CURVES
100
AcDbLine
 62
40
  6
CONTINUOUS
 10
6.4677622459
 20
5.1253960994
 11
6.4591684959
 21
5.1196669326
  0
LINE
  5
30B
100
AcDbEntity
  8
03__ASM_ALL_CURVES
100
AcDbLine
 62
40
  6
CONTINUOUS
 10
6.6009653709
 20
5.1253960994
 11
6.5923716209
 21
5.1196669326
  0
LINE
  5
30C
100
AcDbEntity
  8
0
100
AcDbLine
 62
7
  6
CONTINUOUS
 10
4.6352584954
 20
3.9256782421
 11
4.1732947925
 21
3.9256782421
  0
LINE
  5
30D
100
AcDbEntity
  8
0
100
AcDbLine
 62
7
  6
CONTINUOUS
 10
4.6352584954
 20
3.9740223137
 11
4.1732947925
 21
3.9740223137
  0
LINE
  5
30E
100
AcDbEntity
  8
0
100
AcDbLine
 62
7
  6
CONTINUOUS
 10
6.4327160835
 20
3.9876429326
 11
6.4157612833
 21
3.9876429326
  0
LINE
  5
30F
100
AcDbEntity
  8
0
100
AcDbLine
 62
7
  6
CONTINUOUS
 10
6.4541935135
 20
4.0000429326
 11
6.4950560258
 21
4.0000429326
  0
LINE
  5
310
100
AcDbEntity
  8
03__ASM_ALL_CURVES
100
AcDbLine
 62
40
  6
CONTINUOUS
 10
6.3059067896
 20
3.5165429326
 11
6.3123521021
 21
3.5122460586
  0
LINE
  5
311
100
AcDbEntity
  8
03__ASM_ALL_CURVES
100
AcDbLine
 62
40
  6
CONTINUOUS
 10
6.4090317896
 20
3.5165429326
 11
6.4154771021
 21
3.5122460586
  0
LINE
  5
312
100
AcDbEntity
  8
03__ASM_ALL_CURVES
100
AcDbLine
 62
40
  6
CONTINUOUS
 10
4.7421372463
 20
5.1311252663
 11
4.7507309963
 21
5.1196669326
  0
LINE
  5
313
100
AcDbEntity
  8
03__ASM_ALL_CURVES
100
AcDbLine
 62
40
  6
CONTINUOUS
 10
4.8022934963
 20
5.1253960994
 11
4.7979966213
 21
5.1311252663
  0
LINE
  5
314
100
AcDbEntity
  8
03__ASM_ALL_CURVES
100
AcDbLine
 62
40
  6
CONTINUOUS
 10
4.8280747463
 20
5.1540419326
 11
4.8366684963
 21
5.1425835999
  0
LINE
  5
315
100
AcDbEntity
  8
03__ASM_ALL_CURVES
100
AcDbLine
 62
40
  6
CONTINUOUS
 10
6.1657212367
 20
3.3902148077
 11
6.1592759242
 21
3.3988085576
  0
LINE
  5
316
100
AcDbEntity
  8
03__ASM_ALL_CURVES
100
AcDbLine
 62
40
  6
CONTINUOUS
 10
4.8280747463
 20
5.1826877673
 11
4.8323716213
 21
5.1769585979
  0
LINE
  5
317
100
AcDbEntity
  8
THREAD
100
AcDbLine
 62
7
  6
CONTINUOUS
 10
5.7126234315
 20
3.7705429326
 11
5.6942925604
 21
3.8022929326
  0
LINE
  5
318
100
AcDbEntity
  8
03__ASM_ALL_CURVES
100
AcDbLine
 62
40
  6
CONTINUOUS
 10
5.1030747463
 20
5.1769585979
 11
5.1073716213
 21
5.1655002673
  0
LINE
  5
319
100
AcDbEntity
  8
03__ASM_ALL_CURVES
100
AcDbLine
 62
40
  6
CONTINUOUS
 10
5.5851841213
 20
5.1059169326
 11
5.5851841213
 21
5.0784169326
  0
LINE
  5
31A
100
AcDbEntity
  8
03__ASM_ALL_CURVES
100
AcDbLine
 62
40
  6
CONTINUOUS
 10
5.6126841209
 20
5.1884169326
 11
5.6126841209
 21
5.1196669326
  0
LINE
  5
31B
100
AcDbEntity
  8
0
100
AcDbLine
 62
7
  6
CONTINUOUS
 10
5.6196841213
 20
3.7545429326
 11
5.6196841213
 21
4.7785429326
  0
LINE
  5
31C
100
AcDbEntity
  8
0
100
AcDbLine
 62
7
  6
CONTINUOUS
 10
5.6696841213
 20
3.7545429326
 11
5.6696841213
 21
4.7785429326
  0
LINE
  5
31D
100
AcDbEntity
  8
THREAD
100
AcDbLine
 62
7
  6
CONTINUOUS
 10
5.6834672429
 20
3.8085429326
 11
5.6834672429
 21
4.7245429326
  0
LINE
  5
31E
100
AcDbEntity
  8
03__ASM_ALL_CURVES
100
AcDbLine
 62
40
  6
CONTINUOUS
 10
5.8146372459
 20
5.1196669326
 11
5.8361216209
 21
5.1884169326
  0
LINE
  5
31F
100
AcDbEntity
  8
03__ASM_ALL_CURVES
100
AcDbLine
 62
40
  6
CONTINUOUS
 10
6.2357309959
 20
5.1826877673
 11
6.2314341209
 21
5.1769585979
  0
LINE
  5
320
100
AcDbEntity
  8
03__ASM_ALL_CURVES
100
AcDbLine
 62
40
  6
CONTINUOUS
 10
6.2658091209
 20
5.1311252663
 11
6.2615122459
 21
5.1253960994
  0
LINE
  5
321
100
AcDbEntity
  8
03__ASM_ALL_CURVES
100
AcDbLine
 62
40
  6
CONTINUOUS
 10
6.7427622459
 20
5.1597710979
 11
6.7341684959
 21
5.1540419326
  0
LINE
  5
322
100
AcDbEntity
  8
03__ASM_ALL_CURVES
100
AcDbLine
 62
40
  6
CONTINUOUS
 10
6.2172837367
 20
3.3902148077
 11
6.2140610804
 21
3.3945116829
  0
LINE
  5
323
100
AcDbEntity
  8
03__ASM_ALL_CURVES
100
AcDbLine
 62
40
  6
CONTINUOUS
 10
6.1850571742
 20
3.4331835586
 11
6.1915024867
 21
3.4245898076
  0
LINE
  5
324
100
AcDbEntity
  8
03__ASM_ALL_CURVES
100
AcDbLine
 62
40
  6
CONTINUOUS
 10
4.9483872463
 20
5.1253960994
 11
4.9526841213
 21
5.1196669326
  0
LINE
  5
325
100
AcDbEntity
  8
03__ASM_ALL_CURVES
100
AcDbLine
 62
40
  6
CONTINUOUS
 10
6.2414536646
 20
3.4692773077
 11
6.2350083521
 21
3.4778710576
  0
LINE
  5
326
100
AcDbEntity
  8
03__ASM_ALL_CURVES
100
AcDbLine
 62
40
  6
CONTINUOUS
 10
6.2092271021
 20
3.5122460586
 11
6.2124497584
 21
3.5079491816
  0
LINE
  5
327
100
AcDbEntity
  8
THREAD
100
AcDbLine
 62
7
  6
CONTINUOUS
 10
5.6942925604
 20
3.8022929326
 11
5.6942925604
 21
4.7307929326
  0
LINE
  5
328
100
AcDbEntity
  8
THREAD
100
AcDbLine
 62
7
  6
CONTINUOUS
 10
5.7126234315
 20
3.7705429326
 11
5.7126234315
 21
4.7625429326
  0
LINE
  5
329
100
AcDbEntity
  8
03__ASM_ALL_CURVES
100
AcDbLine
 62
40
  6
CONTINUOUS
 10
6.3646372459
 20
5.1712294326
 11
6.3732309959
 21
5.1826877673
  0
LINE
  5
32A
100
AcDbEntity
  8
03__ASM_ALL_CURVES
100
AcDbLine
 62
40
  6
CONTINUOUS
 10
5.1408384185
 20
3.4993554336
 11
5.1376157623
 21
3.4950585566
  0
LINE
  5
32B
100
AcDbEntity
  8
03__ASM_ALL_CURVES
100
AcDbLine
 62
40
  6
CONTINUOUS
 10
5.1633970123
 20
3.5036523076
 11
5.1698423248
 21
3.5122460586
  0
LINE
  5
32C
100
AcDbEntity
  8
03__ASM_ALL_CURVES
100
AcDbLine
 62
40
  6
CONTINUOUS
 10
6.4076059959
 20
5.1368544326
 11
6.3990122459
 21
5.1253960994
  0
LINE
  5
32D
100
AcDbEntity
  8
03__ASM_ALL_CURVES
100
AcDbLine
 62
40
  6
CONTINUOUS
 10
5.1408384185
 20
3.4202929336
 11
5.1376157623
 21
3.4159960566
  0
LINE
  5
32E
100
AcDbEntity
  8
03__ASM_ALL_CURVES
100
AcDbLine
 62
40
  6
CONTINUOUS
 10
5.1956235748
 20
3.4778710576
 11
5.1891782623
 21
3.4692773077
  0
LINE
  5
32F
100
AcDbEntity
  8
03__ASM_ALL_CURVES
100
AcDbLine
 62
40
  6
CONTINUOUS
 10
7.4202622466
 20
4.2012304326
 11
7.3944809966
 21
4.2012304326
  0
LINE
  5
330
100
AcDbEntity
  8
03__ASM_ALL_CURVES
100
AcDbLine
 62
40
  6
CONTINUOUS
 10
7.3429184966
 20
4.2012304326
 11
7.3686997466
 21
4.2012304326
  0
LINE
  5
331
100
AcDbEntity
  8
03__ASM_ALL_CURVES
100
AcDbLine
 62
40
  6
CONTINUOUS
 10
7.3944809966
 20
4.2270116826
 11
7.4105942779
 21
4.2270116826
  0
LINE
  5
332
100
AcDbEntity
  8
03__ASM_ALL_CURVES
100
AcDbLine
 62
40
  6
CONTINUOUS
 10
7.3944809966
 20
4.2527929326
 11
7.4202622466
 21
4.2527929326
  0
LINE
  5
333
100
AcDbEntity
  8
03__ASM_ALL_CURVES
100
AcDbLine
 62
40
  6
CONTINUOUS
 10
7.4428208404
 20
4.2527929326
 11
7.4750474029
 21
4.2527929326
  0
LINE
  5
334
100
AcDbEntity
  8
03__ASM_ALL_CURVES
100
AcDbLine
 62
40
  6
CONTINUOUS
 10
7.3203599027
 20
4.2802929326
 11
7.3139145902
 21
4.2802929326
  0
LINE
  5
335
100
AcDbEntity
  8
03__ASM_ALL_CURVES
100
AcDbLine
 62
40
  6
CONTINUOUS
 10
6.2607896021
 20
3.5122460586
 11
6.2672349146
 21
3.5036523076
  0
LINE
  5
336
100
AcDbEntity
  8
03__ASM_ALL_CURVES
100
AcDbLine
 62
40
  6
CONTINUOUS
 10
5.0815903713
 20
5.1253960994
 11
5.0772934963
 21
5.1311252663
  0
LINE
  5
337
100
AcDbEntity
  8
03__ASM_ALL_CURVES
100
AcDbLine
 62
40
  6
CONTINUOUS
 10
6.3123521021
 20
3.5122460586
 11
6.3155747584
 21
3.5079491816
  0
LINE
  5
338
100
AcDbEntity
  8
03__ASM_ALL_CURVES
100
AcDbLine
 62
40
  6
CONTINUOUS
 10
5.0987778713
 20
5.1826877673
 11
5.1030747463
 21
5.1769585979
  0
LINE
  5
339
100
AcDbEntity
  8
03__ASM_ALL_CURVES
100
AcDbLine
 62
40
  6
CONTINUOUS
 10
5.9048716209
 20
5.1884169326
 11
5.9048716209
 21
5.1196669326
  0
LINE
  5
33A
100
AcDbEntity
  8
03__ASM_ALL_CURVES
100
AcDbLine
 62
40
  6
CONTINUOUS
 10
6.0853403709
 20
5.1540419326
 11
6.0896372459
 21
5.1712294326
  0
LINE
  5
33B
100
AcDbEntity
  8
03__ASM_ALL_CURVES
100
AcDbLine
 62
40
  6
CONTINUOUS
 10
5.2439634185
 20
3.4993554336
 11
5.2407407623
 21
3.4950585566
  0
LINE
  5
33C
100
AcDbEntity
  8
03__ASM_ALL_CURVES
100
AcDbLine
 62
40
  6
CONTINUOUS
 10
6.4720591209
 20
5.1311252663
 11
6.4677622459
 21
5.1253960994
  0
LINE
  5
33D
100
AcDbEntity
  8
03__ASM_ALL_CURVES
100
AcDbLine
 62
40
  6
CONTINUOUS
 10
5.2665220123
 20
3.4245898076
 11
5.2729673248
 21
3.4331835586
  0
LINE
  5
33E
100
AcDbEntity
  8
03__ASM_ALL_CURVES
100
AcDbLine
 62
40
  6
CONTINUOUS
 10
5.3470884185
 20
3.5036523076
 11
5.3438657623
 21
3.4993554336
  0
LINE
  5
33F
100
AcDbEntity
  8
03__ASM_ALL_CURVES
100
AcDbLine
 62
40
  6
CONTINUOUS
 10
5.3503110748
 20
3.4778710576
 11
5.3438657623
 21
3.4692773077
  0
LINE
  5
340
100
AcDbEntity
  8
03__ASM_ALL_CURVES
100
AcDbLine
 62
40
  6
CONTINUOUS
 10
5.2987485748
 20
3.3988085576
 11
5.2923032623
 21
3.3902148077
  0
LINE
  5
341
100
AcDbEntity
  8
03__ASM_ALL_CURVES
100
AcDbLine
 62
40
  6
CONTINUOUS
 10
6.6095591209
 20
5.1368544326
 11
6.6009653709
 21
5.1253960994
  0
LINE
  5
342
100
AcDbEntity
  8
03__ASM_ALL_CURVES
100
AcDbLine
 62
40
  6
CONTINUOUS
 10
7.3719224027
 20
4.3060741826
 11
7.3558091214
 21
4.3060741826
  0
LINE
  5
343
100
AcDbEntity
  8
03__ASM_ALL_CURVES
100
AcDbLine
 62
40
  6
CONTINUOUS
 10
7.2687974027
 20
4.3060741826
 11
7.2526841214
 21
4.3060741826
  0
LINE
  5
344
100
AcDbEntity
  8
03__ASM_ALL_CURVES
100
AcDbLine
 62
40
  6
CONTINUOUS
 10
7.2526841214
 20
4.3318554326
 11
7.2687974027
 21
4.3318554326
  0
LINE
  5
345
100
AcDbEntity
  8
03__ASM_ALL_CURVES
100
AcDbLine
 62
40
  6
CONTINUOUS
 10
7.3139145902
 20
4.3318554326
 11
7.3203599027
 21
4.3318554326
  0
LINE
  5
346
100
AcDbEntity
  8
03__ASM_ALL_CURVES
100
AcDbLine
 62
40
  6
CONTINUOUS
 10
7.3558091214
 20
4.3318554326
 11
7.3719224027
 21
4.3318554326
  0
LINE
  5
347
100
AcDbEntity
  8
03__ASM_ALL_CURVES
100
AcDbLine
 62
40
  6
CONTINUOUS
 10
7.4041489652
 20
4.3318554326
 11
7.4363755277
 21
4.3318554326
  0
LINE
  5
348
100
AcDbEntity
  8
03__ASM_ALL_CURVES
100
AcDbLine
 62
40
  6
CONTINUOUS
 10
4.6046372463
 20
5.1196669326
 11
4.5960434963
 21
5.1253960994
  0
LINE
  5
349
100
AcDbEntity
  8
03__ASM_ALL_CURVES
100
AcDbLine
 62
40
  6
CONTINUOUS
 10
4.6132309963
 20
5.1597710979
 11
4.6218247463
 21
5.1540419326
  0
LINE
  5
34A
100
AcDbEntity
  8
03__ASM_ALL_CURVES
100
AcDbLine
 62
40
  6
CONTINUOUS
 10
4.6132309963
 20
5.1884169326
 11
4.6218247463
 21
5.1826877673
  0
LINE
  5
34B
100
AcDbEntity
  8
03__ASM_ALL_CURVES
100
AcDbLine
 62
40
  6
CONTINUOUS
 10
4.8108872463
 20
5.1196669326
 11
4.8022934963
 21
5.1253960994
  0
LINE
  5
34C
100
AcDbEntity
  8
03__ASM_ALL_CURVES
100
AcDbLine
 62
40
  6
CONTINUOUS
 10
5.1546372463
 20
5.1884169326
 11
5.1632309963
 21
5.1769585979
  0
LINE
  5
34D
100
AcDbEntity
  8
03__ASM_ALL_CURVES
100
AcDbLine
 62
40
  6
CONTINUOUS
 10
6.4154771021
 20
3.5122460586
 11
6.4186997584
 21
3.5079491816
  0
LINE
  5
34E
100
AcDbEntity
  8
03__ASM_ALL_CURVES
100
AcDbLine
 62
40
  6
CONTINUOUS
 10
5.6771372459
 20
5.1368544326
 11
5.6728403709
 21
5.1540419326
  0
LINE
  5
34F
100
AcDbEntity
  8
03__ASM_ALL_CURVES
100
AcDbLine
 62
40
  6
CONTINUOUS
 10
6.1592759242
 20
3.3988085576
 11
6.1560532679
 21
3.4116991826
  0
LINE
  5
350
100
AcDbEntity
  8
03__ASM_ALL_CURVES
100
AcDbLine
 62
40
  6
CONTINUOUS
 10
5.7201059959
 20
5.1712294326
 11
5.7244028709
 21
5.1540419326
  0
LINE
  5
351
100
AcDbEntity
  8
03__ASM_ALL_CURVES
100
AcDbLine
 62
40
  6
CONTINUOUS
 10
5.9736216209
 20
5.1884169326
 11
5.9736216209
 21
5.1196669326
  0
LINE
  5
352
100
AcDbEntity
  8
THREAD
100
AcDbLine
 62
7
  6
CONTINUOUS
 10
5.9836841213
 20
3.7705429326
 11
5.9836841213
 21
4.7625429326
  0
LINE
  5
353
100
AcDbEntity
  8
03__ASM_ALL_CURVES
100
AcDbLine
 62
40
  6
CONTINUOUS
 10
6.0251841209
 20
5.1196669326
 11
6.0251841209
 21
5.1884169326
  0
LINE
  5
354
100
AcDbEntity
  8
THREAD
100
AcDbLine
 62
7
  6
CONTINUOUS
 10
6.0276841213
 20
3.8145429326
 11
6.0276841213
 21
4.7185429326
  0
LINE
  5
355
100
AcDbEntity
  8
03__ASM_ALL_CURVES
100
AcDbLine
 62
40
  6
CONTINUOUS
 10
6.0595591209
 20
5.1196669326
 11
6.0595591209
 21
5.1884169326
  0
LINE
  5
356
100
AcDbEntity
  8
03__ASM_ALL_CURVES
100
AcDbLine
 62
40
  6
CONTINUOUS
 10
6.7470591209
 20
5.1655002673
 11
6.7427622459
 21
5.1597710979
  0
LINE
  5
357
100
AcDbEntity
  8
0
100
AcDbLine
 62
7
  6
CONTINUOUS
 10
6.4541935135
 20
4.5330429326
 11
6.4950610806
 21
4.5330429326
  0
LINE
  5
358
100
AcDbEntity
  8
0
100
AcDbLine
 62
7
  6
CONTINUOUS
 10
6.4327160835
 20
4.5454429326
 11
6.4161745204
 21
4.5454429326
  0
LINE
  5
359
100
AcDbEntity
  8
03__ASM_ALL_CURVES
100
AcDbLine
 62
40
  6
CONTINUOUS
 10
4.8194809963
 20
5.1597710979
 11
4.8280747463
 21
5.1540419326
  0
LINE
  5
35A
100
AcDbEntity
  8
03__ASM_ALL_CURVES
100
AcDbLine
 62
40
  6
CONTINUOUS
 10
4.8194809963
 20
5.1884169326
 11
4.8280747463
 21
5.1826877673
  0
LINE
  5
35B
100
AcDbEntity
  8
03__ASM_ALL_CURVES
100
AcDbLine
 62
40
  6
CONTINUOUS
 10
6.3059067896
 20
3.4907616826
 11
6.3155747584
 21
3.4649804326
  0
LINE
  5
35C
100
AcDbEntity
  8
03__ASM_ALL_CURVES
100
AcDbLine
 62
40
  6
CONTINUOUS
 10
5.7458872459
 20
5.1368544326
 11
5.7415903709
 21
5.1540419326
  0
LINE
  5
35D
100
AcDbEntity
  8
03__ASM_ALL_CURVES
100
AcDbLine
 62
40
  6
CONTINUOUS
 10
6.1915024867
 20
3.4245898076
 11
6.1947251429
 21
3.4116991826
  0
LINE
  5
35E
100
AcDbEntity
  8
03__ASM_ALL_CURVES
100
AcDbLine
 62
40
  6
CONTINUOUS
 10
6.2350083521
 20
3.4778710576
 11
6.2317856959
 21
3.4907616826
  0
LINE
  5
35F
100
AcDbEntity
  8
03__ASM_ALL_CURVES
100
AcDbLine
 62
40
  6
CONTINUOUS
 10
6.2672349146
 20
3.5036523076
 11
6.2704575709
 21
3.4907616826
  0
LINE
  5
360
100
AcDbEntity
  8
0
100
AcDbLine
 62
7
  6
CONTINUOUS
 10
6.1116841213
 20
3.8145429326
 11
6.1116841213
 21
4.7185429326
  0
LINE
  5
361
100
AcDbEntity
  8
0
100
AcDbLine
 62
7
  6
CONTINUOUS
 10
6.1276841213
 20
3.8305429326
 11
6.1276841213
 21
4.7025429326
  0
LINE
  5
362
100
AcDbEntity
  8
03__ASM_ALL_CURVES
100
AcDbLine
 62
40
  6
CONTINUOUS
 10
6.1283091209
 20
5.1540419326
 11
6.1283091209
 21
5.1311252663
  0
LINE
  5
363
100
AcDbEntity
  8
0
100
AcDbLine
 62
7
  6
CONTINUOUS
 10
6.1341935135
 20
4.1339226278
 11
6.1341935135
 21
4.0770924251
  0
LINE
  5
364
100
AcDbEntity
  8
03__ASM_ALL_CURVES
100
AcDbLine
 62
40
  6
CONTINUOUS
 10
6.1866685084
 20
3.4649804326
 11
6.1866685084
 21
3.5165429326
  0
LINE
  5
365
100
AcDbEntity
  8
03__ASM_ALL_CURVES
100
AcDbLine
 62
40
  6
CONTINUOUS
 10
6.3603403709
 20
5.1540419326
 11
6.3646372459
 21
5.1712294326
  0
LINE
  5
366
100
AcDbEntity
  8
03__ASM_ALL_CURVES
100
AcDbLine
 62
40
  6
CONTINUOUS
 10
6.4119028709
 20
5.1540419326
 11
6.4076059959
 21
5.1368544326
  0
LINE
  5
367
100
AcDbEntity
  8
03__ASM_ALL_CURVES
100
AcDbLine
 62
40
  6
CONTINUOUS
 10
5.1376157623
 20
3.4950585566
 11
5.1311704498
 21
3.4907616826
  0
LINE
  5
368
100
AcDbEntity
  8
03__ASM_ALL_CURVES
100
AcDbLine
 62
40
  6
CONTINUOUS
 10
5.1698423248
 20
3.5122460586
 11
5.1762876373
 21
3.5165429326
  0
LINE
  5
369
100
AcDbEntity
  8
03__ASM_ALL_CURVES
100
AcDbLine
 62
40
  6
CONTINUOUS
 10
5.1891782623
 20
3.4692773077
 11
5.1827329498
 21
3.4649804326
  0
LINE
  5
36A
100
AcDbEntity
  8
03__ASM_ALL_CURVES
100
AcDbLine
 62
40
  6
CONTINUOUS
 10
5.2407407623
 20
3.4950585566
 11
5.2342954498
 21
3.4907616826
  0
LINE
  5
36B
100
AcDbEntity
  8
03__ASM_ALL_CURVES
100
AcDbLine
 62
40
  6
CONTINUOUS
 10
5.1376157623
 20
3.4159960566
 11
5.1311704498
 21
3.4116991826
  0
LINE
  5
36C
100
AcDbEntity
  8
03__ASM_ALL_CURVES
100
AcDbLine
 62
40
  6
CONTINUOUS
 10
5.3245298248
 20
3.5122460586
 11
5.3309751373
 21
3.5165429326
  0
LINE
  5
36D
100
AcDbEntity
  8
THREAD
100
AcDbLine
 62
7
  6
CONTINUOUS
 10
5.5182725785
 20
3.7520429326
 11
5.5026841213
 21
3.7430429326
  0
LINE
  5
36E
100
AcDbEntity
  8
0
100
AcDbLine
 62
7
  6
CONTINUOUS
 10
4.6352584954
 20
4.5590635515
 11
4.1732947925
 21
4.5590635515
  0
LINE
  5
36F
100
AcDbEntity
  8
0
100
AcDbLine
 62
7
  6
CONTINUOUS
 10
4.6352584954
 20
4.6074076231
 11
4.1732947925
 21
4.6074076231
  0
LINE
  5
370
100
AcDbEntity
  8
0
100
AcDbLine
 62
7
  6
CONTINUOUS
 10
6.5646841213
 20
4.6405429326
 11
6.2131841213
 21
4.6405429326
  0
LINE
  5
371
100
AcDbEntity
  8
0
100
AcDbLine
 62
7
  6
CONTINUOUS
 10
6.8196841213
 20
4.6485429326
 11
6.7916841213
 21
4.6485429326
  0
LINE
  5
372
100
AcDbEntity
  8
THREAD
100
AcDbLine
 62
7
  6
CONTINUOUS
 10
5.5182725785
 20
4.7810429326
 11
5.5026841213
 21
4.7900429326
  0
LINE
  5
373
100
AcDbEntity
  8
03__ASM_ALL_CURVES
100
AcDbLine
 62
40
  6
CONTINUOUS
 10
5.0901841213
 20
5.1196669326
 11
5.0815903713
 21
5.1253960994
  0
LINE
  5
374
100
AcDbEntity
  8
03__ASM_ALL_CURVES
100
AcDbLine
 62
40
  6
CONTINUOUS
 10
5.0901841213
 20
5.1884169326
 11
5.0987778713
 21
5.1826877673
  0
LINE
  5
375
100
AcDbEntity
  8
03__ASM_ALL_CURVES
100
AcDbLine
 62
40
  6
CONTINUOUS
 10
5.8361216209
 20
5.1884169326
 11
5.8576059959
 21
5.1196669326
  0
LINE
  5
376
100
AcDbEntity
  8
03__ASM_ALL_CURVES
100
AcDbLine
 62
40
  6
CONTINUOUS
 10
6.2124497584
 20
3.5079491816
 11
6.2124497584
 21
3.4993554336
  0
LINE
  5
377
100
AcDbEntity
  8
03__ASM_ALL_CURVES
100
AcDbLine
 62
40
  6
CONTINUOUS
 10
6.2140610804
 20
3.3945116829
 11
6.2140610804
 21
3.4374804326
  0
LINE
  5
378
100
AcDbEntity
  8
03__ASM_ALL_CURVES
100
AcDbLine
 62
40
  6
CONTINUOUS
 10
6.2314341209
 20
5.1769585979
 11
6.2314341209
 21
5.1712294326
  0
LINE
  5
379
100
AcDbEntity
  8
03__ASM_ALL_CURVES
100
AcDbLine
 62
40
  6
CONTINUOUS
 10
6.2398423304
 20
3.4374804326
 11
6.2398423304
 21
3.3945116829
  0
LINE
  5
37A
100
AcDbEntity
  8
03__ASM_ALL_CURVES
100
AcDbLine
 62
40
  6
CONTINUOUS
 10
6.2658091209
 20
5.1425835999
 11
6.2658091209
 21
5.1311252663
  0
LINE
  5
37B
100
AcDbEntity
  8
03__ASM_ALL_CURVES
100
AcDbLine
 62
40
  6
CONTINUOUS
 10
6.2785142054
 20
3.4374804326
 11
6.2785142054
 21
3.3859179326
  0
LINE
  5
37C
100
AcDbEntity
  8
03__ASM_ALL_CURVES
100
AcDbLine
 62
40
  6
CONTINUOUS
 10
6.2897935084
 20
3.4649804326
 11
6.2897935084
 21
3.5165429326
  0
LINE
  5
37D
100
AcDbEntity
  8
03__ASM_ALL_CURVES
100
AcDbLine
 62
40
  6
CONTINUOUS
 10
6.3001841209
 20
5.1884169326
 11
6.3001841209
 21
5.1196669326
  0
LINE
  5
37E
100
AcDbEntity
  8
03__ASM_ALL_CURVES
100
AcDbLine
 62
40
  6
CONTINUOUS
 10
6.3155747584
 20
3.5079491816
 11
6.3155747584
 21
3.4993554336
  0
LINE
  5
37F
100
AcDbEntity
  8
03__ASM_ALL_CURVES
100
AcDbLine
 62
40
  6
CONTINUOUS
 10
6.3171860804
 20
3.4374804326
 11
6.3171860804
 21
3.3859179326
  0
LINE
  5
380
100
AcDbEntity
  8
THREAD
100
AcDbLine
 62
7
  6
CONTINUOUS
 10
6.0276841213
 20
3.8145429326
 11
5.9836841213
 21
3.7705429326
  0
LINE
  5
381
100
AcDbEntity
  8
03__ASM_ALL_CURVES
100
AcDbLine
 62
40
  6
CONTINUOUS
 10
5.3438657623
 20
3.4993554336
 11
5.3374204498
 21
3.4950585566
  0
LINE
  5
382
100
AcDbEntity
  8
03__ASM_ALL_CURVES
100
AcDbLine
 62
40
  6
CONTINUOUS
 10
5.2729673248
 20
3.4331835586
 11
5.2794126373
 21
3.4374804326
  0
LINE
  5
383
100
AcDbEntity
  8
03__ASM_ALL_CURVES
100
AcDbLine
 62
40
  6
CONTINUOUS
 10
5.3438657623
 20
3.4692773077
 11
5.3374204498
 21
3.4649804326
  0
LINE
  5
384
100
AcDbEntity
  8
03__ASM_ALL_CURVES
100
AcDbLine
 62
40
  6
CONTINUOUS
 10
5.2923032623
 20
3.3902148077
 11
5.2858579498
 21
3.3859179326
  0
LINE
  5
385
100
AcDbEntity
  8
0
100
AcDbLine
 62
7
  6
CONTINUOUS
 10
6.6216841213
 20
4.7025429326
 11
6.6716841213
 21
4.7025429326
  0
LINE
  5
386
100
AcDbEntity
  8
0
100
AcDbLine
 62
7
  6
CONTINUOUS
 10
6.7416841213
 20
4.7025429326
 11
6.7916841213
 21
4.7025429326
  0
LINE
  5
387
100
AcDbEntity
  8
0
100
AcDbLine
 62
7
  6
CONTINUOUS
 10
6.5646841213
 20
4.7030429326
 11
6.6216841213
 21
4.7030429326
  0
LINE
  5
388
100
AcDbEntity
  8
0
100
AcDbLine
 62
7
  6
CONTINUOUS
 10
6.8196841213
 20
4.7030429326
 11
6.8616841213
 21
4.7030429326
  0
LINE
  5
389
100
AcDbEntity
  8
THREAD
100
AcDbLine
 62
7
  6
CONTINUOUS
 10
6.1116841213
 20
4.7185429326
 11
6.0276841213
 21
4.7185429326
  0
LINE
  5
38A
100
AcDbEntity
  8
THREAD
100
AcDbLine
 62
7
  6
CONTINUOUS
 10
5.6834672429
 20
4.7245429326
 11
5.6696841213
 21
4.7245429326
  0
LINE
  5
38B
100
AcDbEntity
  8
0
100
AcDbLine
 62
7
  6
CONTINUOUS
 10
5.4162481859
 20
4.7245429326
 11
5.120848786
 21
4.7245429326
  0
LINE
  5
38C
100
AcDbEntity
  8
0
100
AcDbLine
 62
7
  6
CONTINUOUS
 10
5.0186841213
 20
4.7490429326
 11
4.9976841213
 21
4.7490429326
  0
LINE
  5
38D
100
AcDbEntity
  8
THREAD
100
AcDbLine
 62
7
  6
CONTINUOUS
 10
5.9836841213
 20
4.7625429326
 11
5.7126234315
 21
4.7625429326
  0
LINE
  5
38E
100
AcDbEntity
  8
0
100
AcDbLine
 62
7
  6
CONTINUOUS
 10
5.6196841213
 20
4.7785429326
 11
5.6696841213
 21
4.7785429326
  0
LINE
  5
38F
100
AcDbEntity
  8
THREAD
100
AcDbLine
 62
7
  6
CONTINUOUS
 10
5.5496841213
 20
4.7810429326
 11
5.5182725785
 21
4.7810429326
  0
LINE
  5
390
100
AcDbEntity
  8
0
100
AcDbLine
 62
7
  6
CONTINUOUS
 10
4.8776841213
 20
4.8030429326
 11
4.9276841213
 21
4.8030429326
  0
LINE
  5
391
100
AcDbEntity
  8
0
100
AcDbLine
 62
7
  6
CONTINUOUS
 10
5.0636841213
 20
4.8042929326
 11
5.0186841213
 21
4.8042929326
  0
LINE
  5
392
100
AcDbEntity
  8
0
100
AcDbLine
 62
7
  6
CONTINUOUS
 10
5.5026841213
 20
4.8045429326
 11
5.4376841213
 21
4.8045429326
  0
LINE
  5
393
100
AcDbEntity
  8
0
100
AcDbLine
 62
7
  6
CONTINUOUS
 10
4.8776841213
 20
4.8045429326
 11
4.6906841213
 21
4.8045429326
  0
LINE
  5
394
100
AcDbEntity
  8
03__ASM_ALL_CURVES
100
AcDbLine
 62
40
  6
CONTINUOUS
 10
4.2101841213
 20
5.0784169326
 11
4.1276841213
 21
5.0921669326
  0
LINE
  5
395
100
AcDbEntity
  8
03__ASM_ALL_CURVES
100
AcDbLine
 62
40
  6
CONTINUOUS
 10
5.0901841213
 20
5.1483127652
 11
5.0772934963
 21
5.1540419326
  0
LINE
  5
396
100
AcDbEntity
  8
THREAD
100
AcDbLine
 62
7
  6
CONTINUOUS
 10
6.0276841213
 20
4.7185429326
 11
5.9836841213
 21
4.7625429326
  0
LINE
  5
397
100
AcDbEntity
  8
03__ASM_ALL_CURVES
100
AcDbLine
 62
40
  6
CONTINUOUS
 10
5.6857309959
 20
5.1253960994
 11
5.6771372459
 21
5.1368544326
  0
LINE
  5
398
100
AcDbEntity
  8
03__ASM_ALL_CURVES
100
AcDbLine
 62
40
  6
CONTINUOUS
 10
5.7544809959
 20
5.1253960994
 11
5.7458872459
 21
5.1368544326
  0
LINE
  5
399
100
AcDbEntity
  8
03__ASM_ALL_CURVES
100
AcDbLine
 62
40
  6
CONTINUOUS
 10
5.7115122459
 20
5.1826877673
 11
5.7201059959
 21
5.1712294326
  0
LINE
  5
39A
100
AcDbEntity
  8
03__ASM_ALL_CURVES
100
AcDbLine
 62
40
  6
CONTINUOUS
 10
5.7802622459
 20
5.1826877673
 11
5.7845591209
 21
5.1769585979
  0
LINE
  5
39B
100
AcDbEntity
  8
03__ASM_ALL_CURVES
100
AcDbLine
 62
40
  6
CONTINUOUS
 10
6.0896372459
 20
5.1368544326
 11
6.0853403709
 21
5.1540419326
  0
LINE
  5
39C
100
AcDbEntity
  8
03__ASM_ALL_CURVES
100
AcDbLine
 62
40
  6
CONTINUOUS
 10
6.3345591209
 20
5.1884169326
 11
6.3345591209
 21
5.1196669326
  0
LINE
  5
39D
100
AcDbEntity
  8
03__ASM_ALL_CURVES
100
AcDbLine
 62
40
  6
CONTINUOUS
 10
6.3542466334
 20
3.5165429326
 11
6.3542466334
 21
3.4649804326
  0
LINE
  5
39E
100
AcDbEntity
  8
03__ASM_ALL_CURVES
100
AcDbLine
 62
40
  6
CONTINUOUS
 10
6.3687485804
 20
3.3859179326
 11
6.3687485804
 21
3.4374804326
  0
LINE
  5
39F
100
AcDbEntity
  8
03__ASM_ALL_CURVES
100
AcDbLine
 62
40
  6
CONTINUOUS
 10
6.4186997584
 20
3.5079491816
 11
6.4186997584
 21
3.4993554336
  0
LINE
  5
3A0
100
AcDbEntity
  8
0
100
AcDbLine
 62
7
  6
CONTINUOUS
 10
6.4327160835
 20
3.9876429326
 11
6.4327160835
 21
4.011065724
  0
LINE
  5
3A1
100
AcDbEntity
  8
0
100
AcDbLine
 62
7
  6
CONTINUOUS
 10
6.4327160835
 20
4.1577206757
 11
6.4327160835
 21
4.3753394327
  0
LINE
  5
3A2
100
AcDbEntity
  8
0
100
AcDbLine
 62
7
  6
CONTINUOUS
 10
6.4327160835
 20
4.5220196557
 11
6.4327160835
 21
4.5454429326
  0
LINE
  5
3A3
100
AcDbEntity
  8
03__ASM_ALL_CURVES
100
AcDbLine
 62
40
  6
CONTINUOUS
 10
6.4332017054
 20
3.4374804326
 11
6.4332017054
 21
3.3859179326
  0
LINE
  5
3A4
100
AcDbEntity
  8
03__ASM_ALL_CURVES
100
AcDbLine
 62
40
  6
CONTINUOUS
 10
6.4376841209
 20
5.1311252663
 11
6.4376841209
 21
5.1884169326
  0
LINE
  5
3A5
100
AcDbEntity
  8
03__ASM_ALL_CURVES
100
AcDbLine
 62
40
  6
CONTINUOUS
 10
6.1560532679
 20
3.4116991826
 11
6.1592759242
 21
3.4245898076
  0
LINE
  5
3A6
100
AcDbEntity
  8
03__ASM_ALL_CURVES
100
AcDbLine
 62
40
  6
CONTINUOUS
 10
6.6138559959
 20
5.1540419326
 11
6.6095591209
 21
5.1368544326
  0
LINE
  5
3A7
100
AcDbEntity
  8
03__ASM_ALL_CURVES
100
AcDbLine
 62
40
  6
CONTINUOUS
 10
6.1947251429
 20
3.4116991826
 11
6.1915024867
 21
3.3988085576
  0
LINE
  5
3A8
100
AcDbEntity
  8
03__ASM_ALL_CURVES
100
AcDbLine
 62
40
  6
CONTINUOUS
 10
6.2317856959
 20
3.4907616826
 11
6.2350083521
 21
3.5036523076
  0
LINE
  5
3A9
100
AcDbEntity
  8
03__ASM_ALL_CURVES
100
AcDbLine
 62
40
  6
CONTINUOUS
 10
6.2704575709
 20
3.4907616826
 11
6.2672349146
 21
3.4778710576
  0
LINE
  5
3AA
100
AcDbEntity
  8
0
100
AcDbLine
 62
7
  6
CONTINUOUS
 10
6.1276841213
 20
3.8305429326
 11
6.1116841213
 21
3.8145429326
  0
LINE
  5
3AB
100
AcDbEntity
  8
0
100
AcDbLine
 62
7
  6
CONTINUOUS
 10
6.4327160835
 20
3.9876429326
 11
6.4541935135
 21
4.0000429326
  0
LINE
  5
3AC
100
AcDbEntity
  8
0
100
AcDbLine
 62
7
  6
CONTINUOUS
 10
4.6352584954
 20
4.8999282421
 11
4.1732947925
 21
4.8999282421
  0
LINE
  5
3AD
100
AcDbEntity
  8
0
100
AcDbLine
 62
7
  6
CONTINUOUS
 10
4.6352584954
 20
4.9005429326
 11
4.1732947925
 21
4.9005429326
  0
LINE
  5
3AE
100
AcDbEntity
  8
03__ASM_ALL_CURVES
100
AcDbLine
 62
40
  6
CONTINUOUS
 10
4.2101841213
 20
5.0830002659
 11
4.1276841213
 21
5.0921669326
  0
LINE
  5
3AF
100
AcDbEntity
  8
03__ASM_ALL_CURVES
100
AcDbLine
 62
40
  6
CONTINUOUS
 10
4.2101841213
 20
5.0807085993
 11
4.1276841213
 21
5.0921669326
  0
LINE
  5
3B0
100
AcDbEntity
  8
0
100
AcDbLine
 62
7
  6
CONTINUOUS
 10
6.4327160835
 20
4.5454429326
 11
6.4541935135
 21
4.5330429326
  0
LINE
  5
3B1
100
AcDbEntity
  8
03__ASM_ALL_CURVES
100
AcDbLine
 62
40
  6
CONTINUOUS
 10
5.6943247459
 20
5.1196669326
 11
5.6857309959
 21
5.1253960994
  0
LINE
  5
3B2
100
AcDbEntity
  8
0
100
AcDbLine
 62
7
  6
CONTINUOUS
 10
6.1276841213
 20
4.7025429326
 11
6.1116841213
 21
4.7185429326
  0
LINE
  5
3B3
100
AcDbEntity
  8
03__ASM_ALL_CURVES
100
AcDbLine
 62
40
  6
CONTINUOUS
 10
6.0251841209
 20
5.1884169326
 11
6.0595591209
 21
5.1196669326
  0
LINE
  5
3B4
100
AcDbEntity
  8
0
100
AcDbLine
 62
7
  6
CONTINUOUS
 10
6.4541935135
 20
4.0104955552
 11
6.4541935135
 21
4.0000429326
  0
LINE
  5
3B5
100
AcDbEntity
  8
0
100
AcDbLine
 62
7
  6
CONTINUOUS
 10
6.4541935135
 20
4.1584699221
 11
6.4541935135
 21
4.3745894245
  0
LINE
  5
3B6
100
AcDbEntity
  8
0
100
AcDbLine
 62
7
  6
CONTINUOUS
 10
6.4541935135
 20
4.522589358
 11
6.4541935135
 21
4.5330429326
  0
LINE
  5
3B7
100
AcDbEntity
  8
03__ASM_ALL_CURVES
100
AcDbLine
 62
40
  6
CONTINUOUS
 10
6.4720591209
 20
5.1884169326
 11
6.4720591209
 21
5.1311252663
  0
LINE
  5
3B8
100
AcDbEntity
  8
03__ASM_ALL_CURVES
100
AcDbLine
 62
40
  6
CONTINUOUS
 10
6.5064341209
 20
5.1884169326
 11
6.5064341209
 21
5.1196669326
  0
LINE
  5
3B9
100
AcDbEntity
  8
0
100
AcDbLine
 62
7
  6
CONTINUOUS
 10
6.5646841213
 20
4.7030429326
 11
6.5646841213
 21
3.8300429326
  0
LINE
  5
3BA
100
AcDbEntity
  8
03__ASM_ALL_CURVES
100
AcDbLine
 62
40
  6
CONTINUOUS
 10
6.5751841209
 20
5.1196669326
 11
6.5751841209
 21
5.1884169326
  0
LINE
  5
3BB
100
AcDbEntity
  8
03__ASM_ALL_CURVES
100
AcDbLine
 62
40
  6
CONTINUOUS
 10
6.3961411646
 20
3.4778710576
 11
6.3929185084
 21
3.4649804326
  0
LINE
  5
3BC
100
AcDbEntity
  8
03__ASM_ALL_CURVES
100
AcDbLine
 62
40
  6
CONTINUOUS
 10
4.2101841213
 20
5.0898752659
 11
4.1276841213
 21
5.0921669326
  0
LINE
  5
3BD
100
AcDbEntity
  8
03__ASM_ALL_CURVES
100
AcDbLine
 62
40
  6
CONTINUOUS
 10
4.2101841213
 20
5.0875835993
 11
4.1276841213
 21
5.0921669326
  0
LINE
  5
3BE
100
AcDbEntity
  8
03__ASM_ALL_CURVES
100
AcDbLine
 62
40
  6
CONTINUOUS
 10
4.2101841213
 20
5.0852919326
 11
4.1276841213
 21
5.0921669326
  0
LINE
  5
3BF
100
AcDbEntity
  8
03__ASM_ALL_CURVES
100
AcDbLine
 62
40
  6
CONTINUOUS
 10
5.4201841213
 20
5.1013335993
 11
5.5851841213
 21
5.0830002659
  0
LINE
  5
3C0
100
AcDbEntity
  8
03__ASM_ALL_CURVES
100
AcDbLine
 62
40
  6
CONTINUOUS
 10
5.4201841213
 20
5.1036252659
 11
5.5851841213
 21
5.0807085993
  0
LINE
  5
3C1
100
AcDbEntity
  8
03__ASM_ALL_CURVES
100
AcDbLine
 62
40
  6
CONTINUOUS
 10
5.5851841213
 20
5.0784169326
 11
5.4201841213
 21
5.1059169326
  0
LINE
  5
3C2
100
AcDbEntity
  8
03__ASM_ALL_CURVES
100
AcDbLine
 62
40
  6
CONTINUOUS
 10
5.7630747459
 20
5.1196669326
 11
5.7544809959
 21
5.1253960994
  0
LINE
  5
3C3
100
AcDbEntity
  8
03__ASM_ALL_CURVES
100
AcDbLine
 62
40
  6
CONTINUOUS
 10
5.7029184959
 20
5.1884169326
 11
5.7115122459
 21
5.1826877673
  0
LINE
  5
3C4
100
AcDbEntity
  8
03__ASM_ALL_CURVES
100
AcDbLine
 62
40
  6
CONTINUOUS
 10
5.7716684959
 20
5.1884169326
 11
5.7802622459
 21
5.1826877673
  0
LINE
  5
3C5
100
AcDbEntity
  8
03__ASM_ALL_CURVES
100
AcDbLine
 62
40
  6
CONTINUOUS
 10
6.0982309959
 20
5.1253960994
 11
6.0896372459
 21
5.1368544326
  0
LINE
  5
3C6
100
AcDbEntity
  8
03__ASM_ALL_CURVES
100
AcDbLine
 62
40
  6
CONTINUOUS
 10
6.3646372459
 20
5.1368544326
 11
6.3603403709
 21
5.1540419326
  0
LINE
  5
3C7
100
AcDbEntity
  8
0
100
AcDbLine
 62
7
  6
CONTINUOUS
 10
6.6216841213
 20
4.7030429326
 11
6.6216841213
 21
3.8300429326
  0
LINE
  5
3C8
100
AcDbEntity
  8
03__ASM_ALL_CURVES
100
AcDbLine
 62
40
  6
CONTINUOUS
 10
6.6439341209
 20
5.1196669326
 11
6.6439341209
 21
5.1884169326
  0
LINE
  5
3C9
100
AcDbEntity
  8
0
100
AcDbLine
 62
7
  6
CONTINUOUS
 10
6.6716841213
 20
3.8305435955
 11
6.6716841213
 21
4.7025422697
  0
LINE
  5
3CA
100
AcDbEntity
  8
03__ASM_ALL_CURVES
100
AcDbLine
 62
40
  6
CONTINUOUS
 10
6.2124497584
 20
3.4993554336
 11
6.2092271021
 21
3.4950585566
  0
LINE
  5
3CB
100
AcDbEntity
  8
03__ASM_ALL_CURVES
100
AcDbLine
 62
40
  6
CONTINUOUS
 10
6.1592759242
 20
3.4245898076
 11
6.1657212367
 21
3.4331835586
  0
LINE
  5
3CC
100
AcDbEntity
  8
03__ASM_ALL_CURVES
100
AcDbLine
 62
40
  6
CONTINUOUS
 10
6.2350083521
 20
3.5036523076
 11
6.2414536646
 21
3.5122460586
  0
LINE
  5
3CD
100
AcDbEntity
  8
03__ASM_ALL_CURVES
100
AcDbLine
 62
40
  6
CONTINUOUS
 10
6.1915024867
 20
3.3988085576
 11
6.1850571742
 21
3.3902148077
  0
LINE
  5
3CE
100
AcDbEntity
  8
03__ASM_ALL_CURVES
100
AcDbLine
 62
40
  6
CONTINUOUS
 10
6.2672349146
 20
3.4778710576
 11
6.2607896021
 21
3.4692773077
  0
LINE
  5
3CF
100
AcDbEntity
  8
03__ASM_ALL_CURVES
100
AcDbLine
 62
40
  6
CONTINUOUS
 10
6.3155747584
 20
3.4993554336
 11
6.3123521021
 21
3.4950585566
  0
LINE
  5
3D0
100
AcDbEntity
  8
03__ASM_ALL_CURVES
100
AcDbLine
 62
40
  6
CONTINUOUS
 10
6.2398423304
 20
3.3945116829
 11
6.2366196742
 21
3.3902148077
  0
LINE
  5
3D1
100
AcDbEntity
  8
03__ASM_ALL_CURVES
100
AcDbLine
 62
40
  6
CONTINUOUS
 10
7.2752427152
 20
4.3103710566
 11
7.2687974027
 21
4.3060741826
  0
LINE
  5
3D2
100
AcDbEntity
  8
03__ASM_ALL_CURVES
100
AcDbLine
 62
40
  6
CONTINUOUS
 10
7.3074692777
 20
4.3275585586
 11
7.3139145902
 21
4.3318554326
  0
LINE
  5
3D3
100
AcDbEntity
  8
03__ASM_ALL_CURVES
100
AcDbLine
 62
40
  6
CONTINUOUS
 10
7.3268052152
 20
4.2845898077
 11
7.3203599027
 21
4.2802929326
  0
LINE
  5
3D4
100
AcDbEntity
  8
03__ASM_ALL_CURVES
100
AcDbLine
 62
40
  6
CONTINUOUS
 10
7.3783677152
 20
4.3103710566
 11
7.3719224027
 21
4.3060741826
  0
LINE
  5
3D5
100
AcDbEntity
  8
03__ASM_ALL_CURVES
100
AcDbLine
 62
40
  6
CONTINUOUS
 10
6.2092271021
 20
3.4950585566
 11
6.2027817896
 21
3.4907616826
  0
LINE
  5
3D6
100
AcDbEntity
  8
03__ASM_ALL_CURVES
100
AcDbLine
 62
40
  6
CONTINUOUS
 10
6.2414536646
 20
3.5122460586
 11
6.2478989771
 21
3.5165429326
  0
LINE
  5
3D7
100
AcDbEntity
  8
03__ASM_ALL_CURVES
100
AcDbLine
 62
40
  6
CONTINUOUS
 10
5.4201841213
 20
5.0784169326
 11
5.5851841213
 21
5.1059169326
  0
LINE
  5
3D8
100
AcDbEntity
  8
03__ASM_ALL_CURVES
100
AcDbLine
 62
40
  6
CONTINUOUS
 10
5.4201841213
 20
5.0807085993
 11
5.5851841213
 21
5.1036252659
  0
LINE
  5
3D9
100
AcDbEntity
  8
03__ASM_ALL_CURVES
100
AcDbLine
 62
40
  6
CONTINUOUS
 10
5.4201841213
 20
5.0830002659
 11
5.5851841213
 21
5.1013335993
  0
LINE
  5
3DA
100
AcDbEntity
  8
03__ASM_ALL_CURVES
100
AcDbLine
 62
40
  6
CONTINUOUS
 10
5.4201841213
 20
5.0852919326
 11
5.5851841213
 21
5.0990419326
  0
LINE
  5
3DB
100
AcDbEntity
  8
03__ASM_ALL_CURVES
100
AcDbLine
 62
40
  6
CONTINUOUS
 10
5.4201841213
 20
5.0875835993
 11
5.5851841213
 21
5.0967502659
  0
LINE
  5
3DC
100
AcDbEntity
  8
03__ASM_ALL_CURVES
100
AcDbLine
 62
40
  6
CONTINUOUS
 10
4.2101841213
 20
5.0967502659
 11
4.1276841213
 21
5.0921669326
  0
LINE
  5
3DD
100
AcDbEntity
  8
03__ASM_ALL_CURVES
100
AcDbLine
 62
40
  6
CONTINUOUS
 10
5.4201841213
 20
5.0898752659
 11
5.5851841213
 21
5.0944585993
  0
LINE
  5
3DE
100
AcDbEntity
  8
03__ASM_ALL_CURVES
100
AcDbLine
 62
40
  6
CONTINUOUS
 10
4.2101841213
 20
5.0944585993
 11
4.1276841213
 21
5.0921669326
  0
LINE
  5
3DF
100
AcDbEntity
  8
03__ASM_ALL_CURVES
100
AcDbLine
 62
40
  6
CONTINUOUS
 10
4.1276841213
 20
5.0921669326
 11
6.8226841213
 21
5.0921669326
  0
LINE
  5
3E0
100
AcDbEntity
  8
03__ASM_ALL_CURVES
100
AcDbLine
 62
40
  6
CONTINUOUS
 10
6.6783091209
 20
5.1196669326
 11
6.6439341209
 21
5.1196669326
  0
LINE
  5
3E1
100
AcDbEntity
  8
03__ASM_ALL_CURVES
100
AcDbLine
 62
40
  6
CONTINUOUS
 10
6.5923716209
 20
5.1196669326
 11
6.5751841209
 21
5.1196669326
  0
LINE
  5
3E2
100
AcDbEntity
  8
03__ASM_ALL_CURVES
100
AcDbLine
 62
40
  6
CONTINUOUS
 10
6.4591684959
 20
5.1196669326
 11
6.4505747459
 21
5.1196669326
  0
LINE
  5
3E3
100
AcDbEntity
  8
03__ASM_ALL_CURVES
100
AcDbLine
 62
40
  6
CONTINUOUS
 10
6.3904184959
 20
5.1196669326
 11
6.3818247459
 21
5.1196669326
  0
LINE
  5
3E4
100
AcDbEntity
  8
03__ASM_ALL_CURVES
100
AcDbLine
 62
40
  6
CONTINUOUS
 10
6.2529184959
 20
5.1196669326
 11
6.2443247459
 21
5.1196669326
  0
LINE
  5
3E5
100
AcDbEntity
  8
03__ASM_ALL_CURVES
100
AcDbLine
 62
40
  6
CONTINUOUS
 10
6.1154184959
 20
5.1196669326
 11
6.1068247459
 21
5.1196669326
  0
LINE
  5
3E6
100
AcDbEntity
  8
03__ASM_ALL_CURVES
100
AcDbLine
 62
40
  6
CONTINUOUS
 10
5.7716684959
 20
5.1196669326
 11
5.7630747459
 21
5.1196669326
  0
LINE
  5
3E7
100
AcDbEntity
  8
03__ASM_ALL_CURVES
100
AcDbLine
 62
40
  6
CONTINUOUS
 10
5.7029184959
 20
5.1196669326
 11
5.6943247459
 21
5.1196669326
  0
LINE
  5
3E8
100
AcDbEntity
  8
03__ASM_ALL_CURVES
100
AcDbLine
 62
40
  6
CONTINUOUS
 10
4.9526841213
 20
5.1196669326
 11
4.9483872463
 21
5.1196669326
  0
LINE
  5
3E9
100
AcDbEntity
  8
03__ASM_ALL_CURVES
100
AcDbLine
 62
40
  6
CONTINUOUS
 10
4.8194809963
 20
5.1196669326
 11
4.8108872463
 21
5.1196669326
  0
LINE
  5
3EA
100
AcDbEntity
  8
03__ASM_ALL_CURVES
100
AcDbLine
 62
40
  6
CONTINUOUS
 10
4.6132309963
 20
5.1196669326
 11
4.6046372463
 21
5.1196669326
  0
LINE
  5
3EB
100
AcDbEntity
  8
03__ASM_ALL_CURVES
100
AcDbLine
 62
40
  6
CONTINUOUS
 10
4.5401841213
 20
5.1196669326
 11
4.5358872463
 21
5.1196669326
  0
LINE
  5
3EC
100
AcDbEntity
  8
03__ASM_ALL_CURVES
100
AcDbLine
 62
40
  6
CONTINUOUS
 10
5.6126841209
 20
5.1196669326
 11
5.6470591209
 21
5.1196669326
  0
LINE
  5
3ED
100
AcDbEntity
  8
03__ASM_ALL_CURVES
100
AcDbLine
 62
40
  6
CONTINUOUS
 10
6.5064341209
 20
5.1196669326
 11
6.5408091209
 21
5.1196669326
  0
LINE
  5
3EE
100
AcDbEntity
  8
03__ASM_ALL_CURVES
100
AcDbLine
 62
40
  6
CONTINUOUS
 10
4.8667466213
 20
5.1368544326
 11
4.9054184963
 21
5.1368544326
  0
LINE
  5
3EF
100
AcDbEntity
  8
03__ASM_ALL_CURVES
100
AcDbLine
 62
40
  6
CONTINUOUS
 10
5.8232309959
 20
5.1425835999
 11
5.8490122459
 21
5.1425835999
  0
LINE
  5
3F0
100
AcDbEntity
  8
03__ASM_ALL_CURVES
100
AcDbLine
 62
40
  6
CONTINUOUS
 10
6.7341684959
 20
5.1540419326
 11
6.7126841209
 21
5.1540419326
  0
LINE
  5
3F1
100
AcDbEntity
  8
03__ASM_ALL_CURVES
100
AcDbLine
 62
40
  6
CONTINUOUS
 10
6.1111216209
 20
5.1540419326
 11
6.1283091209
 21
5.1540419326
  0
LINE
  5
3F2
100
AcDbEntity
  8
03__ASM_ALL_CURVES
100
AcDbLine
 62
40
  6
CONTINUOUS
 10
6.3001841209
 20
5.1540419326
 11
6.3345591209
 21
5.1540419326
  0
LINE
  5
3F3
100
AcDbEntity
  8
03__ASM_ALL_CURVES
100
AcDbLine
 62
40
  6
CONTINUOUS
 10
6.6439341209
 20
5.1540419326
 11
6.6654184959
 21
5.1540419326
  0
LINE
  5
3F4
100
AcDbEntity
  8
03__ASM_ALL_CURVES
100
AcDbLine
 62
40
  6
CONTINUOUS
 10
4.6046372463
 20
5.1597710979
 11
4.6132309963
 21
5.1597710979
  0
LINE
  5
3F5
100
AcDbEntity
  8
03__ASM_ALL_CURVES
100
AcDbLine
 62
40
  6
CONTINUOUS
 10
4.8108872463
 20
5.1597710979
 11
4.8194809963
 21
5.1597710979
  0
LINE
  5
3F6
100
AcDbEntity
  8
03__ASM_ALL_CURVES
100
AcDbLine
 62
40
  6
CONTINUOUS
 10
6.2529184959
 20
5.1884169326
 11
6.2443247459
 21
5.1884169326
  0
LINE
  5
3F7
100
AcDbEntity
  8
03__ASM_ALL_CURVES
100
AcDbLine
 62
40
  6
CONTINUOUS
 10
5.0386216213
 20
5.1884169326
 11
5.0042466213
 21
5.1884169326
  0
LINE
  5
3F8
100
AcDbEntity
  8
03__ASM_ALL_CURVES
100
AcDbLine
 62
40
  6
CONTINUOUS
 10
4.6948716213
 20
5.1884169326
 11
4.6604966213
 21
5.1884169326
  0
LINE
  5
3F9
100
AcDbEntity
  8
03__ASM_ALL_CURVES
100
AcDbLine
 62
40
  6
CONTINUOUS
 10
4.6046372463
 20
5.1884169326
 11
4.6132309963
 21
5.1884169326
  0
LINE
  5
3FA
100
AcDbEntity
  8
03__ASM_ALL_CURVES
100
AcDbLine
 62
40
  6
CONTINUOUS
 10
4.8108872463
 20
5.1884169326
 11
4.8194809963
 21
5.1884169326
  0
LINE
  5
3FB
100
AcDbEntity
  8
03__ASM_ALL_CURVES
100
AcDbLine
 62
40
  6
CONTINUOUS
 10
5.6943247459
 20
5.1884169326
 11
5.7029184959
 21
5.1884169326
  0
LINE
  5
3FC
100
AcDbEntity
  8
03__ASM_ALL_CURVES
100
AcDbLine
 62
40
  6
CONTINUOUS
 10
5.7630747459
 20
5.1884169326
 11
5.7716684959
 21
5.1884169326
  0
LINE
  5
3FD
100
AcDbEntity
  8
03__ASM_ALL_CURVES
100
AcDbLine
 62
40
  6
CONTINUOUS
 10
5.8833872459
 20
5.1884169326
 11
5.9263559959
 21
5.1884169326
  0
LINE
  5
3FE
100
AcDbEntity
  8
03__ASM_ALL_CURVES
100
AcDbLine
 62
40
  6
CONTINUOUS
 10
6.1068247459
 20
5.1884169326
 11
6.1154184959
 21
5.1884169326
  0
LINE
  5
3FF
100
AcDbEntity
  8
03__ASM_ALL_CURVES
100
AcDbLine
 62
40
  6
CONTINUOUS
 10
6.3818247459
 20
5.1884169326
 11
6.3904184959
 21
5.1884169326
  0
LINE
  5
400
100
AcDbEntity
  8
03__ASM_ALL_CURVES
100
AcDbLine
 62
40
  6
CONTINUOUS
 10
6.5751841209
 20
5.1884169326
 11
6.5923716209
 21
5.1884169326
  0
LINE
  5
401
100
AcDbEntity
  8
03__ASM_ALL_CURVES
100
AcDbLine
 62
40
  6
CONTINUOUS
 10
6.6439341209
 20
5.1884169326
 11
6.6783091209
 21
5.1884169326
  0
LINE
  5
402
100
AcDbEntity
  8
03__ASM_ALL_CURVES
100
AcDbLine
 62
40
  6
CONTINUOUS
 10
6.7126841209
 20
5.1884169326
 11
6.7341684959
 21
5.1884169326
  0
LINE
  5
403
100
AcDbEntity
  8
03__ASM_ALL_CURVES
100
AcDbLine
 62
40
  6
CONTINUOUS
 10
5.4201841213
 20
5.0944585993
 11
5.5851841213
 21
5.0898752659
  0
LINE
  5
404
100
AcDbEntity
  8
03__ASM_ALL_CURVES
100
AcDbLine
 62
40
  6
CONTINUOUS
 10
5.4201841213
 20
5.0967502659
 11
5.5851841213
 21
5.0875835993
  0
LINE
  5
405
100
AcDbEntity
  8
03__ASM_ALL_CURVES
100
AcDbLine
 62
40
  6
CONTINUOUS
 10
5.4201841213
 20
5.0990419326
 11
5.5851841213
 21
5.0852919326
  0
LINE
  5
406
100
AcDbEntity
  8
03__ASM_ALL_CURVES
100
AcDbLine
 62
40
  6
CONTINUOUS
 10
7.3139145902
 20
4.2802929326
 11
7.3074692777
 21
4.2845898077
  0
LINE
  5
407
100
AcDbEntity
  8
03__ASM_ALL_CURVES
100
AcDbLine
 62
40
  6
CONTINUOUS
 10
7.2687974027
 20
4.3318554326
 11
7.2752427152
 21
4.3275585586
  0
LINE
  5
408
100
AcDbEntity
  8
03__ASM_ALL_CURVES
100
AcDbLine
 62
40
  6
CONTINUOUS
 10
6.1068247459
 20
5.1196669326
 11
6.0982309959
 21
5.1253960994
  0
LINE
  5
409
100
AcDbEntity
  8
03__ASM_ALL_CURVES
100
AcDbLine
 62
40
  6
CONTINUOUS
 10
7.3203599027
 20
4.3318554326
 11
7.3268052152
 21
4.3275585586
  0
LINE
  5
40A
100
AcDbEntity
  8
03__ASM_ALL_CURVES
100
AcDbLine
 62
40
  6
CONTINUOUS
 10
6.1240122459
 20
5.1826877673
 11
6.1283091209
 21
5.1769585979
  0
LINE
  5
40B
100
AcDbEntity
  8
03__ASM_ALL_CURVES
100
AcDbLine
 62
40
  6
CONTINUOUS
 10
6.2357309959
 20
5.1253960994
 11
6.2271372459
 21
5.1368544326
  0
LINE
  5
40C
100
AcDbEntity
  8
03__ASM_ALL_CURVES
100
AcDbLine
 62
40
  6
CONTINUOUS
 10
6.2314341209
 20
5.1712294326
 11
6.2357309959
 21
5.1655002673
  0
LINE
  5
40D
100
AcDbEntity
  8
03__ASM_ALL_CURVES
100
AcDbLine
 62
40
  6
CONTINUOUS
 10
6.2615122459
 20
5.1483127652
 11
6.2658091209
 21
5.1425835999
  0
LINE
  5
40E
100
AcDbEntity
  8
03__ASM_ALL_CURVES
100
AcDbLine
 62
40
  6
CONTINUOUS
 10
6.4076059959
 20
5.1712294326
 11
6.4119028709
 21
5.1540419326
  0
LINE
  5
40F
100
AcDbEntity
  8
03__ASM_ALL_CURVES
100
AcDbLine
 62
40
  6
CONTINUOUS
 10
6.7126841209
 20
5.1196669326
 11
6.7126841209
 21
5.1884169326
  0
LINE
  5
410
100
AcDbEntity
  8
0
100
AcDbLine
 62
7
  6
CONTINUOUS
 10
6.7416841213
 20
3.8305435955
 11
6.7416841213
 21
4.7025422697
  0
LINE
  5
411
100
AcDbEntity
  8
03__ASM_ALL_CURVES
100
AcDbLine
 62
40
  6
CONTINUOUS
 10
6.7470591209
 20
5.1769585979
 11
6.7470591209
 21
5.1655002673
  0
LINE
  5
412
100
AcDbEntity
  8
0
100
AcDbLine
 62
7
  6
CONTINUOUS
 10
6.7916841213
 20
3.8305435955
 11
6.7916841213
 21
4.7025422697
  0
LINE
  5
413
100
AcDbEntity
  8
0
100
AcDbLine
 62
7
  6
CONTINUOUS
 10
6.8196841213
 20
4.7030429326
 11
6.8196841213
 21
3.8300429326
  0
LINE
  5
414
100
AcDbEntity
  8
03__ASM_ALL_CURVES
100
AcDbLine
 62
40
  6
CONTINUOUS
 10
6.3929185084
 20
3.5079491816
 11
6.3961411646
 21
3.5122460586
  0
LINE
  5
415
100
AcDbEntity
  8
03__ASM_ALL_CURVES
100
AcDbLine
 62
40
  6
CONTINUOUS
 10
6.4025864771
 20
3.4864648071
 11
6.3961411646
 21
3.4778710576
  0
LINE
  5
416
100
AcDbEntity
  8
03__ASM_ALL_CURVES
100
AcDbLine
 62
40
  6
CONTINUOUS
 10
6.4186997584
 20
3.4993554336
 11
6.4154771021
 21
3.4950585566
  0
LINE
  5
417
100
AcDbEntity
  8
03__ASM_ALL_CURVES
100
AcDbLine
 62
40
  6
CONTINUOUS
 10
6.1657212367
 20
3.4331835586
 11
6.1721665492
 21
3.4374804326
  0
LINE
  5
418
100
AcDbEntity
  8
03__ASM_ALL_CURVES
100
AcDbLine
 62
40
  6
CONTINUOUS
 10
6.2607896021
 20
3.4692773077
 11
6.2543442896
 21
3.4649804326
  0
LINE
  5
419
100
AcDbEntity
  8
03__ASM_ALL_CURVES
100
AcDbLine
 62
40
  6
CONTINUOUS
 10
6.3123521021
 20
3.4950585566
 11
6.3059067896
 21
3.4907616826
  0
LINE
  5
41A
100
AcDbEntity
  8
03__ASM_ALL_CURVES
100
AcDbLine
 62
40
  6
CONTINUOUS
 10
6.1850571742
 20
3.3902148077
 11
6.1786118617
 21
3.3859179326
  0
LINE
  5
41B
100
AcDbEntity
  8
03__ASM_ALL_CURVES
100
AcDbLine
 62
40
  6
CONTINUOUS
 10
6.3961411646
 20
3.5122460586
 11
6.4025864771
 21
3.5165429326
  0
LINE
  5
41C
100
AcDbEntity
  8
03__ASM_ALL_CURVES
100
AcDbLine
 62
40
  6
CONTINUOUS
 10
6.2366196742
 20
3.3902148077
 11
6.2301743617
 21
3.3859179326
  0
LINE
  5
41D
100
AcDbEntity
  8
03__ASM_ALL_CURVES
100
AcDbLine
 62
40
  6
CONTINUOUS
 10
6.4154771021
 20
3.4950585566
 11
6.4025864771
 21
3.4864648071
  0
LINE
  5
41E
100
AcDbEntity
  8
03__ASM_ALL_CURVES
100
AcDbLine
 62
40
  6
CONTINUOUS
 10
4.2101841213
 20
5.1036252659
 11
4.1276841213
 21
5.0921669326
  0
LINE
  5
41F
100
AcDbEntity
  8
03__ASM_ALL_CURVES
100
AcDbLine
 62
40
  6
CONTINUOUS
 10
4.2101841213
 20
5.1013335993
 11
4.1276841213
 21
5.0921669326
  0
LINE
  5
420
100
AcDbEntity
  8
03__ASM_ALL_CURVES
100
AcDbLine
 62
40
  6
CONTINUOUS
 10
4.2101841213
 20
5.0990419326
 11
4.1276841213
 21
5.0921669326
  0
LINE
  5
421
100
AcDbEntity
  8
03__ASM_ALL_CURVES
100
AcDbLine
 62
40
  6
CONTINUOUS
 10
7.3719224027
 20
4.3318554326
 11
7.3783677152
 21
4.3275585586
  0
LINE
  5
422
100
AcDbEntity
  8
03__ASM_ALL_CURVES
100
AcDbLine
 62
40
  6
CONTINUOUS
 10
6.1154184959
 20
5.1884169326
 11
6.1240122459
 21
5.1826877673
  0
LINE
  5
423
100
AcDbEntity
  8
03__ASM_ALL_CURVES
100
AcDbLine
 62
40
  6
CONTINUOUS
 10
6.2443247459
 20
5.1196669326
 11
6.2357309959
 21
5.1253960994
  0
LINE
  5
424
100
AcDbEntity
  8
03__ASM_ALL_CURVES
100
AcDbLine
 62
40
  6
CONTINUOUS
 10
6.2357309959
 20
5.1655002673
 11
6.2615122459
 21
5.1483127652
  0
LINE
  5
425
100
AcDbEntity
  8
03__ASM_ALL_CURVES
100
AcDbLine
 62
40
  6
CONTINUOUS
 10
6.2615122459
 20
5.1826877673
 11
6.2529184959
 21
5.1884169326
  0
LINE
  5
426
100
AcDbEntity
  8
03__ASM_ALL_CURVES
100
AcDbLine
 62
40
  6
CONTINUOUS
 10
6.3818247459
 20
5.1196669326
 11
6.3732309959
 21
5.1253960994
  0
LINE
  5
427
100
AcDbEntity
  8
03__ASM_ALL_CURVES
100
AcDbLine
 62
40
  6
CONTINUOUS
 10
6.2658091209
 20
5.1769585979
 11
6.2615122459
 21
5.1826877673
  0
LINE
  5
428
100
AcDbEntity
  8
03__ASM_ALL_CURVES
100
AcDbLine
 62
40
  6
CONTINUOUS
 10
6.3732309959
 20
5.1253960994
 11
6.3646372459
 21
5.1368544326
  0
LINE
  5
429
100
AcDbEntity
  8
03__ASM_ALL_CURVES
100
AcDbLine
 62
40
  6
CONTINUOUS
 10
6.3990122459
 20
5.1826877673
 11
6.4076059959
 21
5.1712294326
  0
LINE
  5
42A
100
AcDbEntity
  8
03__ASM_ALL_CURVES
100
AcDbLine
 62
40
  6
CONTINUOUS
 10
6.4419809959
 20
5.1253960994
 11
6.4376841209
 21
5.1311252663
  0
LINE
  5
42B
100
AcDbEntity
  8
03__ASM_ALL_CURVES
100
AcDbLine
 62
40
  6
CONTINUOUS
 10
6.6095591209
 20
5.1712294326
 11
6.6138559959
 21
5.1540419326
  0
LINE
  5
42C
100
AcDbEntity
  8
0
100
AcDbLine
 62
7
  6
CONTINUOUS
 10
6.8616841213
 20
3.8300429326
 11
6.8616841213
 21
4.7030429326
  0
LINE
  5
42D
100
AcDbEntity
  8
0
100
AcDbLine
 62
7
  6
CONTINUOUS
 10
6.8776841213
 20
3.8460429326
 11
6.8776841213
 21
4.6870429326
  0
LINE
  5
42E
100
AcDbEntity
  8
0
100
AcDbLine
 62
7
  6
CONTINUOUS
 10
6.8616841213
 20
3.8300429326
 11
6.8776841213
 21
3.8460429326
  0
LINE
  5
42F
100
AcDbEntity
  8
03__ASM_ALL_CURVES
100
AcDbLine
 62
40
  6
CONTINUOUS
 10
4.1276841213
 20
5.0921669326
 11
4.2101841213
 21
5.1059169326
  0
LINE
  5
430
100
AcDbEntity
  8
03__ASM_ALL_CURVES
100
AcDbLine
 62
40
  6
CONTINUOUS
 10
6.4505747459
 20
5.1196669326
 11
6.4419809959
 21
5.1253960994
  0
LINE
  5
431
100
AcDbEntity
  8
03__ASM_ALL_CURVES
100
AcDbLine
 62
40
  6
CONTINUOUS
 10
6.3904184959
 20
5.1884169326
 11
6.3990122459
 21
5.1826877673
  0
LINE
  5
432
100
AcDbEntity
  8
0
100
AcDbLine
 62
7
  6
CONTINUOUS
 10
6.8616841213
 20
4.7030429326
 11
6.8776841213
 21
4.6870429326
  0
LINE
  5
433
100
AcDbEntity
  8
03__ASM_ALL_CURVES
100
AcDbLine
 62
40
  6
CONTINUOUS
 10
7.2784653714
 20
4.3146679336
 11
7.2752427152
 21
4.3103710566
  0
LINE
  5
434
100
AcDbEntity
  8
03__ASM_ALL_CURVES
100
AcDbLine
 62
40
  6
CONTINUOUS
 10
7.3010239652
 20
4.3189648076
 11
7.3074692777
 21
4.3275585586
  0
LINE
  5
435
100
AcDbEntity
  8
03__ASM_ALL_CURVES
100
AcDbLine
 62
40
  6
CONTINUOUS
 10
7.3332505277
 20
4.2931835576
 11
7.3268052152
 21
4.2845898077
  0
LINE
  5
436
100
AcDbEntity
  8
03__ASM_ALL_CURVES
100
AcDbLine
 62
40
  6
CONTINUOUS
 10
7.3815903714
 20
4.3146679336
 11
7.3783677152
 21
4.3103710566
  0
LINE
  5
437
100
AcDbEntity
  8
03__ASM_ALL_CURVES
100
AcDbLine
 62
40
  6
CONTINUOUS
 10
6.5923716209
 20
5.1884169326
 11
6.6009653709
 21
5.1826877673
  0
LINE
  5
438
100
AcDbEntity
  8
03__ASM_ALL_CURVES
100
AcDbLine
 62
40
  6
CONTINUOUS
 10
6.7341684959
 20
5.1884169326
 11
6.7427622459
 21
5.1826877673
  0
LINE
  5
439
100
AcDbEntity
  8
03__ASM_ALL_CURVES
100
AcDbLine
 62
40
  6
CONTINUOUS
 10
6.6009653709
 20
5.1826877673
 11
6.6095591209
 21
5.1712294326
  0
LINE
  5
43A
100
AcDbEntity
  8
03__ASM_ALL_CURVES
100
AcDbLine
 62
40
  6
CONTINUOUS
 10
7.3074692777
 20
4.2845898077
 11
7.3010239652
 21
4.2931835576
  0
LINE
  5
43B
100
AcDbEntity
  8
03__ASM_ALL_CURVES
100
AcDbLine
 62
40
  6
CONTINUOUS
 10
7.2752427152
 20
4.3275585586
 11
7.2784653714
 21
4.3232616816
  0
LINE
  5
43C
100
AcDbEntity
  8
03__ASM_ALL_CURVES
100
AcDbLine
 62
40
  6
CONTINUOUS
 10
7.3268052152
 20
4.3275585586
 11
7.3332505277
 21
4.3189648076
  0
LINE
  5
43D
100
AcDbEntity
  8
03__ASM_ALL_CURVES
100
AcDbLine
 62
40
  6
CONTINUOUS
 10
6.7341684959
 20
5.1540419326
 11
6.7470591209
 21
5.1196669326
  0
LINE
  5
43E
100
AcDbEntity
  8
03__ASM_ALL_CURVES
100
AcDbLine
 62
40
  6
CONTINUOUS
 10
7.3783677152
 20
4.3275585586
 11
7.3815903714
 21
4.3232616816
  0
LINE
  5
43F
100
AcDbEntity
  8
03__ASM_ALL_CURVES
100
AcDbLine
 62
40
  6
CONTINUOUS
 10
6.7427622459
 20
5.1826877673
 11
6.7470591209
 21
5.1769585979
  0
LINE
  5
440
100
AcDbEntity
  8
03__ASM_ALL_CURVES
100
AcDbLine
 62
40
  6
CONTINUOUS
 10
7.2913559966
 20
4.2527929326
 11
7.3171372466
 21
4.2012304326
  0
LINE
  5
441
100
AcDbEntity
  8
03__ASM_ALL_CURVES
100
AcDbLine
 62
40
  6
CONTINUOUS
 10
7.2526841216
 20
4.2527929326
 11
7.2526841216
 21
4.2012304326
  0
LINE
  5
442
100
AcDbEntity
  8
03__ASM_ALL_CURVES
100
AcDbLine
 62
40
  6
CONTINUOUS
 10
7.2526841214
 20
4.2802929326
 11
7.2526841214
 21
4.3318554326
  0
LINE
  5
443
100
AcDbEntity
  8
03__ASM_ALL_CURVES
100
AcDbLine
 62
40
  6
CONTINUOUS
 10
7.2784653714
 20
4.3232616816
 11
7.2784653714
 21
4.3146679336
  0
LINE
  5
444
100
AcDbEntity
  8
03__ASM_ALL_CURVES
100
AcDbLine
 62
40
  6
CONTINUOUS
 10
7.2913559966
 20
4.2012304326
 11
7.2913559966
 21
4.2527929326
  0
LINE
  5
445
100
AcDbEntity
  8
03__ASM_ALL_CURVES
100
AcDbLine
 62
40
  6
CONTINUOUS
 10
7.3171372466
 20
4.2012304326
 11
7.3171372466
 21
4.2527929326
  0
LINE
  5
446
100
AcDbEntity
  8
03__ASM_ALL_CURVES
100
AcDbLine
 62
40
  6
CONTINUOUS
 10
7.2978013089
 20
4.3060741826
 11
7.3010239652
 21
4.3189648076
  0
LINE
  5
447
100
AcDbEntity
  8
03__ASM_ALL_CURVES
100
AcDbLine
 62
40
  6
CONTINUOUS
 10
7.3364731839
 20
4.3060741826
 11
7.3332505277
 21
4.2931835576
  0
LINE
  5
448
100
AcDbEntity
  8
03__ASM_ALL_CURVES
100
AcDbLine
 62
40
  6
CONTINUOUS
 10
7.3719224027
 20
4.3060741826
 11
7.3815903714
 21
4.2802929326
  0
LINE
  5
449
100
AcDbEntity
  8
03__ASM_ALL_CURVES
100
AcDbLine
 62
40
  6
CONTINUOUS
 10
7.3010239652
 20
4.2931835576
 11
7.2978013089
 21
4.3060741826
  0
LINE
  5
44A
100
AcDbEntity
  8
03__ASM_ALL_CURVES
100
AcDbLine
 62
40
  6
CONTINUOUS
 10
7.3332505277
 20
4.3189648076
 11
7.3364731839
 21
4.3060741826
  0
LINE
  5
44B
100
AcDbEntity
  8
03__ASM_ALL_CURVES
100
AcDbLine
 62
40
  6
CONTINUOUS
 10
7.3429184966
 20
4.2527929326
 11
7.3429184966
 21
4.2012304326
  0
LINE
  5
44C
100
AcDbEntity
  8
03__ASM_ALL_CURVES
100
AcDbLine
 62
40
  6
CONTINUOUS
 10
7.3558091214
 20
4.2802929326
 11
7.3558091214
 21
4.3318554326
  0
LINE
  5
44D
100
AcDbEntity
  8
03__ASM_ALL_CURVES
100
AcDbLine
 62
40
  6
CONTINUOUS
 10
7.3815903714
 20
4.3232616816
 11
7.3815903714
 21
4.3146679336
  0
LINE
  5
44E
100
AcDbEntity
  8
03__ASM_ALL_CURVES
100
AcDbLine
 62
40
  6
CONTINUOUS
 10
7.3944809966
 20
4.2012304326
 11
7.3944809966
 21
4.2527929326
  0
LINE
  5
44F
100
AcDbEntity
  8
03__ASM_ALL_CURVES
100
AcDbLine
 62
40
  6
CONTINUOUS
 10
7.4202622464
 20
4.3318554326
 11
7.4202622464
 21
4.2802929326
  0
LINE
  5
450
100
AcDbEntity
  8
03__ASM_ALL_CURVES
100
AcDbLine
 62
40
  6
CONTINUOUS
 10
7.4589341216
 20
4.2527929326
 11
7.4589341216
 21
4.2012304326
  0
LINE
  5
451
100
AcDbEntity
  8
03__ASM_ALL_CURVES
100
AcDbLine
 62
40
  6
CONTINUOUS
 10
7.4718247464
 20
4.3318554326
 11
7.4718247464
 21
4.2802929326
  0
CIRCLE
  5
452
100
AcDbEntity
  8
0
100
AcDbCircle
 62
7
  6
CONTINUOUS
 10
6.4396841213
 20
4.2665429326
 40
0.1095
  0
ARC
  5
453
100
AcDbEntity
  8
THREAD
100
AcDbCircle
 62
7
  6
CONTINUOUS
 10
5.6834672429
 20
3.7960429326
 40
0.0125
100
AcDbArc
 50
29.9999999998
 51
90.0
  0
ARC
  5
454
100
AcDbEntity
  8
THREAD
100
AcDbCircle
 62
7
  6
CONTINUOUS
 10
5.6834672429
 20
4.7370429326
 40
0.0125
100
AcDbArc
 50
270.0
 51
330.0000000054
  0
SPLINE
  5
455
100
AcDbEntity
  8
0
100
AcDbSpline
 62
7
  6
CONTINUOUS
 70
0
 71
3
 72
15
 73
11
 74
9
 42
0.0000001
 43
0.0000001
 44
0.0000000001
 12
0.0
 22
0.1099409465
 32
0.0
 13
0.0
 23
-0.1099409465
 33
0.0
 40
0.0
 40
0.0
 40
0.0
 40
0.0
 40
0.125
 40
0.25
 40
0.375
 40
0.5
 40
0.625
 40
0.75
 40
0.875
 40
1.0
 40
1.0
 40
1.0
 40
1.0
 10
6.7416841213
 20
4.6835429326
 30
0.0
 10
6.7416841213
 20
4.6881238054
 30
0.0
 10
6.7398617368
 20
4.6972855509
 30
0.0
 10
6.7320771688
 20
4.7089359802
 30
0.0
 10
6.7204267396
 20
4.7167205481
 30
0.0
 10
6.7066841213
 20
4.7194541248
 30
0.0
 10
6.6929415029
 20
4.7167205481
 30
0.0
 10
6.6812910737
 20
4.7089359802
 30
0.0
 10
6.6735065057
 20
4.6972855509
 30
0.0
 10
6.6716841213
 20
4.6881238054
 30
0.0
 10
6.6716841213
 20
4.6835429326
 30
0.0
 11
6.7416841213
 21
4.6835429326
 31
0.0
 11
6.7390199049
 21
4.6969368527
 31
0.0
 11
6.7314328586
 21
4.7082916699
 31
0.0
 11
6.7200780414
 21
4.7158787162
 31
0.0
 11
6.7066841213
 21
4.7185429326
 31
0.0
 11
6.6932902011
 21
4.7158787162
 31
0.0
 11
6.6819353839
 21
4.7082916699
 31
0.0
 11
6.6743483376
 21
4.6969368527
 31
0.0
 11
6.6716841213
 21
4.6835429326
 31
0.0
  0
SPLINE
  5
456
100
AcDbEntity
  8
0
100
AcDbSpline
 62
7
  6
CONTINUOUS
 70
0
 71
3
 72
15
 73
11
 74
9
 42
0.0000001
 43
0.0000001
 44
0.0000000001
 12
0.0
 22
-0.1099409465
 32
0.0
 13
0.0
 23
0.1099409465
 33
0.0
 40
0.0
 40
0.0
 40
0.0
 40
0.0
 40
0.125
 40
0.25
 40
0.375
 40
0.5
 40
0.625
 40
0.75
 40
0.875
 40
1.0
 40
1.0
 40
1.0
 40
1.0
 10
6.7416841213
 20
3.8495429326
 30
0.0
 10
6.7416841213
 20
3.8449620598
 30
0.0
 10
6.7398617368
 20
3.8358003143
 30
0.0
 10
6.7320771688
 20
3.824149885
 30
0.0
 10
6.7204267396
 20
3.8163653171
 30
0.0
 10
6.7066841213
 20
3.8136317403
 30
0.0
 10
6.6929415029
 20
3.8163653171
 30
0.0
 10
6.6812910737
 20
3.824149885
 30
0.0
 10
6.6735065057
 20
3.8358003143
 30
0.0
 10
6.6716841213
 20
3.8449620598
 30
0.0
 10
6.6716841213
 20
3.8495429326
 30
0.0
 11
6.7416841213
 21
3.8495429326
 31
0.0
 11
6.7390199049
 21
3.8361490125
 31
0.0
 11
6.7314328586
 21
3.8247941953
 31
0.0
 11
6.7200780414
 21
3.817207149
 31
0.0
 11
6.7066841213
 21
3.8145429326
 31
0.0
 11
6.6932902011
 21
3.817207149
 31
0.0
 11
6.6819353839
 21
3.8247941953
 31
0.0
 11
6.6743483376
 21
3.8361490125
 31
0.0
 11
6.6716841213
 21
3.8495429326
 31
0.0
  0
SPLINE
  5
457
100
AcDbEntity
  8
0
100
AcDbSpline
 62
7
  6
CONTINUOUS
 70
0
 71
3
 72
14
 73
10
 74
8
 42
0.0000001
 43
0.0000001
 44
0.0000000001
 12
0.0
 22
0.0916172274
 32
0.0
 13
-0.045846371
 23
-0.079336773
 33
0.0
 40
0.0
 40
0.0
 40
0.0
 40
0.0
 40
0.1500003733
 40
0.3000007465
 40
0.4500011198
 40
0.6000014931
 40
0.7500018663
 40
0.9000022396
 40
1.0
 40
1.0
 40
1.0
 40
1.0
 10
5.6196841213
 20
4.7595429326
 30
0.0
 10
5.6196841213
 20
4.7641238054
 30
0.0
 10
5.6178617368
 20
4.7732855509
 30
0.0
 10
5.6100771688
 20
4.7849359802
 30
0.0
 10
5.5984267396
 20
4.7927205481
 30
0.0
 10
5.5846841213
 20
4.7954541248
 30
0.0
 10
5.5709415029
 20
4.7927205481
 30
0.0
 10
5.5605856303
 20
4.7858009752
 30
0.0
 10
5.555902949
 20
4.7796865433
 30
0.0
 10
5.5543747708
 20
4.7770420434
 30
0.0
 11
5.6196841213
 21
4.7595429326
 31
0.0
 11
5.6170199049
 21
4.7729368527
 31
0.0
 11
5.6094328586
 21
4.7842916699
 31
0.0
 11
5.5980780414
 21
4.7918787162
 31
0.0
 11
5.5846841213
 21
4.7945429326
 31
0.0
 11
5.5712902011
 21
4.7918787162
 31
0.0
 11
5.5599353839
 21
4.7842916699
 31
0.0
 11
5.5543747708
 21
4.7770420434
 31
0.0
  0
SPLINE
  5
458
100
AcDbEntity
  8
0
100
AcDbSpline
 62
7
  6
CONTINUOUS
 70
0
 71
3
 72
9
 73
5
 74
3
 42
0.0000001
 43
0.0000001
 44
0.0000000001
 12
-0.0091694111
 22
-0.0158675915
 32
0.0
 13
0.0
 23
-0.0183237191
 33
0.0
 40
0.0
 40
0.0
 40
0.0
 40
0.0
 40
0.2500093315
 40
1.0
 40
1.0
 40
1.0
 40
1.0
 10
5.5543747708
 20
4.7770420434
 30
0.0
 10
5.5536106247
 20
4.7757196948
 30
0.0
 10
5.5508990594
 20
4.7702317117
 30
0.0
 10
5.5496841213
 20
4.7641238054
 30
0.0
 10
5.5496841213
 20
4.7595429326
 30
0.0
 11
5.5543747708
 21
4.7770420434
 31
0.0
 11
5.5523483376
 21
4.7729368527
 31
0.0
 11
5.5496841213
 21
4.7595429326
 31
0.0
  0
SPLINE
  5
459
100
AcDbEntity
  8
0
100
AcDbSpline
 62
7
  6
CONTINUOUS
 70
0
 71
3
 72
14
 73
10
 74
8
 42
0.0000001
 43
0.0000001
 44
0.0000000001
 12
0.0
 22
-0.0916172274
 32
0.0
 13
-0.045846371
 23
0.079336773
 33
0.0
 40
0.0
 40
0.0
 40
0.0
 40
0.0
 40
0.1500003733
 40
0.3000007465
 40
0.4500011198
 40
0.6000014931
 40
0.7500018663
 40
0.9000022396
 40
1.0
 40
1.0
 40
1.0
 40
1.0
 10
5.6196841213
 20
3.7735429326
 30
0.0
 10
5.6196841213
 20
3.7689620598
 30
0.0
 10
5.6178617368
 20
3.7598003143
 30
0.0
 10
5.6100771688
 20
3.748149885
 30
0.0
 10
5.5984267396
 20
3.7403653171
 30
0.0
 10
5.5846841213
 20
3.7376317403
 30
0.0
 10
5.5709415029
 20
3.7403653171
 30
0.0
 10
5.5605856303
 20
3.74728489
 30
0.0
 10
5.555902949
 20
3.7533993219
 30
0.0
 10
5.5543747708
 20
3.7560438218
 30
0.0
 11
5.6196841213
 21
3.7735429326
 31
0.0
 11
5.6170199049
 21
3.7601490125
 31
0.0
 11
5.6094328586
 21
3.7487941953
 31
0.0
 11
5.5980780414
 21
3.741207149
 31
0.0
 11
5.5846841213
 21
3.7385429326
 31
0.0
 11
5.5712902011
 21
3.741207149
 31
0.0
 11
5.5599353839
 21
3.7487941953
 31
0.0
 11
5.5543747708
 21
3.7560438218
 31
0.0
  0
SPLINE
  5
45A
100
AcDbEntity
  8
0
100
AcDbSpline
 62
7
  6
CONTINUOUS
 70
0
 71
3
 72
9
 73
5
 74
3
 42
0.0000001
 43
0.0000001
 44
0.0000000001
 12
-0.0091694111
 22
0.0158675915
 32
0.0
 13
0.0
 23
0.0183237191
 33
0.0
 40
0.0
 40
0.0
 40
0.0
 40
0.0
 40
0.2500093315
 40
1.0
 40
1.0
 40
1.0
 40
1.0
 10
5.5543747708
 20
3.7560438218
 30
0.0
 10
5.5536106247
 20
3.7573661704
 30
0.0
 10
5.5508990594
 20
3.7628541535
 30
0.0
 10
5.5496841213
 20
3.7689620598
 30
0.0
 10
5.5496841213
 20
3.7735429326
 30
0.0
 11
5.5543747708
 21
3.7560438218
 31
0.0
 11
5.5523483376
 21
3.7601490125
 31
0.0
 11
5.5496841213
 21
3.7735429326
 31
0.0
  0
SPLINE
  5
45B
100
AcDbEntity
  8
0
100
AcDbSpline
 62
7
  6
CONTINUOUS
 70
0
 71
3
 72
15
 73
11
 74
9
 42
0.0000001
 43
0.0000001
 44
0.0000000001
 12
0.0
 22
0.1099409465
 32
0.0
 13
-0.0
 23
-0.1099409465
 33
0.0
 40
0.0
 40
0.0
 40
0.0
 40
0.0
 40
0.125
 40
0.25
 40
0.375
 40
0.5
 40
0.625
 40
0.75
 40
0.875
 40
1.0
 40
1.0
 40
1.0
 40
1.0
 10
4.9976841213
 20
4.7840429326
 30
0.0
 10
4.9976841213
 20
4.7886238054
 30
0.0
 10
4.9958617368
 20
4.7977855509
 30
0.0
 10
4.9880771688
 20
4.8094359802
 30
0.0
 10
4.9764267396
 20
4.8172205481
 30
0.0
 10
4.9626841213
 20
4.8199541248
 30
0.0
 10
4.9489415029
 20
4.8172205481
 30
0.0
 10
4.9372910737
 20
4.8094359802
 30
0.0
 10
4.9295065057
 20
4.7977855509
 30
0.0
 10
4.9276841213
 20
4.7886238054
 30
0.0
 10
4.9276841213
 20
4.7840429326
 30
0.0
 11
4.9976841213
 21
4.7840429326
 31
0.0
 11
4.9950199049
 21
4.7974368527
 31
0.0
 11
4.9874328586
 21
4.8087916699
 31
0.0
 11
4.9760780414
 21
4.8163787162
 31
0.0
 11
4.9626841213
 21
4.8190429326
 31
0.0
 11
4.9492902011
 21
4.8163787162
 31
0.0
 11
4.9379353839
 21
4.8087916699
 31
0.0
 11
4.9303483376
 21
4.7974368527
 31
0.0
 11
4.9276841213
 21
4.7840429326
 31
0.0
  0
SPLINE
  5
45C
100
AcDbEntity
  8
0
100
AcDbSpline
 62
7
  6
CONTINUOUS
 70
0
 71
3
 72
15
 73
11
 74
9
 42
0.0000001
 43
0.0000001
 44
0.0000000001
 12
0.0
 22
-0.1099409465
 32
0.0
 13
-0.0
 23
0.1099409465
 33
0.0
 40
0.0
 40
0.0
 40
0.0
 40
0.0
 40
0.125
 40
0.25
 40
0.375
 40
0.5
 40
0.625
 40
0.75
 40
0.875
 40
1.0
 40
1.0
 40
1.0
 40
1.0
 10
4.9976841213
 20
3.7490429326
 30
0.0
 10
4.9976841213
 20
3.7444620598
 30
0.0
 10
4.9958617368
 20
3.7353003143
 30
0.0
 10
4.9880771688
 20
3.723649885
 30
0.0
 10
4.9764267396
 20
3.7158653171
 30
0.0
 10
4.9626841213
 20
3.7131317403
 30
0.0
 10
4.9489415029
 20
3.7158653171
 30
0.0
 10
4.9372910737
 20
3.723649885
 30
0.0
 10
4.9295065057
 20
3.7353003143
 30
0.0
 10
4.9276841213
 20
3.7444620598
 30
0.0
 10
4.9276841213
 20
3.7490429326
 30
0.0
 11
4.9976841213
 21
3.7490429326
 31
0.0
 11
4.9950199049
 21
3.7356490125
 31
0.0
 11
4.9874328586
 21
3.7242941953
 31
0.0
 11
4.9760780414
 21
3.716707149
 31
0.0
 11
4.9626841213
 21
3.7140429326
 31
0.0
 11
4.9492902011
 21
3.716707149
 31
0.0
 11
4.9379353839
 21
3.7242941953
 31
0.0
 11
4.9303483376
 21
3.7356490125
 31
0.0
 11
4.9276841213
 21
3.7490429326
 31
0.0
  0
SPLINE
  5
45D
100
AcDbEntity
  8
0
100
AcDbSpline
 62
7
  6
CONTINUOUS
 70
0
 71
3
 72
15
 73
11
 74
9
 42
0.0000001
 43
0.0000001
 44
0.0000000001
 12
0.093245702
 22
0.0
 32
0.0
 13
-0.0000143465
 23
-0.0934353017
 33
0.0
 40
0.0
 40
0.0
 40
0.0
 40
0.0
 40
0.1323077677
 40
0.2644363417
 40
0.3952163923
 40
0.5238304161
 40
0.6498049036
 40
0.7728481263
 40
0.8928404325
 40
1.0
 40
1.0
 40
1.0
 40
1.0
 10
6.1506841213
 20
4.136299139
 30
0.0
 10
6.1547964982
 20
4.136299139
 30
0.0
 10
6.1630365497
 20
4.135523335
 30
0.0
 10
6.1749021038
 20
4.1320866167
 30
0.0
 10
6.1858203458
 20
4.1265506197
 30
0.0
 10
6.1953618306
 20
4.11919293
 30
0.0
 10
6.2031821769
 20
4.1103423749
 30
0.0
 10
6.2089874894
 20
4.1003601919
 30
0.0
 10
6.212426419
 20
4.0899445702
 30
0.0
 10
6.2131846361
 20
4.0828712689
 30
0.0
 10
6.2131841236
 20
4.0795337734
 30
0.0
 11
6.1506841213
 21
4.136299139
 31
0.0
 11
6.1629668071
 21
4.1351413732
 31
0.0
 11
6.1748007325
 21
4.1317134001
 31
0.0
 11
6.185674551
 21
4.1261934152
 31
0.0
 11
6.1951640108
 21
4.1188602628
 31
0.0
 11
6.2029257156
 21
4.1100433433
 31
0.0
 11
6.2086671997
 21
4.1001100224
 31
0.0
 11
6.2121415647
 21
4.0894743611
 31
0.0
 11
6.2131841236
 21
4.0795337734
 31
0.0
  0
SPLINE
  5
45E
100
AcDbEntity
  8
0
100
AcDbSpline
 62
7
  6
CONTINUOUS
 70
0
 71
3
 72
9
 73
5
 74
3
 42
0.0000001
 43
0.0000001
 44
0.0000000001
 12
0.022036427
 22
0.0082531942
 32
0.0
 13
0.0234996239
 23
0.0
 33
0.0
 40
0.0
 40
0.0
 40
0.0
 40
0.0
 40
0.4751620158
 40
1.0
 40
1.0
 40
1.0
 40
1.0
 10
6.1276497256
 20
4.1321296943
 30
0.0
 10
6.1311400166
 20
4.1334368958
 30
0.0
 10
6.138719868
 20
4.1355599859
 30
0.0
 10
6.1465729562
 20
4.136299139
 30
0.0
 10
6.1506841213
 20
4.136299139
 30
0.0
 11
6.1276497256
 21
4.1321296943
 31
0.0
 11
6.1384050226
 21
4.1351420555
 31
0.0
 11
6.1506841213
 21
4.136299139
 31
0.0
  0
SPLINE
  5
45F
100
AcDbEntity
  8
0
100
AcDbSpline
 62
7
  6
CONTINUOUS
 70
0
 71
3
 72
9
 73
5
 74
3
 42
0.0000001
 43
0.0000001
 44
0.0000000001
 12
0.0224070245
 22
-0.0067755881
 32
0.0
 13
0.023376706
 23
0.0
 33
0.0
 40
0.0
 40
0.0
 40
0.0
 40
0.0
 40
0.4293622899
 40
1.0
 40
1.0
 40
1.0
 40
1.0
 10
6.1276015762
 20
4.0785209684
 30
0.0
 10
6.1308084866
 20
4.0775512411
 30
0.0
 10
6.1384311329
 20
4.0758031449
 30
0.0
 10
6.1462375779
 20
4.0751793236
 30
0.0
 10
6.1506841213
 20
4.0751793236
 30
0.0
 11
6.1276015762
 21
4.0785209684
 31
0.0
 11
6.137388124
 21
4.0762573702
 31
0.0
 11
6.1506841213
 21
4.0751793236
 31
0.0
  0
SPLINE
  5
460
100
AcDbEntity
  8
0
100
AcDbSpline
 62
7
  6
CONTINUOUS
 70
0
 71
3
 72
23
 73
19
 74
17
 42
0.0000001
 43
0.0000001
 44
0.0000000001
 12
0.0
 22
-0.2793776015
 32
0.0
 13
-0.0
 23
0.2793776015
 33
0.0
 40
0.0
 40
0.0
 40
0.0
 40
0.0
 40
0.0409727877
 40
0.0888042388
 40
0.1441603431
 40
0.2064979565
 40
0.2746533497
 40
0.3472419676
 40
0.4228817517
 40
0.5000426233
 40
0.5772256265
 40
0.6529098844
 40
0.7255349853
 40
0.7936902195
 40
0.8559910597
 40
0.911289984
 40
0.9590718864
 40
1.0
 40
1.0
 40
1.0
 40
1.0
 10
6.5491841213
 20
4.5904364336
 30
0.0
 10
6.5491841213
 20
4.5866208072
 30
0.0
 10
6.5474191097
 20
4.5783354248
 30
0.0
 10
6.5408207978
 20
4.5665013773
 30
0.0
 10
6.5305549455
 20
4.5548741528
 30
0.0
 10
6.5169644225
 20
4.5440374383
 30
0.0
 10
6.5004843566
 20
4.5346166495
 30
0.0
 10
6.4816447651
 20
4.5272641461
 30
0.0
 10
6.4611079542
 20
4.5225670323
 30
0.0
 10
6.4396700161
 20
4.5209500145
 30
0.0
 10
6.418228189
 20
4.522571406
 30
0.0
 10
6.3976830928
 20
4.5272759423
 30
0.0
 10
6.3788389129
 20
4.5346377116
 30
0.0
 10
6.3623627337
 20
4.5440653077
 30
0.0
 10
6.3487838983
 20
4.5549025799
 30
0.0
 10
6.3385320441
 20
4.5665241571
 30
0.0
 10
6.3319453155
 20
4.5783483238
 30
0.0
 10
6.3301841213
 20
4.5866249675
 30
0.0
 10
6.3301841213
 20
4.5904364336
 30
0.0
 11
6.5491841213
 21
4.5904364336
 31
0.0
 11
6.5470658982
 21
4.5791872481
 31
0.0
 11
6.540804932
 21
4.5673816971
 31
0.0
 11
6.5306987599
 21
4.5556753135
 31
0.0
 11
6.5171509295
 21
4.5447316375
 31
0.0
 11
6.5006488701
 21
4.5352318925
 31
0.0
 11
6.4817663993
 21
4.5278348761
 31
0.0
 11
6.4611679959
 21
4.5231157876
 31
0.0
 11
6.4396721221
 21
4.5214932923
 31
0.0
 11
6.4181703909
 21
4.5231203282
 31
0.0
 11
6.3975610908
 21
4.5278474898
 31
0.0
 11
6.378671712
 21
4.5352548126
 31
0.0
 11
6.3621736921
 21
4.5447614821
 31
0.0
 11
6.3486387965
 21
4.5557048186
 31
0.0
 11
6.3385481612
 21
4.5674035091
 31
0.0
 11
6.3322980298
 21
4.5791991362
 31
0.0
 11
6.3301841213
 21
4.5904364336
 31
0.0
  0
SPLINE
  5
461
100
AcDbEntity
  8
0
100
AcDbSpline
 62
7
  6
CONTINUOUS
 70
0
 71
3
 72
17
 73
13
 74
11
 42
0.0000001
 43
0.0000001
 44
0.0000000001
 12
-0.0846334178
 22
-0.014143296
 32
0.0
 13
-0.0856450226
 23
0.0053324185
 33
0.0
 40
0.0
 40
0.0
 40
0.0
 40
0.0
 40
0.0160681121
 40
0.0636223484
 40
0.1404641406
 40
0.2427415821
 40
0.3665865549
 40
0.505775601
 40
0.65549895
 40
0.8078101682
 40
0.9575240821
 40
1.0
 40
1.0
 40
1.0
 40
1.0
 10
6.2131841213
 20
4.6405429326
 30
0.0
 10
6.2127308215
 20
4.6404671806
 30
0.0
 10
6.2109354449
 20
4.6401703232
 30
0.0
 10
6.2069672022
 20
4.6395420113
 30
0.0
 10
6.2005501788
 20
4.6386145394
 30
0.0
 10
6.1919502876
 20
4.6375442406
 30
0.0
 10
6.1815507863
 20
4.6365167057
 30
0.0
 10
6.1697706455
 20
4.6357082894
 30
0.0
 10
6.1571558547
 20
4.6352645806
 30
0.0
 10
6.1442320659
 20
4.6352642402
 30
0.0
 10
6.1343826003
 20
4.6356101539
 30
0.0
 10
6.1288942244
 20
4.6359249662
 30
0.0
 10
6.1276816074
 20
4.636000466
 30
0.0
 11
6.2131841213
 21
4.6405429326
 31
0.0
 11
6.2118238321
 21
4.6403180177
 31
0.0
 11
6.2077935373
 21
4.6396799522
 31
0.0
 11
6.2012677358
 21
4.638737038
 31
0.0
 11
6.1925587222
 21
4.6376537411
 31
0.0
 11
6.1819833592
 21
4.6366096729
 31
0.0
 11
6.1700679186
 21
4.6357928231
 31
0.0
 11
6.1572285144
 21
4.6353417654
 31
0.0
 11
6.1441591322
 21
4.6353414216
 31
0.0
 11
6.1313205129
 21
4.6357917638
 31
0.0
 11
6.1276816074
 21
4.636000466
 31
0.0
  0
SPLINE
  5
462
100
AcDbEntity
  8
0
100
AcDbSpline
 62
7
  6
CONTINUOUS
 70
0
 71
3
 72
16
 73
12
 74
10
 42
0.0000001
 43
0.0000001
 44
0.0000000001
 12
-0.1397436414
 22
0.0274208005
 32
0.0
 13
-0.1397467478
 23
-0.0274421059
 33
0.0
 40
0.0
 40
0.0
 40
0.0
 40
0.0
 40
0.0357993697
 40
0.1555248171
 40
0.2903237285
 40
0.4349258598
 40
0.5815939144
 40
0.7253293376
 40
0.8582149889
 40
0.9749548687
 40
1.0
 40
1.0
 40
1.0
 40
1.0
 10
6.5105867271
 20
4.5410959876
 30
0.0
 10
6.5089191491
 20
4.5414232034
 30
0.0
 10
6.5016486181
 20
4.542715281
 30
0.0
 10
6.4879541627
 20
4.5442982069
 30
0.0
 10
6.4690447839
 20
4.5454266872
 30
0.0
 10
6.4488323836
 20
4.5459159017
 30
0.0
 10
6.4281908733
 20
4.5458873806
 30
0.0
 10
6.4081118633
 20
4.5453342528
 30
0.0
 10
6.3894809
 20
4.5441282282
 30
0.0
 10
6.3765355609
 20
4.5425328773
 30
0.0
 10
6.3699145964
 20
4.5413179991
 30
0.0
 10
6.3687479378
 20
4.5410889021
 30
0.0
 11
6.5105867271
 21
4.5410959876
 31
0.0
 11
6.5055685538
 21
4.5419945041
 31
0.0
 11
6.4886534972
 21
4.5440681941
 31
0.0
 11
6.4695051754
 21
4.5452897656
 31
0.0
 11
6.4489295365
 21
4.5458263952
 31
0.0
 11
6.4280528611
 21
4.545795249
 31
0.0
 11
6.407602586
 21
4.5451886856
 31
0.0
 11
6.3887326707
 21
4.543884736
 31
0.0
 11
6.3722555884
 21
4.5417349839
 31
0.0
 11
6.3687479378
 21
4.5410889021
 31
0.0
  0
SPLINE
  5
463
100
AcDbEntity
  8
0
100
AcDbSpline
 62
7
  6
CONTINUOUS
 70
0
 71
3
 72
16
 73
12
 74
10
 42
0.0000001
 43
0.0000001
 44
0.0000000001
 12
0.1397484772
 22
-0.0274215531
 32
0.0
 13
0.139750996
 23
0.0274448869
 33
0.0
 40
0.0
 40
0.0
 40
0.0
 40
0.0
 40
0.0350885389
 40
0.1548775423
 40
0.2898880392
 40
0.4348092454
 40
0.5818294376
 40
0.7258677723
 40
0.8589353548
 40
0.9757007572
 40
1.0
 40
1.0
 40
1.0
 40
1.0
 10
6.3687802068
 20
3.9919901534
 30
0.0
 10
6.3704147301
 20
3.991669426
 30
0.0
 10
6.3776547222
 20
3.990380099
 30
0.0
 10
6.3913284966
 20
3.9887942695
 30
0.0
 10
6.4102664162
 20
3.9876609458
 30
0.0
 10
6.4305212587
 20
3.9871697199
 30
0.0
 10
6.4512095837
 20
3.9871985177
 30
0.0
 10
6.4713288403
 20
3.9877542804
 30
0.0
 10
6.4899842969
 20
3.9889658348
 30
0.0
 10
6.5029040023
 20
3.9905639131
 30
0.0
 10
6.509491017
 20
3.9917752219
 30
0.0
 10
6.5106229648
 20
3.9919975185
 30
0.0
 11
6.3687802068
 21
3.9919901534
 31
0.0
 11
6.3736986264
 21
3.9911079053
 31
0.0
 11
6.3906222661
 21
3.9890259437
 31
0.0
 11
6.4098009501
 21
3.9877987484
 31
0.0
 11
6.4304225391
 21
3.9872596563
 31
0.0
 11
6.4513499274
 21
3.9872911217
 31
0.0
 11
6.4718438222
 21
3.9879008508
 31
0.0
 11
6.4907397919
 21
3.9892111408
 31
0.0
 11
6.5072198918
 21
3.9913694526
 31
0.0
 11
6.5106229648
 21
3.9919975185
 31
0.0
  0
SPLINE
  5
464
100
AcDbEntity
  8
0
100
AcDbSpline
 62
7
  6
CONTINUOUS
 70
0
 71
3
 72
12
 73
8
 74
6
 42
0.0000001
 43
0.0000001
 44
0.0000000001
 12
0.0655626994
 22
0.0
 32
0.0
 13
0.0332851356
 23
0.0566683084
 33
0.0
 40
0.0
 40
0.0
 40
0.0
 40
0.0
 40
0.2015284342
 40
0.4186534109
 40
0.63141892
 40
0.8275296576
 40
1.0
 40
1.0
 40
1.0
 40
1.0
 10
6.1506841213
 20
4.0751793236
 30
0.0
 10
6.1550883706
 20
4.0751793236
 30
0.0
 10
6.1642540101
 20
4.0759048659
 30
0.0
 10
6.1776997871
 20
4.0793357076
 30
0.0
 10
6.190125128
 20
4.0853086571
 30
0.0
 10
6.2001480412
 20
4.0933087951
 30
0.0
 10
6.2051108747
 20
4.0997556661
 30
0.0
 10
6.207024441
 20
4.1030135336
 30
0.0
 11
6.1506841213
 21
4.0751793236
 31
0.0
 11
6.1638544822
 21
4.0762368237
 31
0.0
 11
6.1776340693
 21
4.0798098803
 31
0.0
 11
6.1901669689
 21
4.0859347845
 31
0.0
 11
6.2001616005
 21
4.0940232896
 31
0.0
 11
6.207024441
 21
4.1030135336
 31
0.0
  0
SPLINE
  5
465
100
AcDbEntity
  8
0
100
AcDbSpline
 62
7
  6
CONTINUOUS
 70
0
 71
3
 72
23
 73
19
 74
17
 42
0.0000001
 43
0.0000001
 44
0.0000000001
 12
0.0
 22
0.2793776015
 32
0.0
 13
-0.0
 23
-0.2793776015
 33
0.0
 40
0.0
 40
0.0
 40
0.0
 40
0.0
 40
0.0409727877
 40
0.0888042388
 40
0.1441603431
 40
0.2064979565
 40
0.2746533497
 40
0.3472419676
 40
0.4228817517
 40
0.5000426233
 40
0.5772256265
 40
0.6529098844
 40
0.7255349853
 40
0.7936902195
 40
0.8559910597
 40
0.911289984
 40
0.9590718864
 40
1.0
 40
1.0
 40
1.0
 40
1.0
 10
6.3301841213
 20
3.9426494316
 30
0.0
 10
6.3301841213
 20
3.946465058
 30
0.0
 10
6.3319491328
 20
3.9547504404
 30
0.0
 10
6.3385474447
 20
3.9665844879
 30
0.0
 10
6.348813297
 20
3.9782117124
 30
0.0
 10
6.36240382
 20
3.9890484269
 30
0.0
 10
6.3788838859
 20
3.9984692157
 30
0.0
 10
6.3977234774
 20
4.0058217191
 30
0.0
 10
6.4182602883
 20
4.0105188329
 30
0.0
 10
6.4396982264
 20
4.0121358507
 30
0.0
 10
6.4611400535
 20
4.0105144592
 30
0.0
 10
6.4816851497
 20
4.0058099229
 30
0.0
 10
6.5005293296
 20
3.9984481535
 30
0.0
 10
6.5170055088
 20
3.9890205575
 30
0.0
 10
6.5305843442
 20
3.9781832853
 30
0.0
 10
6.5408361984
 20
3.9665617081
 30
0.0
 10
6.547422927
 20
3.9547375413
 30
0.0
 10
6.5491841213
 20
3.9464608977
 30
0.0
 10
6.5491841213
 20
3.9426494316
 30
0.0
 11
6.3301841213
 21
3.9426494316
 31
0.0
 11
6.3323023443
 21
3.953898617
 31
0.0
 11
6.3385633105
 21
3.9657041681
 31
0.0
 11
6.3486694826
 21
3.9774105517
 31
0.0
 11
6.3622173131
 21
3.9883542276
 31
0.0
 11
6.3787193724
 21
3.9978539727
 31
0.0
 11
6.3976018432
 21
4.0052509891
 31
0.0
 11
6.4182002467
 21
4.0099700776
 31
0.0
 11
6.4396961204
 21
4.0115925729
 31
0.0
 11
6.4611978517
 21
4.009965537
 31
0.0
 11
6.4818071517
 21
4.0052383754
 31
0.0
 11
6.5006965305
 21
3.9978310526
 31
0.0
 11
6.5171945504
 21
3.9883243831
 31
0.0
 11
6.530729446
 21
3.9773810466
 31
0.0
 11
6.5408200813
 21
3.9656823561
 31
0.0
 11
6.5470702127
 21
3.953886729
 31
0.0
 11
6.5491841213
 21
3.9426494316
 31
0.0
  0
SPLINE
  5
466
100
AcDbEntity
  8
0
100
AcDbSpline
 62
7
  6
CONTINUOUS
 70
0
 71
3
 72
23
 73
19
 74
17
 42
0.0000001
 43
0.0000001
 44
0.0000000001
 12
0.0
 22
0.2528686944
 32
0.0
 13
-0.0
 23
-0.2528686944
 33
0.0
 40
0.0
 40
0.0
 40
0.0
 40
0.0
 40
0.0409481264
 40
0.0843077682
 40
0.134190676
 40
0.1917576166
 40
0.2586045597
 40
0.3349590068
 40
0.4166870244
 40
0.5009185586
 40
0.5851884209
 40
0.6667319042
 40
0.7426025542
 40
0.8086918078
 40
0.8659003426
 40
0.9156775793
 40
0.9590679872
 40
1.0
 40
1.0
 40
1.0
 40
1.0
 10
6.3301841213
 20
4.5904364336
 30
0.0
 10
6.3301841213
 20
4.5938879334
 30
0.0
 10
6.3316282469
 20
4.601112148
 30
0.0
 10
6.3386199195
 20
4.6103880527
 30
0.0
 10
6.3493638817
 20
4.6174723628
 30
0.0
 10
6.3631291612
 20
4.622788224
 30
0.0
 10
6.3796421698
 20
4.6266504499
 30
0.0
 10
6.3984431485
 20
4.6292323913
 30
0.0
 10
6.4188260267
 20
4.6306907148
 30
0.0
 10
6.4399200018
 20
4.6311521783
 30
0.0
 10
6.4609980036
 20
4.6306698398
 30
0.0
 10
6.4813261824
 20
4.6291904613
 30
0.0
 10
6.5000042646
 20
4.6265966474
 30
0.0
 10
6.5163794118
 20
4.6227400212
 30
0.0
 10
6.5300427051
 20
4.6174485391
 30
0.0
 10
6.5407531436
 20
4.61038194
 30
0.0
 10
6.5477404463
 20
4.6011119575
 30
0.0
 10
6.5491841213
 20
4.5938865752
 30
0.0
 10
6.5491841213
 20
4.5904364336
 30
0.0
 11
6.3301841213
 21
4.5904364336
 31
0.0
 11
6.3322825038
 21
4.6005760808
 31
0.0
 11
6.3386659511
 21
4.6094905291
 31
0.0
 11
6.3489955621
 21
4.6167298479
 31
0.0
 11
6.3624834436
 21
4.6222052222
 31
0.0
 11
6.3789019085
 21
4.6262254578
 31
0.0
 11
6.3980135938
 21
4.6289693254
 31
0.0
 11
6.4186227183
 21
4.630507648
 31
0.0
 11
6.4399167005
 21
4.6309932338
 31
0.0
 11
6.4612198499
 21
4.6304850416
 31
0.0
 11
6.4817804753
 21
4.6289240818
 31
0.0
 11
6.5007668696
 21
4.6261685357
 31
0.0
 11
6.5169936093
 21
4.6221709576
 31
0.0
 11
6.5303931993
 21
4.6167190493
 31
0.0
 11
6.5406995753
 21
4.609493136
 31
0.0
 11
6.5470874196
 21
4.6005722677
 31
0.0
 11
6.5491841213
 21
4.5904364336
 31
0.0
  0
SPLINE
  5
467
100
AcDbEntity
  8
0
100
AcDbSpline
 62
7
  6
CONTINUOUS
 70
0
 71
3
 72
9
 73
5
 74
3
 42
0.0000001
 43
0.0000001
 44
0.0000000001
 12
-0.023347418
 22
0.0
 32
0.0
 13
-0.0223110255
 23
0.0069638603
 33
0.0
 40
0.0
 40
0.0
 40
0.0
 40
0.0
 40
0.5250659672
 40
1.0
 40
1.0
 40
1.0
 40
1.0
 10
6.1506841213
 20
4.0280459636
 30
0.0
 10
6.1465978097
 20
4.0280459636
 30
0.0
 10
6.13880186
 20
4.0286416597
 30
0.0
 10
6.1311892326
 20
4.0303918312
 30
0.0
 10
6.1276571442
 20
4.0314942893
 30
0.0
 11
6.1506841213
 21
4.0280459636
 31
0.0
 11
6.1384615749
 21
4.0289898053
 31
0.0
 11
6.1276571442
 21
4.0314942893
 31
0.0
  0
SPLINE
  5
468
100
AcDbEntity
  8
0
100
AcDbSpline
 62
7
  6
CONTINUOUS
 70
0
 71
3
 72
23
 73
19
 74
17
 42
0.0000001
 43
0.0000001
 44
0.0000000001
 12
0.0
 22
-0.2528679129
 32
0.0
 13
0.0
 23
0.2528679129
 33
0.0
 40
0.0
 40
0.0
 40
0.0
 40
0.0
 40
0.0409865746
 40
0.084415749
 40
0.1343763931
 40
0.1919594072
 40
0.2587480903
 40
0.3350775351
 40
0.4167586195
 40
0.5009309789
 40
0.5851416157
 40
0.6666365428
 40
0.7424759734
 40
0.8085000163
 40
0.86571891
 40
0.9155688751
 40
0.9590274964
 40
1.0
 40
1.0
 40
1.0
 40
1.0
 10
6.5491841213
 20
3.9426494316
 30
0.0
 10
6.5491841213
 20
3.9391947017
 30
0.0
 10
6.5477365422
 20
3.9319610353
 30
0.0
 10
6.5407278445
 20
3.922677028
 30
0.0
 10
6.5299663549
 20
3.9155943486
 30
0.0
 10
6.516195604
 20
3.9102852661
 30
0.0
 10
6.4996872685
 20
3.9064288781
 30
0.0
 10
6.4808969267
 20
3.9038508729
 30
0.0
 10
6.4605250725
 20
3.9023946037
 30
0.0
 10
6.4394450996
 20
3.9019339084
 30
0.0
 10
6.4183812421
 20
3.9024157456
 30
0.0
 10
6.3980647709
 20
3.9038933366
 30
0.0
 10
6.3793986072
 20
3.9064834125
 30
0.0
 10
6.3630297675
 20
3.9103342197
 30
0.0
 10
6.3493625182
 20
3.9156187351
 30
0.0
 10
6.3386355486
 20
3.9226832995
 30
0.0
 10
6.3316313498
 20
3.9319609814
 30
0.0
 10
6.3301841213
 20
3.9391958878
 30
0.0
 10
6.3301841213
 20
3.9426494316
 30
0.0
 11
6.5491841213
 21
3.9426494316
 31
0.0
 11
6.5470817386
 21
3.9325007168
 31
0.0
 11
6.5406822859
 21
3.9235761485
 31
0.0
 11
6.5303307279
 21
3.91633397
 31
0.0
 11
6.5168358074
 21
3.9108652562
 31
0.0
 11
6.5004304525
 21
3.9068536453
 31
0.0
 11
6.4813246976
 21
3.9041133808
 31
0.0
 11
6.4607273661
 21
3.9025773626
 31
0.0
 11
6.4394483975
 21
3.902092633
 31
0.0
 11
6.4181602808
 21
3.9026002503
 31
0.0
 11
6.3976118808
 21
3.9041592048
 31
0.0
 11
6.3786330242
 21
3.9069113106
 31
0.0
 11
6.3624211885
 21
3.9109002319
 31
0.0
 11
6.3490160221
 21
3.9163452598
 31
0.0
 11
6.3386888097
 21
3.9235734146
 31
0.0
 11
6.3322850347
 21
3.9325040461
 31
0.0
 11
6.3301841213
 21
3.9426494316
 31
0.0
  0
SPLINE
  5
469
100
AcDbEntity
  8
0
100
AcDbSpline
 62
7
  6
CONTINUOUS
 70
0
 71
3
 72
16
 73
12
 74
10
 42
0.0000001
 43
0.0000001
 44
0.0000000001
 12
-0.0000138384
 22
-0.0901264413
 32
0.0
 13
-0.089943556
 23
0.0
 33
0.0
 40
0.0
 40
0.0
 40
0.0
 40
0.0
 40
0.0084290113
 40
0.1240495893
 40
0.2386637736
 40
0.3530254391
 40
0.4692095166
 40
0.594044752
 40
0.7267835137
 40
0.8638643298
 40
1.0
 40
1.0
 40
1.0
 40
1.0
 10
6.2131841236
 20
4.0795337734
 30
0.0
 10
6.2131840847
 20
4.0792805478
 30
0.0
 10
6.2131531651
 20
4.0755537772
 30
0.0
 10
6.2122288483
 20
4.0683948874
 30
0.0
 10
6.2085697352
 20
4.0586363728
 30
0.0
 10
6.2028312827
 20
4.0499274672
 30
0.0
 10
6.1952032439
 20
4.0423880945
 30
0.0
 10
6.1858047501
 20
4.0361638864
 30
0.0
 10
6.1748619213
 20
4.0315030233
 30
0.0
 10
6.162971096
 20
4.0286722174
 30
0.0
 10
6.15476563
 20
4.0280459636
 30
0.0
 10
6.1506841213
 20
4.0280459636
 30
0.0
 11
6.2131841236
 21
4.0795337734
 31
0.0
 11
6.2131778074
 21
4.078774116
 31
0.0
 11
6.2118332773
 21
4.0684620736
 31
0.0
 11
6.2082224337
 21
4.0588063335
 31
0.0
 11
6.2025870755
 21
4.0502013068
 31
0.0
 11
6.1951827448
 21
4.0428271237
 31
0.0
 11
6.1858472947
 21
4.0365885211
 31
0.0
 11
6.1748802252
 21
4.0318701508
 31
0.0
 11
6.1628923884
 21
4.0289875773
 31
0.0
 11
6.1506841213
 21
4.0280459636
 31
0.0
  0
SPLINE
  5
46A
100
AcDbEntity
  8
0
100
AcDbSpline
 62
7
  6
CONTINUOUS
 70
0
 71
3
 72
13
 73
9
 74
7
 42
0.0000001
 43
0.0000001
 44
0.0000000001
 12
-0.0357580695
 22
-0.0020274326
 32
0.0
 13
-0.0358154871
 23
-0.0000356168
 33
0.0
 40
0.0
 40
0.0
 40
0.0
 40
0.0
 40
0.0297148423
 40
0.1224635512
 40
0.2746393955
 40
0.4795379894
 40
0.725786809
 40
1.0
 40
1.0
 40
1.0
 40
1.0
 10
5.120848786
 20
4.7245429326
 30
0.0
 10
5.1204946042
 20
4.724522851
 30
0.0
 10
5.1190348525
 20
4.7244412291
 30
0.0
 10
5.1157605956
 20
4.7242687586
 30
0.0
 10
5.1103960263
 20
4.7240213037
 30
0.0
 10
5.1031978677
 20
4.7237591294
 30
0.0
 10
5.0945403599
 20
4.7235523353
 30
0.0
 10
5.0883267624
 20
4.7234961587
 30
0.0
 10
5.0850530694
 20
4.7234929032
 30
0.0
 11
5.120848786
 21
4.7245429326
 31
0.0
 11
5.1197861937
 21
4.7244835188
 31
0.0
 11
5.1164689492
 21
4.7243088133
 31
0.0
 11
5.1110244777
 21
4.7240578022
 31
0.0
 11
5.1036907825
 21
4.7237910067
 31
0.0
 11
5.0948737586
 21
4.7235809479
 31
0.0
 11
5.0850530694
 21
4.7234929032
 31
0.0
  0
SPLINE
  5
46B
100
AcDbEntity
  8
0
100
AcDbSpline
 62
7
  6
CONTINUOUS
 70
0
 71
3
 72
15
 73
11
 74
9
 42
0.0000001
 43
0.0000001
 44
0.0000000001
 12
-0.0115938131
 22
0.0433316978
 32
0.0
 13
-0.0111230861
 23
0.0434549131
 33
0.0
 40
0.0
 40
0.0
 40
0.0
 40
0.0
 40
0.1683718378
 40
0.3352351287
 40
0.4960484585
 40
0.6466424339
 40
0.7823339035
 40
0.8940182645
 40
0.971311444
 40
1.0
 40
1.0
 40
1.0
 40
1.0
 10
5.0850530694
 20
4.7234929032
 30
0.0
 10
5.0844023788
 20
4.7259248491
 30
0.0
 10
5.0831119621
 20
4.7307683267
 30
0.0
 10
5.0812168768
 20
4.737939041
 30
0.0
 10
5.079402556
 20
4.7448561463
 30
0.0
 10
5.0777173608
 20
4.7513252635
 30
0.0
 10
5.0762258553
 20
4.7570857391
 30
0.0
 10
5.0750148368
 20
4.7617867009
 30
0.0
 10
5.0742058037
 20
4.7649390774
 30
0.0
 10
5.0738126503
 20
4.7664741672
 30
0.0
 10
5.0737062818
 20
4.7668897201
 30
0.0
 11
5.0850530694
 21
4.7234929032
 31
0.0
 11
5.0831086013
 21
4.730790771
 31
0.0
 11
5.0811960461
 21
4.7380270982
 31
0.0
 11
5.0793658088
 21
4.7450044741
 31
0.0
 11
5.0776628853
 21
4.7515413293
 31
0.0
 11
5.0761372049
 21
4.7574335753
 31
0.0
 11
5.0748874257
 21
4.7622848824
 31
0.0
 11
5.0740255544
 21
4.7656431042
 31
0.0
 11
5.0737062818
 21
4.7668897201
 31
0.0
  0
SPLINE
  5
46C
100
AcDbEntity
  8
127-310_FEATURES
100
AcDbSpline
 62
7
  6
CONTINUOUS
 70
0
 71
3
 72
13
 73
9
 74
7
 42
0.0000001
 43
0.0000001
 44
0.0000000001
 12
0.0358154857
 22
-0.0000356168
 32
0.0
 13
0.0357580684
 23
-0.0020274325
 33
0.0
 40
0.0
 40
0.0
 40
0.0
 40
0.0
 40
0.2756467678
 40
0.5228599665
 40
0.7263005144
 40
0.8784184726
 40
0.9703696197
 40
1.0
 40
1.0
 40
1.0
 40
1.0
 10
5.0850530694
 20
3.809592962
 30
0.0
 10
5.088343877
 20
3.8095896894
 30
0.0
 10
5.0945861034
 20
3.8095329914
 30
0.0
 10
5.1032548089
 20
3.8093249916
 30
0.0
 10
5.1104463601
 20
3.8090624015
 30
0.0
 10
5.1157833267
 20
3.8088159578
 30
0.0
 10
5.1190463731
 20
3.8086439944
 30
0.0
 10
5.120495611
 20
3.8085629571
 30
0.0
 10
5.120848786
 20
3.8085429326
 30
0.0
 11
5.0850530694
 21
3.809592962
 31
0.0
 11
5.0949250967
 21
3.8095040495
 31
0.0
 11
5.1037766274
 21
3.809292215
 31
0.0
 11
5.1110581119
 21
3.8090266498
 31
0.0
 11
5.1165004998
 21
3.8087754675
 31
0.0
 11
5.1197892142
 21
3.8086021799
 31
0.0
 11
5.120848786
 21
3.8085429326
 31
0.0
  0
SPLINE
  5
46D
100
AcDbEntity
  8
127-310_FEATURES
100
AcDbSpline
 62
7
  6
CONTINUOUS
 70
0
 71
3
 72
15
 73
11
 74
9
 42
0.0000001
 43
0.0000001
 44
0.0000000001
 12
0.0111230865
 22
0.0434549133
 32
0.0
 13
0.0115938132
 23
0.0433316981
 33
0.0
 40
0.0
 40
0.0
 40
0.0
 40
0.0
 40
0.0331815181
 40
0.1200556872
 40
0.2395881099
 40
0.3793419776
 40
0.5284180844
 40
0.6822881403
 40
0.8399235997
 40
1.0
 40
1.0
 40
1.0
 40
1.0
 10
5.0737062818
 20
3.7661961451
 30
0.0
 10
5.0738293088
 20
3.7666767784
 30
0.0
 10
5.0742747079
 20
3.7684157127
 30
0.0
 10
5.0751655268
 20
3.7718854993
 30
0.0
 10
5.0764575889
 20
3.7768974145
 30
0.0
 10
5.0779894795
 20
3.7828079475
 30
0.0
 10
5.0796598084
 20
3.7892129722
 30
0.0
 10
5.0814085842
 20
3.7958738373
 30
0.0
 10
5.0832112332
 20
3.8026905973
 30
0.0
 10
5.0844344374
 20
3.8072808346
 30
0.0
 10
5.0850530694
 20
3.809592962
 30
0.0
 11
5.0737062818
 21
3.7661961451
 31
0.0
 11
5.0740755866
 21
3.7676379878
 31
0.0
 11
5.0750446268
 21
3.7714123971
 31
0.0
 11
5.0763831445
 21
3.7766043695
 31
0.0
 11
5.0779559795
 21
3.7826726376
 31
0.0
 11
5.0796434692
 21
3.7891431555
 31
0.0
 11
5.0813962386
 21
3.7958188685
 31
0.0
 11
5.0832040522
 21
3.8026547429
 31
0.0
 11
5.0850530694
 21
3.809592962
 31
0.0
  0
SPLINE
  5
46E
100
AcDbEntity
  8
0
100
AcDbSpline
 62
7
  6
CONTINUOUS
 70
0
 71
3
 72
15
 73
11
 74
9
 42
0.0000001
 43
0.0000001
 44
0.0000000001
 12
-0.144303637
 22
0.2708573861
 32
0.0
 13
0.144303637
 23
0.2708573861
 33
0.0
 40
0.0
 40
0.0
 40
0.0
 40
0.0
 40
0.1355060615
 40
0.2616268072
 40
0.3821382325
 40
0.5000411188
 40
0.6179405518
 40
0.7384429083
 40
0.8645194725
 40
1.0
 40
1.0
 40
1.0
 40
1.0
 10
4.1732947925
 20
3.6331576231
 30
0.0
 10
4.1667767867
 20
3.6453918957
 30
0.0
 10
4.1551435217
 20
3.6695468765
 30
0.0
 10
4.1419355394
 20
3.7064293053
 30
0.0
 10
4.1338390695
 20
3.7429484418
 30
0.0
 10
4.1310966743
 20
3.7794302743
 30
0.0
 10
4.133842704
 20
3.815910879
 30
0.0
 10
4.1419409335
 20
3.8524236251
 30
0.0
 10
4.1551476748
 20
3.8892978308
 30
0.0
 10
4.1667780149
 20
3.9134462749
 30
0.0
 10
4.1732947925
 20
3.9256782421
 30
0.0
 11
4.1732947925
 21
3.6331576231
 31
0.0
 11
4.1554211422
 21
3.670707444
 31
0.0
 11
4.1425383617
 21
3.7072070091
 31
0.0
 11
4.1346652423
 21
3.7433441916
 31
0.0
 11
4.1320047222
 21
3.7794305784
 31
0.0
 11
4.1346687646
 21
3.8155156426
 31
0.0
 11
4.1425442777
 21
3.8516494549
 31
0.0
 11
4.1554241579
 21
3.8881356646
 31
0.0
 11
4.1732947925
 21
3.9256782421
 31
0.0
  0
SPLINE
  5
46F
100
AcDbEntity
  8
0
100
AcDbSpline
 62
7
  6
CONTINUOUS
 70
0
 71
3
 72
15
 73
11
 74
9
 42
0.0000001
 43
0.0000001
 44
0.0000000001
 12
0.144303637
 22
0.2708573861
 32
0.0
 13
-0.144303637
 23
0.2708573861
 33
0.0
 40
0.0
 40
0.0
 40
0.0
 40
0.0
 40
0.1355060615
 40
0.2616268072
 40
0.3821382325
 40
0.5000411188
 40
0.6179405518
 40
0.7384429083
 40
0.8645194725
 40
1.0
 40
1.0
 40
1.0
 40
1.0
 10
4.6352584954
 20
3.6331576231
 30
0.0
 10
4.6417765012
 20
3.6453918957
 30
0.0
 10
4.6534097662
 20
3.6695468765
 30
0.0
 10
4.6666177485
 20
3.7064293053
 30
0.0
 10
4.6747142185
 20
3.7429484418
 30
0.0
 10
4.6774566137
 20
3.7794302743
 30
0.0
 10
4.674710584
 20
3.815910879
 30
0.0
 10
4.6666123545
 20
3.8524236251
 30
0.0
 10
4.6534056132
 20
3.8892978308
 30
0.0
 10
4.641775273
 20
3.9134462749
 30
0.0
 10
4.6352584954
 20
3.9256782421
 30
0.0
 11
4.6352584954
 21
3.6331576231
 31
0.0
 11
4.6531321457
 21
3.670707444
 31
0.0
 11
4.6660149263
 21
3.7072070091
 31
0.0
 11
4.6738880456
 21
3.7433441916
 31
0.0
 11
4.6765485658
 21
3.7794305784
 31
0.0
 11
4.6738845233
 21
3.8155156426
 31
0.0
 11
4.6660090102
 21
3.8516494549
 31
0.0
 11
4.6531291301
 21
3.8881356646
 31
0.0
 11
4.6352584954
 21
3.9256782421
 31
0.0
  0
SPLINE
  5
470
100
AcDbEntity
  8
0
100
AcDbSpline
 62
7
  6
CONTINUOUS
 70
0
 71
3
 72
15
 73
11
 74
9
 42
0.0000001
 43
0.0000001
 44
0.0000000001
 12
-0.1524995809
 22
0.5724822844
 32
0.0
 13
0.1524995809
 23
0.5724822844
 33
0.0
 40
0.0
 40
0.0
 40
0.0
 40
0.0
 40
0.1303027146
 40
0.2554233163
 40
0.3781382012
 40
0.500042666
 40
0.6219428883
 40
0.7446469008
 40
0.8697222521
 40
1.0
 40
1.0
 40
1.0
 40
1.0
 10
4.1732947925
 20
3.9740223137
 30
0.0
 10
4.1666710894
 20
3.9988876456
 30
0.0
 10
4.1548992976
 20
4.0479667702
 30
0.0
 10
4.1417990596
 20
4.1215323902
 30
0.0
 10
4.13380498
 20
4.19417048
 30
0.0
 10
4.1311066703
 20
4.2665674103
 30
0.0
 10
4.1338085635
 20
4.3389620478
 30
0.0
 10
4.141804454
 20
4.4115879188
 30
0.0
 10
4.1549035721
 20
4.4851374168
 30
0.0
 10
4.1666723585
 20
4.534202984
 30
0.0
 10
4.1732947925
 20
4.5590635515
 30
0.0
 11
4.1732947925
 21
3.9740223137
 31
0.0
 11
4.1554211422
 21
4.0491219554
 31
0.0
 11
4.1425383617
 21
4.1221210856
 31
0.0
 11
4.1346652423
 21
4.1943954505
 31
0.0
 11
4.1320047222
 21
4.2665682241
 31
0.0
 11
4.1346687646
 21
4.3387383526
 31
0.0
 11
4.1425442777
 21
4.4110059773
 31
0.0
 11
4.1554241579
 21
4.4839783966
 31
0.0
 11
4.1732947925
 21
4.5590635515
 31
0.0
  0
SPLINE
  5
471
100
AcDbEntity
  8
0
100
AcDbSpline
 62
7
  6
CONTINUOUS
 70
0
 71
3
 72
15
 73
11
 74
9
 42
0.0000001
 43
0.0000001
 44
0.0000000001
 12
0.1524995809
 22
0.5724822844
 32
0.0
 13
-0.1524995809
 23
0.5724822844
 33
0.0
 40
0.0
 40
0.0
 40
0.0
 40
0.0
 40
0.1303027146
 40
0.2554233163
 40
0.3781382012
 40
0.500042666
 40
0.6219428883
 40
0.7446469008
 40
0.8697222521
 40
1.0
 40
1.0
 40
1.0
 40
1.0
 10
4.6352584954
 20
3.9740223137
 30
0.0
 10
4.6418821985
 20
3.9988876456
 30
0.0
 10
4.6536539903
 20
4.0479667702
 30
0.0
 10
4.6667542284
 20
4.1215323902
 30
0.0
 10
4.6747483079
 20
4.19417048
 30
0.0
 10
4.6774466176
 20
4.2665674103
 30
0.0
 10
4.6747447244
 20
4.3389620478
 30
0.0
 10
4.666748834
 20
4.4115879188
 30
0.0
 10
4.6536497158
 20
4.4851374168
 30
0.0
 10
4.6418809294
 20
4.534202984
 30
0.0
 10
4.6352584954
 20
4.5590635515
 30
0.0
 11
4.6352584954
 21
3.9740223137
 31
0.0
 11
4.6531321457
 21
4.0491219554
 31
0.0
 11
4.6660149263
 21
4.1221210856
 31
0.0
 11
4.6738880456
 21
4.1943954505
 31
0.0
 11
4.6765485658
 21
4.2665682241
 31
0.0
 11
4.6738845233
 21
4.3387383526
 31
0.0
 11
4.6660090102
 21
4.4110059773
 31
0.0
 11
4.6531291301
 21
4.4839783966
 31
0.0
 11
4.6352584954
 21
4.5590635515
 31
0.0
  0
SPLINE
  5
472
100
AcDbEntity
  8
0
100
AcDbSpline
 62
7
  6
CONTINUOUS
 70
0
 71
3
 72
15
 73
11
 74
9
 42
0.0000001
 43
0.0000001
 44
0.0000000001
 12
-0.144303637
 22
0.2708573861
 32
0.0
 13
0.144303637
 23
0.2708573861
 33
0.0
 40
0.0
 40
0.0
 40
0.0
 40
0.0
 40
0.1355060615
 40
0.2616268072
 40
0.3821382325
 40
0.5000411188
 40
0.6179405518
 40
0.7384429083
 40
0.8645194725
 40
1.0
 40
1.0
 40
1.0
 40
1.0
 10
4.1732947925
 20
4.6074076231
 30
0.0
 10
4.1667767867
 20
4.6196418957
 30
0.0
 10
4.1551435217
 20
4.6437968765
 30
0.0
 10
4.1419355394
 20
4.6806793053
 30
0.0
 10
4.1338390695
 20
4.7171984418
 30
0.0
 10
4.1310966743
 20
4.7536802743
 30
0.0
 10
4.133842704
 20
4.790160879
 30
0.0
 10
4.1419409335
 20
4.8266736251
 30
0.0
 10
4.1551476748
 20
4.8635478308
 30
0.0
 10
4.1667780149
 20
4.8876962749
 30
0.0
 10
4.1732947925
 20
4.8999282421
 30
0.0
 11
4.1732947925
 21
4.6074076231
 31
0.0
 11
4.1554211422
 21
4.644957444
 31
0.0
 11
4.1425383617
 21
4.6814570091
 31
0.0
 11
4.1346652423
 21
4.7175941916
 31
0.0
 11
4.1320047222
 21
4.7536805784
 31
0.0
 11
4.1346687646
 21
4.7897656426
 31
0.0
 11
4.1425442777
 21
4.8258994549
 31
0.0
 11
4.1554241579
 21
4.8623856646
 31
0.0
 11
4.1732947925
 21
4.8999282421
 31
0.0
  0
SPLINE
  5
473
100
AcDbEntity
  8
0
100
AcDbSpline
 62
7
  6
CONTINUOUS
 70
0
 71
3
 72
15
 73
11
 74
9
 42
0.0000001
 43
0.0000001
 44
0.0000000001
 12
0.144303637
 22
0.2708573861
 32
0.0
 13
-0.144303637
 23
0.2708573861
 33
0.0
 40
0.0
 40
0.0
 40
0.0
 40
0.0
 40
0.1355060615
 40
0.2616268072
 40
0.3821382325
 40
0.5000411188
 40
0.6179405518
 40
0.7384429083
 40
0.8645194725
 40
1.0
 40
1.0
 40
1.0
 40
1.0
 10
4.6352584954
 20
4.6074076231
 30
0.0
 10
4.6417765012
 20
4.6196418957
 30
0.0
 10
4.6534097662
 20
4.6437968765
 30
0.0
 10
4.6666177485
 20
4.6806793053
 30
0.0
 10
4.6747142185
 20
4.7171984418
 30
0.0
 10
4.6774566137
 20
4.7536802743
 30
0.0
 10
4.674710584
 20
4.790160879
 30
0.0
 10
4.6666123545
 20
4.8266736251
 30
0.0
 10
4.6534056132
 20
4.8635478308
 30
0.0
 10
4.641775273
 20
4.8876962749
 30
0.0
 10
4.6352584954
 20
4.8999282421
 30
0.0
 11
4.6352584954
 21
4.6074076231
 31
0.0
 11
4.6531321457
 21
4.644957444
 31
0.0
 11
4.6660149263
 21
4.6814570091
 31
0.0
 11
4.6738880456
 21
4.7175941916
 31
0.0
 11
4.6765485658
 21
4.7536805784
 31
0.0
 11
4.6738845233
 21
4.7897656426
 31
0.0
 11
4.6660090102
 21
4.8258994549
 31
0.0
 11
4.6531291301
 21
4.8623856646
 31
0.0
 11
4.6352584954
 21
4.8999282421
 31
0.0
  0
ENDSEC
  0
SECTION
  2
OBJECTS
  0
DICTIONARY
  5
C
100
AcDbDictionary
280
0
281
1
  3
ACAD_GROUP
350
D
  3
ACAD_MLINESTYLE
350
17
  3
ACAD_LAYOUT
350
1A
  3
ACAD_PLOTSETTINGS
350
19
  3
ACAD_PLOTSTYLENAME
350
E
  0
DICTIONARY
  5
D
102
{ACAD_REACTORS
330
C
102
}
100
AcDbDictionary
280
0
281
1
  0
ACDBDICTIONARYWDFLT
  5
E
102
{ACAD_REACTORS
330
C
102
}
100
AcDbDictionary
281
1
  3
Normal
350
F
100
AcDbDictionaryWithDefault
340
F
  0
DICTIONARY
  5
17
102
{ACAD_REACTORS
330
C
102
}
100
AcDbDictionary
280
0
281
1
  3
Standard
350
18
  0
DICTIONARY
  5
19
102
{ACAD_REACTORS
330
C
102
}
100
AcDbDictionary
281
1
  0
DICTIONARY
  5
1A
102
{ACAD_REACTORS
330
C
102
}
100
AcDbDictionary
281
1
  3
Layout1
350
1E
  3
Model
350
22
  0
ACDBPLACEHOLDER
  5
F
102
{ACAD_REACTORS
330
E
102
}
  0
MLINESTYLE
  5
18
102
{ACAD_REACTORS
330
17
102
}
100
AcDbMlineStyle
  2
STANDARD
 70
0
  3

 62
256
 51
90.0
 52
90.0
 71
2
 49
0.5
 62
256
  6
BYLAYER
 49
-0.5
 62
256
  6
BYLAYER
  0
LAYOUT
  5
1E
102
{ACAD_REACTORS
330
1A
102
}
100
AcDbPlotSettings
  1

  2

  4

  6

 40
0.0
 41
0.0
 42
0.0
 43
0.0
 44
0.0
 45
0.0
 46
0.0
 47
0.0
 48
0.0
 49
0.0
140
0.0
141
0.0
142
1.0
143
1.0
 70
0
 72
0
 73
0
 74
0
  7

 75
0
147
1.0
148
0.0
149
0.0
100
AcDbLayout
  1
Layout1
 70
0
 71
0
 10
0.0
 20
0.0
 11
0.0
 21
0.0
 12
0.0
 22
0.0
 32
0.0
 14
0.0
 24
0.0
 34
0.0
 15
0.0
 25
0.0
 35
0.0
146
0.0
 13
0.0
 23
0.0
 33
0.0
 16
0.0
 26
0.0
 36
0.0
 17
0.0
 27
0.0
 37
0.0
 76
0
330
1B
331
0
345
0
346
0
  0
LAYOUT
  5
22
102
{ACAD_REACTORS
330
1A
102
}
100
AcDbPlotSettings
  1

  2

  4

  6

 40
0.0
 41
0.0
 42
0.0
 43
0.0
 44
0.0
 45
0.0
 46
0.0
 47
0.0
 48
0.0
 49
0.0
140
0.0
141
0.0
142
1.0
143
1.0
 70
0
 72
0
 73
0
 74
0
  7

 75
0
147
1.0
148
0.0
149
0.0
100
AcDbLayout
  1
Model
 70
0
 71
0
 10
0.0
 20
0.0
 11
0.0
 21
0.0
 12
0.0
 22
0.0
 32
0.0
 14
0.0
 24
0.0
 34
0.0
 15
0.0
 25
0.0
 35
0.0
146
0.0
 13
0.0
 23
0.0
 33
0.0
 16
0.0
 26
0.0
 36
0.0
 17
0.0
 27
0.0
 37
0.0
 76
0
330
1F
331
0
345
0
346
0
  0
ENDSEC
  0
EOF
