999
DXF file: CODA-XEN.dxf
999
Pro/ENGINEER 2006240 by Parametric Technology Corporation
  0
SECTION
  2
HEADER
  9
$ACADVER
  1
AC1015
  9
$DWGCODEPAGE
  3
ANSI_1252
  9
$EXTMAX
 10
11.6929133858
 20
8.2677165354
 30
0.0
  9
$EXTMIN
 10
0.0
 20
0.0
 30
0.0
  9
$LIMMIN
 10
0.0
 20
0.0
  9
$LIMMAX
 10
11.6929133858
 20
8.2677165354
  9
$VIEWCTR
 10
5.8464566929
 20
4.1338582677
  9
$VIEWSIZE
 40
8.2677165354
  9
$CLAYER
  8
0
  9
$LTSCALE
 40
0.6431102362
  9
$CELTYPE
  6
BYLAYER
  9
$DIMSCALE
 40
1.0
  9
$DIMASZ
 40
0.1875
  9
$DIMEXO
 40
0.0730807087
  9
$DIMDLI
 40
0.4443307087
  9
$DIMEXE
 40
0.2104724409
  9
$DIMCEN
 40
0.1052362205
  9
$DIMLFAC
 40
1.0
  9
$DIMBLK
  1
_CLOSED
  9
$DIMTXT
 40
0.15625
  9
$DIMTOL
 70
0
  9
$DIMLIM
 70
0
  9
$DIMTFAC
 40
1.0
  9
$PDMODE
 70
3
  9
$PDSIZE
 40
0.3125
  9
$HANDSEED
  5
47B
  9
$MEASUREMENT
 70
0
  9
$INSUNITS
 70
1
  0
ENDSEC
  0
SECTION
  2
CLASSES
  0
CLASS
  1
ACDBDICTIONARYWDFLT
  2
AcDbDictionaryWithDefault
  3
AutoCAD 2000
 90
0
280
0
281
0
  0
CLASS
  1
ACDBPLACEHOLDER
  2
AcDbPlaceHolder
  3
AutoCAD 2000
 90
0
280
0
281
0
  0
CLASS
  1
LAYOUT
  2
AcDbLayout
  3
AutoCAD 2000
 90
0
280
0
281
0
  0
ENDSEC
  0
SECTION
  2
TABLES
  0
TABLE
  2
VPORT
  5
8
100
AcDbSymbolTable
 70
2
  0
VPORT
  5
1F4
100
AcDbSymbolTableRecord
100
AcDbViewportTableRecord
  2
*ACTIVE
 70
0
 10
0.0
 20
0.0
 11
1.0
 21
1.0
 12
5.8464566929
 22
4.1338582677
 13
0.0
 23
0.0
 14
1.0
 24
1.0
 15
0.0
 25
0.0
 16
0.0
 26
0.0
 36
1.0
 17
0.0
 27
0.0
 37
0.0
 40
8.2677165354
 41
1.4142857143
 42
50.0
 43
0.0
 44
0.0
 50
0.0
 51
0.0
 71
0
 72
100
 73
1
 74
1
 75
0
 76
0
 77
0
 78
0
  0
ENDTAB
  0
TABLE
  2
LTYPE
  5
5
100
AcDbSymbolTable
 70
6
  0
LTYPE
  5
14
100
AcDbSymbolTableRecord
100
AcDbLinetypeTableRecord
  2
BYBLOCK
 70
0
  3

 72
65
 73
0
 40
0.0
  0
LTYPE
  5
15
100
AcDbSymbolTableRecord
100
AcDbLinetypeTableRecord
  2
BYLAYER
 70
0
  3

 72
65
 73
0
 40
0.0
  0
LTYPE
  5
16
100
AcDbSymbolTableRecord
100
AcDbLinetypeTableRecord
  2
CONTINUOUS
 70
64
  3
Solid line
 72
65
 73
0
 40
0.0
  0
LTYPE
  5
1F5
100
AcDbSymbolTableRecord
100
AcDbLinetypeTableRecord
  2
CENTER
 70
64
  3
____ _ ____ _ ____ _ ____ _ ____ _ ____ _ ____
 72
65
 73
4
 40
0.6
 49
0.375
 74
0
 49
-0.075
 74
0
 49
0.075
 74
0
 49
-0.075
 74
0
  0
LTYPE
  5
1F6
100
AcDbSymbolTableRecord
100
AcDbLinetypeTableRecord
  2
HIDDEN
 70
64
  3
- - - - - - - - - - - - - - - - - - - -
 72
65
 73
2
 40
0.2
 49
0.1
 74
0
 49
-0.1
 74
0
  0
LTYPE
  5
1F7
100
AcDbSymbolTableRecord
100
AcDbLinetypeTableRecord
  2
PHANTOM
 70
64
  3
_____ _ _ _____ _ _ _____ _ _ _____
 72
65
 73
6
 40
0.8
 49
0.45
 74
0
 49
-0.05
 74
0
 49
0.1
 74
0
 49
-0.05
 74
0
 49
0.1
 74
0
 49
-0.05
 74
0
  0
LTYPE
  5
1F8
100
AcDbSymbolTableRecord
100
AcDbLinetypeTableRecord
  2
DOT
 70
64
  3
. . . . . . . . . . . . . . . . . . . .
 72
65
 73
2
 40
0.2
 49
0.1
 74
0
 49
-0.1
 74
0
  0
LTYPE
  5
1F9
100
AcDbSymbolTableRecord
100
AcDbLinetypeTableRecord
  2
DASHED
 70
64
  3
- - - - - - - - - - - - - - - - - - - -
 72
65
 73
2
 40
0.2
 49
0.1
 74
0
 49
-0.1
 74
0
  0
ENDTAB
  0
TABLE
  2
LAYER
  5
2
100
AcDbSymbolTable
 70
36
  0
LAYER
  5
10
100
AcDbSymbolTableRecord
100
AcDbLayerTableRecord
  2
0
 70
0
 62
7
  6
CONTINUOUS
370
-3
390
F
  0
LAYER
  5
1FA
100
AcDbSymbolTableRecord
100
AcDbLayerTableRecord
  2
DEFAULT_1
 70
0
 62
7
  6
CENTER
370
-3
390
F
  0
LAYER
  5
1FB
100
AcDbSymbolTableRecord
100
AcDbLayerTableRecord
  2
DEFAULT_2
 70
0
 62
8
  6
HIDDEN
370
-3
390
F
  0
LAYER
  5
1FC
100
AcDbSymbolTableRecord
100
AcDbLayerTableRecord
  2
DEFAULT_3
 70
0
 62
7
  6
PHANTOM
370
-3
390
F
  0
LAYER
  5
1FD
100
AcDbSymbolTableRecord
100
AcDbLayerTableRecord
  2
_BLACK_HOLE
 70
0
 62
7
  6
CONTINUOUS
370
-3
390
F
  0
LAYER
  5
1FE
100
AcDbSymbolTableRecord
100
AcDbLayerTableRecord
  2
01_ALL_DTM_PLN
 70
0
 62
7
  6
CONTINUOUS
370
-3
390
F
  0
LAYER
  5
1FF
100
AcDbSymbolTableRecord
100
AcDbLayerTableRecord
  2
01__ASM_ALL_DTM_PLN
 70
0
 62
7
  6
CONTINUOUS
370
-3
390
F
  0
LAYER
  5
200
100
AcDbSymbolTableRecord
100
AcDbLayerTableRecord
  2
01__ASM_DEF_DTM_PLN
 70
0
 62
7
  6
CONTINUOUS
370
-3
390
F
  0
LAYER
  5
201
100
AcDbSymbolTableRecord
100
AcDbLayerTableRecord
  2
01___PRT_ALL_DTM_PLN
 70
0
 62
7
  6
CONTINUOUS
370
-3
390
F
  0
LAYER
  5
202
100
AcDbSymbolTableRecord
100
AcDbLayerTableRecord
  2
01___PRT_DEF_DTM_PLN
 70
0
 62
7
  6
CONTINUOUS
370
-3
390
F
  0
LAYER
  5
203
100
AcDbSymbolTableRecord
100
AcDbLayerTableRecord
  2
02_ALL_AXES
 70
0
 62
7
  6
CONTINUOUS
370
-3
390
F
  0
LAYER
  5
204
100
AcDbSymbolTableRecord
100
AcDbLayerTableRecord
  2
02__ASM_ALL_AXES
 70
0
 62
7
  6
CONTINUOUS
370
-3
390
F
  0
LAYER
  5
205
100
AcDbSymbolTableRecord
100
AcDbLayerTableRecord
  2
02___PRT_ALL_AXES
 70
0
 62
7
  6
CONTINUOUS
370
-3
390
F
  0
LAYER
  5
206
100
AcDbSymbolTableRecord
100
AcDbLayerTableRecord
  2
03_ALL_CURVES
 70
0
 62
7
  6
CONTINUOUS
370
-3
390
F
  0
LAYER
  5
207
100
AcDbSymbolTableRecord
100
AcDbLayerTableRecord
  2
03__ASM_ALL_CURVES
 70
0
 62
7
  6
CONTINUOUS
370
-3
390
F
  0
LAYER
  5
208
100
AcDbSymbolTableRecord
100
AcDbLayerTableRecord
  2
03___PRT_ALL_CURVES
 70
0
 62
7
  6
CONTINUOUS
370
-3
390
F
  0
LAYER
  5
209
100
AcDbSymbolTableRecord
100
AcDbLayerTableRecord
  2
04_ALL_DTM_PNT
 70
0
 62
7
  6
CONTINUOUS
370
-3
390
F
  0
LAYER
  5
20A
100
AcDbSymbolTableRecord
100
AcDbLayerTableRecord
  2
04__ASM_ALL_DTM_PNT
 70
0
 62
7
  6
CONTINUOUS
370
-3
390
F
  0
LAYER
  5
20B
100
AcDbSymbolTableRecord
100
AcDbLayerTableRecord
  2
04___PRT_ALL_DTM_PNT
 70
0
 62
7
  6
CONTINUOUS
370
-3
390
F
  0
LAYER
  5
20C
100
AcDbSymbolTableRecord
100
AcDbLayerTableRecord
  2
05_ALL_DTM_CSYS
 70
0
 62
7
  6
CONTINUOUS
370
-3
390
F
  0
LAYER
  5
20D
100
AcDbSymbolTableRecord
100
AcDbLayerTableRecord
  2
05__ASM_ALL_DTM_CSYS
 70
0
 62
7
  6
CONTINUOUS
370
-3
390
F
  0
LAYER
  5
20E
100
AcDbSymbolTableRecord
100
AcDbLayerTableRecord
  2
05__ASM_DEF_DTM_CSYS
 70
0
 62
7
  6
CONTINUOUS
370
-3
390
F
  0
LAYER
  5
20F
100
AcDbSymbolTableRecord
100
AcDbLayerTableRecord
  2
05___PRT_ALL_DTM_CSYS
 70
0
 62
7
  6
CONTINUOUS
370
-3
390
F
  0
LAYER
  5
210
100
AcDbSymbolTableRecord
100
AcDbLayerTableRecord
  2
05___PRT_DEF_DTM_CSYS
 70
0
 62
7
  6
CONTINUOUS
370
-3
390
F
  0
LAYER
  5
211
100
AcDbSymbolTableRecord
100
AcDbLayerTableRecord
  2
06_ALL_SURFS
 70
0
 62
7
  6
CONTINUOUS
370
-3
390
F
  0
LAYER
  5
212
100
AcDbSymbolTableRecord
100
AcDbLayerTableRecord
  2
06__ASM_ALL_SURFS
 70
0
 62
7
  6
CONTINUOUS
370
-3
390
F
  0
LAYER
  5
213
100
AcDbSymbolTableRecord
100
AcDbLayerTableRecord
  2
06___PRT_ALL_SURFS
 70
0
 62
7
  6
CONTINUOUS
370
-3
390
F
  0
LAYER
  5
214
100
AcDbSymbolTableRecord
100
AcDbLayerTableRecord
  2
07__ASM_ALL_SKELETONS
 70
0
 62
7
  6
CONTINUOUS
370
-3
390
F
  0
LAYER
  5
215
100
AcDbSymbolTableRecord
100
AcDbLayerTableRecord
  2
126-300_HEX_FEATURES
 70
0
 62
7
  6
CONTINUOUS
370
-3
390
F
  0
LAYER
  5
216
100
AcDbSymbolTableRecord
100
AcDbLayerTableRecord
  2
126-300_REF_GEOMETRY
 70
0
 62
7
  6
CONTINUOUS
370
-3
390
F
  0
LAYER
  5
217
100
AcDbSymbolTableRecord
100
AcDbLayerTableRecord
  2
126-301_HEX_FEATURES
 70
0
 62
7
  6
CONTINUOUS
370
-3
390
F
  0
LAYER
  5
218
100
AcDbSymbolTableRecord
100
AcDbLayerTableRecord
  2
126-301_REF_GEOMETRY
 70
0
 62
7
  6
CONTINUOUS
370
-3
390
F
  0
LAYER
  5
219
100
AcDbSymbolTableRecord
100
AcDbLayerTableRecord
  2
126-302_HEX_FEATURES
 70
0
 62
7
  6
CONTINUOUS
370
-3
390
F
  0
LAYER
  5
21A
100
AcDbSymbolTableRecord
100
AcDbLayerTableRecord
  2
126-302_REF_GEOMETRY
 70
0
 62
7
  6
CONTINUOUS
370
-3
390
F
  0
LAYER
  5
21B
100
AcDbSymbolTableRecord
100
AcDbLayerTableRecord
  2
126-303_HEX_FEATURES
 70
0
 62
7
  6
CONTINUOUS
370
-3
390
F
  0
LAYER
  5
21C
100
AcDbSymbolTableRecord
100
AcDbLayerTableRecord
  2
126-303_REF_GEOMETRY
 70
0
 62
7
  6
CONTINUOUS
370
-3
390
F
  0
LAYER
  5
21D
100
AcDbSymbolTableRecord
100
AcDbLayerTableRecord
  2
BSPP_PORT_PER_S-186
 70
0
 62
7
  6
CONTINUOUS
370
-3
390
F
  0
LAYER
  5
21E
100
AcDbSymbolTableRecord
100
AcDbLayerTableRecord
  2
COPY_GEO_FET
 70
0
 62
7
  6
CONTINUOUS
370
-3
390
F
  0
LAYER
  5
21F
100
AcDbSymbolTableRecord
100
AcDbLayerTableRecord
  2
COSMETIC
 70
0
 62
7
  6
CONTINUOUS
370
-3
390
F
  0
LAYER
  5
220
100
AcDbSymbolTableRecord
100
AcDbLayerTableRecord
  2
COSMETICS
 70
0
 62
7
  6
CONTINUOUS
370
-3
390
F
  0
LAYER
  5
221
100
AcDbSymbolTableRecord
100
AcDbLayerTableRecord
  2
CUT_REF_SURF
 70
0
 62
7
  6
CONTINUOUS
370
-3
390
F
  0
LAYER
  5
222
100
AcDbSymbolTableRecord
100
AcDbLayerTableRecord
  2
DATUM
 70
0
 62
7
  6
CONTINUOUS
370
-3
390
F
  0
LAYER
  5
223
100
AcDbSymbolTableRecord
100
AcDbLayerTableRecord
  2
DATUMCURVES
 70
0
 62
7
  6
CONTINUOUS
370
-3
390
F
  0
LAYER
  5
224
100
AcDbSymbolTableRecord
100
AcDbLayerTableRecord
  2
DIMENSIONS
 70
0
 62
7
  6
CONTINUOUS
370
-3
390
F
  0
LAYER
  5
225
100
AcDbSymbolTableRecord
100
AcDbLayerTableRecord
  2
DTM230
 70
0
 62
7
  6
CONTINUOUS
370
-3
390
F
  0
LAYER
  5
226
100
AcDbSymbolTableRecord
100
AcDbLayerTableRecord
  2
DTM_500001
 70
0
 62
7
  6
CONTINUOUS
370
-3
390
F
  0
LAYER
  5
227
100
AcDbSymbolTableRecord
100
AcDbLayerTableRecord
  2
DTM_500002
 70
0
 62
7
  6
CONTINUOUS
370
-3
390
F
  0
LAYER
  5
228
100
AcDbSymbolTableRecord
100
AcDbLayerTableRecord
  2
DTM_515002
 70
0
 62
7
  6
CONTINUOUS
370
-3
390
F
  0
LAYER
  5
229
100
AcDbSymbolTableRecord
100
AcDbLayerTableRecord
  2
DTM_530002
 70
0
 62
7
  6
CONTINUOUS
370
-3
390
F
  0
LAYER
  5
22A
100
AcDbSymbolTableRecord
100
AcDbLayerTableRecord
  2
DTM_SPRING_LH
 70
0
 62
7
  6
CONTINUOUS
370
-3
390
F
  0
LAYER
  5
22B
100
AcDbSymbolTableRecord
100
AcDbLayerTableRecord
  2
DTM_SP_LH_CONSTR
 70
0
 62
7
  6
CONTINUOUS
370
-3
390
F
  0
LAYER
  5
22C
100
AcDbSymbolTableRecord
100
AcDbLayerTableRecord
  2
GEOMETRICTOLERANCES
 70
0
 62
7
  6
CONTINUOUS
370
-3
390
F
  0
LAYER
  5
22D
100
AcDbSymbolTableRecord
100
AcDbLayerTableRecord
  2
LAY0001
 70
0
 62
7
  6
CONTINUOUS
370
-3
390
F
  0
LAYER
  5
22E
100
AcDbSymbolTableRecord
100
AcDbLayerTableRecord
  2
NPTF_PORT_PER_S-164
 70
0
 62
7
  6
CONTINUOUS
370
-3
390
F
  0
LAYER
  5
22F
100
AcDbSymbolTableRecord
100
AcDbLayerTableRecord
  2
PARAMETERDIMENSIONS
 70
0
 62
7
  6
CONTINUOUS
370
-3
390
F
  0
LAYER
  5
230
100
AcDbSymbolTableRecord
100
AcDbLayerTableRecord
  2
PLANE
 70
0
 62
7
  6
CONTINUOUS
370
-3
390
F
  0
LAYER
  5
231
100
AcDbSymbolTableRecord
100
AcDbLayerTableRecord
  2
STD_SAE-4_PORT
 70
0
 62
7
  6
CONTINUOUS
370
-3
390
F
  0
LAYER
  5
232
100
AcDbSymbolTableRecord
100
AcDbLayerTableRecord
  2
T-8A_CAVITY
 70
0
 62
7
  6
CONTINUOUS
370
-3
390
F
  0
LAYER
  5
233
100
AcDbSymbolTableRecord
100
AcDbLayerTableRecord
  2
T-8A_CAVITY_REF_GEOMETRY
 70
0
 62
7
  6
CONTINUOUS
370
-3
390
F
  0
LAYER
  5
234
100
AcDbSymbolTableRecord
100
AcDbLayerTableRecord
  2
TEXT
 70
0
 62
7
  6
CONTINUOUS
370
-3
390
F
  0
LAYER
  5
235
100
AcDbSymbolTableRecord
100
AcDbLayerTableRecord
  2
THREAD
 70
0
 62
7
  6
CONTINUOUS
370
-3
390
F
  0
ENDTAB
  0
TABLE
  2
STYLE
  5
3
100
AcDbSymbolTable
 70
1
  0
STYLE
  5
11
100
AcDbSymbolTableRecord
100
AcDbTextStyleTableRecord
  2
STANDARD
 70
0
 40
0.0
 41
0.8
 50
0.0
 71
0
 42
0.2
  3
txt
  4

  0
ENDTAB
  0
TABLE
  2
VIEW
  5
6
100
AcDbSymbolTable
 70
0
  0
ENDTAB
  0
TABLE
  2
UCS
  5
7
100
AcDbSymbolTable
 70
0
  0
ENDTAB
  0
TABLE
  2
APPID
  5
9
100
AcDbSymbolTable
 70
1
  0
APPID
  5
236
100
AcDbSymbolTableRecord
100
AcDbRegAppTableRecord
  2
ACAD
 70
0
  0
ENDTAB
  0
TABLE
  2
BLOCK_RECORD
  5
1
100
AcDbSymbolTable
 70
0
  0
BLOCK_RECORD
  5
1F
100
AcDbSymbolTableRecord
100
AcDbBlockTableRecord
  2
*MODEL_SPACE
  0
BLOCK_RECORD
  5
1B
100
AcDbSymbolTableRecord
100
AcDbBlockTableRecord
  2
*PAPER_SPACE
  0
ENDTAB
  0
TABLE
  2
DIMSTYLE
  5
A
100
AcDbSymbolTable
 70
1
100
AcDbDimStyleTable
 71
0
  0
DIMSTYLE
105
237
100
AcDbSymbolTableRecord
100
AcDbDimStyleTableRecord
  2
STANDARD
 70
0
  3

  4

 40
1.0
 41
0.1875
 42
0.0625
 43
0.38
 44
0.18
 45
0.0
 46
0.0
 47
0.01
 48
0.01
140
0.15625
141
0.09
142
0.0
143
25.4
144
1.0
145
0.0
146
1.0
147
0.09
 71
0.0
 72
0.0
 73
1
 74
1
 75
0
 76
0
 77
0
 78
4
170
0
171
2
172
0
173
0
174
0
175
0
176
0
177
0
178
0
270
2
271
2
272
2
273
2
274
2
275
0
280
0
281
0
282
0
283
1
284
4
285
0
286
0
287
3
288
0
340
11
  0
ENDTAB
  0
ENDSEC
  0
SECTION
  2
BLOCKS
  0
BLOCK
  5
20
100
AcDbEntity
  8
0
100
AcDbBlockBegin
  2
*MODEL_SPACE
 70
0
 10
0.0
 20
0.0
 30
0.0
  3
*MODEL_SPACE
  1

  0
ENDBLK
  5
21
100
AcDbEntity
  8
0
100
AcDbBlockEnd
  0
BLOCK
  5
1C
100
AcDbEntity
  8
0
100
AcDbBlockBegin
  2
*PAPER_SPACE
 70
0
 10
0.0
 20
0.0
 30
0.0
  3
*PAPER_SPACE
  1

  0
ENDBLK
  5
1D
100
AcDbEntity
  8
0
100
AcDbBlockEnd
  0
ENDSEC
  0
SECTION
  2
ENTITIES
  0
LINE
  5
238
100
AcDbEntity
  8
0
100
AcDbLine
 62
7
  6
CONTINUOUS
 10
4.2993989654
 20
3.7050619326
 11
4.2993989654
 21
4.5650619326
  0
LINE
  5
239
100
AcDbEntity
  8
03__ASM_ALL_CURVES
100
AcDbLine
 62
40
  6
CONTINUOUS
 10
4.2993989654
 20
4.5650619326
 11
4.2993989654
 21
5.0801479326
  0
LINE
  5
23A
100
AcDbEntity
  8
0
100
AcDbLine
 62
7
  6
CONTINUOUS
 10
4.3330739905
 20
3.6467350782
 11
4.2993989654
 21
3.7050619326
  0
LINE
  5
23B
100
AcDbEntity
  8
0
100
AcDbLine
 62
7
  6
CONTINUOUS
 10
4.3334626313
 20
3.6460619326
 11
4.3334626313
 21
3.6469594601
  0
LINE
  5
23C
100
AcDbEntity
  8
0
100
AcDbLine
 62
7
  6
CONTINUOUS
 10
4.3334626313
 20
3.8653644051
 11
4.3334626313
 21
3.9166569876
  0
LINE
  5
23D
100
AcDbEntity
  8
0
100
AcDbLine
 62
7
  6
CONTINUOUS
 10
4.3334626313
 20
4.3534668776
 11
4.3334626313
 21
4.4047594601
  0
LINE
  5
23E
100
AcDbEntity
  8
0
100
AcDbLine
 62
7
  6
CONTINUOUS
 10
4.3334626313
 20
4.6231644051
 11
4.3334626313
 21
4.6240619326
  0
LINE
  5
23F
100
AcDbEntity
  8
03__ASM_ALL_CURVES
100
AcDbLine
 62
40
  6
CONTINUOUS
 10
4.3556489654
 20
5.0707729326
 11
4.3556489654
 21
5.0520229326
  0
LINE
  5
240
100
AcDbEntity
  8
0
100
AcDbLine
 62
7
  6
CONTINUOUS
 10
4.3330739905
 20
4.623388787
 11
4.2993989654
 21
4.5650619326
  0
LINE
  5
241
100
AcDbEntity
  8
03__ASM_ALL_CURVES
100
AcDbLine
 62
40
  6
CONTINUOUS
 10
4.7663364654
 20
5.1270229315
 11
4.7698520904
 21
5.1317104337
  0
LINE
  5
242
100
AcDbEntity
  8
03__ASM_ALL_CURVES
100
AcDbLine
 62
40
  6
CONTINUOUS
 10
4.7628208404
 20
5.0988979332
 11
4.7698520904
 21
5.1082729326
  0
LINE
  5
243
100
AcDbEntity
  8
03__ASM_ALL_CURVES
100
AcDbLine
 62
40
  6
CONTINUOUS
 10
4.7944614654
 20
5.1223354326
 11
4.7909458404
 21
5.1176479337
  0
LINE
  5
244
100
AcDbEntity
  8
03__ASM_ALL_CURVES
100
AcDbLine
 62
40
  6
CONTINUOUS
 10
4.7979770904
 20
5.0942104326
 11
4.7909458404
 21
5.0848354327
  0
LINE
  5
245
100
AcDbEntity
  8
03__ASM_ALL_CURVES
100
AcDbLine
 62
40
  6
CONTINUOUS
 10
4.8401645904
 20
5.1363979326
 11
4.8331333404
 21
5.1270229315
  0
LINE
  5
246
100
AcDbEntity
  8
03__ASM_ALL_CURVES
100
AcDbLine
 62
40
  6
CONTINUOUS
 10
4.7698520904
 20
5.1317104337
 11
4.7768833404
 21
5.1363979326
  0
LINE
  5
247
100
AcDbEntity
  8
03__ASM_ALL_CURVES
100
AcDbLine
 62
40
  6
CONTINUOUS
 10
4.7698520904
 20
5.1082729326
 11
4.7768833404
 21
5.1129604315
  0
LINE
  5
248
100
AcDbEntity
  8
03__ASM_ALL_CURVES
100
AcDbLine
 62
40
  6
CONTINUOUS
 10
4.7909458404
 20
5.1176479337
 11
4.7839145904
 21
5.1129604315
  0
LINE
  5
249
100
AcDbEntity
  8
03__ASM_ALL_CURVES
100
AcDbLine
 62
40
  6
CONTINUOUS
 10
4.6116489654
 20
5.1363979326
 11
4.6116489654
 21
5.0801479326
  0
LINE
  5
24A
100
AcDbEntity
  8
03__ASM_ALL_CURVES
100
AcDbLine
 62
40
  6
CONTINUOUS
 10
4.6643833404
 20
5.0801479326
 11
4.6643833404
 21
5.0848354327
  0
LINE
  5
24B
100
AcDbEntity
  8
03__ASM_ALL_CURVES
100
AcDbLine
 62
40
  6
CONTINUOUS
 10
4.8331333404
 20
5.1270229315
 11
4.8296177154
 21
5.1129604315
  0
LINE
  5
24C
100
AcDbEntity
  8
03__ASM_ALL_CURVES
100
AcDbLine
 62
40
  6
CONTINUOUS
 10
4.8788364654
 20
5.1270229315
 11
4.8823520904
 21
5.1317104337
  0
LINE
  5
24D
100
AcDbEntity
  8
03__ASM_ALL_CURVES
100
AcDbLine
 62
40
  6
CONTINUOUS
 10
4.8893833404
 20
5.103585432
 11
4.8823520904
 21
5.0942104326
  0
LINE
  5
24E
100
AcDbEntity
  8
03__ASM_ALL_CURVES
100
AcDbLine
 62
40
  6
CONTINUOUS
 10
4.9069614654
 20
5.1176479337
 11
4.9034458404
 21
5.1129604315
  0
LINE
  5
24F
100
AcDbEntity
  8
03__ASM_ALL_CURVES
100
AcDbLine
 62
40
  6
CONTINUOUS
 10
4.9386020904
 20
5.1270229315
 11
4.9421177154
 21
5.1317104337
  0
LINE
  5
250
100
AcDbEntity
  8
03__ASM_ALL_CURVES
100
AcDbLine
 62
40
  6
CONTINUOUS
 10
4.9596958404
 20
5.0895229329
 11
4.9561802154
 21
5.0848354327
  0
LINE
  5
251
100
AcDbEntity
  8
03__ASM_ALL_CURVES
100
AcDbLine
 62
40
  6
CONTINUOUS
 10
4.7909458404
 20
5.0848354327
 11
4.7839145904
 21
5.0801479326
  0
LINE
  5
252
100
AcDbEntity
  8
03__ASM_ALL_CURVES
100
AcDbLine
 62
40
  6
CONTINUOUS
 10
4.8823520904
 20
5.1317104337
 11
4.8893833404
 21
5.1363979326
  0
LINE
  5
253
100
AcDbEntity
  8
03__ASM_ALL_CURVES
100
AcDbLine
 62
40
  6
CONTINUOUS
 10
4.9034458404
 20
5.1129604315
 11
4.8893833404
 21
5.103585432
  0
LINE
  5
254
100
AcDbEntity
  8
03__ASM_ALL_CURVES
100
AcDbLine
 62
40
  6
CONTINUOUS
 10
4.9421177154
 20
5.1317104337
 11
4.9491489654
 21
5.1363979326
  0
LINE
  5
255
100
AcDbEntity
  8
0
100
AcDbLine
 62
7
  6
CONTINUOUS
 10
4.7068989654
 20
3.6460619326
 11
4.7068989654
 21
3.6469594601
  0
LINE
  5
256
100
AcDbEntity
  8
0
100
AcDbLine
 62
7
  6
CONTINUOUS
 10
4.7068989654
 20
3.8653644051
 11
4.7068989654
 21
3.9166569876
  0
LINE
  5
257
100
AcDbEntity
  8
0
100
AcDbLine
 62
7
  6
CONTINUOUS
 10
4.7068989654
 20
4.3534668776
 11
4.7068989654
 21
4.4047594601
  0
LINE
  5
258
100
AcDbEntity
  8
0
100
AcDbLine
 62
7
  6
CONTINUOUS
 10
4.7068989654
 20
4.6231644051
 11
4.7068989654
 21
4.6240619326
  0
LINE
  5
259
100
AcDbEntity
  8
03__ASM_ALL_CURVES
100
AcDbLine
 62
40
  6
CONTINUOUS
 10
4.7241489654
 20
5.1363979326
 11
4.7241489654
 21
5.0801479326
  0
LINE
  5
25A
100
AcDbEntity
  8
03__ASM_ALL_CURVES
100
AcDbLine
 62
40
  6
CONTINUOUS
 10
4.7628208404
 20
5.0942104326
 11
4.7628208404
 21
5.0988979332
  0
LINE
  5
25B
100
AcDbEntity
  8
03__ASM_ALL_CURVES
100
AcDbLine
 62
40
  6
CONTINUOUS
 10
4.7663364654
 20
5.1223354326
 11
4.7663364654
 21
5.1270229315
  0
LINE
  5
25C
100
AcDbEntity
  8
0
100
AcDbLine
 62
7
  6
CONTINUOUS
 10
4.7673989654
 20
3.7065619326
 11
4.7673989654
 21
4.5635619326
  0
LINE
  5
25D
100
AcDbEntity
  8
03__ASM_ALL_CURVES
100
AcDbLine
 62
40
  6
CONTINUOUS
 10
4.8823520904
 20
5.0942104326
 11
4.8788364654
 21
5.0801479326
  0
LINE
  5
25E
100
AcDbEntity
  8
03__ASM_ALL_CURVES
100
AcDbLine
 62
40
  6
CONTINUOUS
 10
4.9350864654
 20
5.1176479337
 11
4.9386020904
 21
5.1270229315
  0
LINE
  5
25F
100
AcDbEntity
  8
03__ASM_ALL_CURVES
100
AcDbLine
 62
40
  6
CONTINUOUS
 10
4.9632114654
 20
5.1176479337
 11
4.9596958404
 21
5.1082729326
  0
LINE
  5
260
100
AcDbEntity
  8
03__ASM_ALL_CURVES
100
AcDbLine
 62
40
  6
CONTINUOUS
 10
4.9632114654
 20
5.0988979332
 11
4.9596958404
 21
5.0895229329
  0
LINE
  5
261
100
AcDbEntity
  8
03__ASM_ALL_CURVES
100
AcDbLine
 62
40
  6
CONTINUOUS
 10
5.0511020904
 20
5.1270229315
 11
5.0546177154
 21
5.1317104337
  0
LINE
  5
262
100
AcDbEntity
  8
03__ASM_ALL_CURVES
100
AcDbLine
 62
40
  6
CONTINUOUS
 10
5.0721958404
 20
5.0895229329
 11
5.0686802154
 21
5.0848354327
  0
LINE
  5
263
100
AcDbEntity
  8
03__ASM_ALL_CURVES
100
AcDbLine
 62
40
  6
CONTINUOUS
 10
4.9561802154
 20
5.0848354327
 11
4.9491489654
 21
5.0801479326
  0
LINE
  5
264
100
AcDbEntity
  8
03__ASM_ALL_CURVES
100
AcDbLine
 62
40
  6
CONTINUOUS
 10
5.0546177154
 20
5.1317104337
 11
5.0616489654
 21
5.1363979326
  0
LINE
  5
265
100
AcDbEntity
  8
03__ASM_ALL_CURVES
100
AcDbLine
 62
40
  6
CONTINUOUS
 10
5.0686802154
 20
5.0848354327
 11
5.0616489654
 21
5.0801479326
  0
LINE
  5
266
100
AcDbEntity
  8
03__ASM_ALL_CURVES
100
AcDbLine
 62
40
  6
CONTINUOUS
 10
4.9596958404
 20
5.1082729326
 11
4.9491489654
 21
5.103585432
  0
LINE
  5
267
100
AcDbEntity
  8
03__ASM_ALL_CURVES
100
AcDbLine
 62
40
  6
CONTINUOUS
 10
5.0721958404
 20
5.1082729326
 11
5.0616489654
 21
5.103585432
  0
LINE
  5
268
100
AcDbEntity
  8
03__ASM_ALL_CURVES
100
AcDbLine
 62
40
  6
CONTINUOUS
 10
5.133342329
 20
3.4801244326
 11
5.1386157665
 21
3.4766088084
  0
LINE
  5
269
100
AcDbEntity
  8
03__ASM_ALL_CURVES
100
AcDbLine
 62
40
  6
CONTINUOUS
 10
4.7944614654
 20
5.1270229315
 11
4.7944614654
 21
5.1223354326
  0
LINE
  5
26A
100
AcDbEntity
  8
03__ASM_ALL_CURVES
100
AcDbLine
 62
40
  6
CONTINUOUS
 10
4.7979770904
 20
5.0988979332
 11
4.7979770904
 21
5.0942104326
  0
LINE
  5
26B
100
AcDbEntity
  8
03__ASM_ALL_CURVES
100
AcDbLine
 62
40
  6
CONTINUOUS
 10
4.8296177154
 20
5.1129604315
 11
4.8296177154
 21
5.103585432
  0
LINE
  5
26C
100
AcDbEntity
  8
0
100
AcDbLine
 62
7
  6
CONTINUOUS
 10
4.8923989654
 20
3.7065619326
 11
4.8923989654
 21
4.5635619326
  0
LINE
  5
26D
100
AcDbEntity
  8
03__ASM_ALL_CURVES
100
AcDbLine
 62
40
  6
CONTINUOUS
 10
5.0475864654
 20
5.1176479337
 11
5.0511020904
 21
5.1270229315
  0
LINE
  5
26E
100
AcDbEntity
  8
03__ASM_ALL_CURVES
100
AcDbLine
 62
40
  6
CONTINUOUS
 10
5.0757114654
 20
5.1176479337
 11
5.0721958404
 21
5.1082729326
  0
LINE
  5
26F
100
AcDbEntity
  8
03__ASM_ALL_CURVES
100
AcDbLine
 62
40
  6
CONTINUOUS
 10
5.0757114654
 20
5.0988979332
 11
5.0721958404
 21
5.0895229329
  0
LINE
  5
270
100
AcDbEntity
  8
03__ASM_ALL_CURVES
100
AcDbLine
 62
40
  6
CONTINUOUS
 10
5.1249302154
 20
5.1176479337
 11
5.1319614654
 21
5.1363979326
  0
LINE
  5
271
100
AcDbEntity
  8
03__ASM_ALL_CURVES
100
AcDbLine
 62
40
  6
CONTINUOUS
 10
5.1776645904
 20
5.0895229329
 11
5.1706333404
 21
5.0801479326
  0
LINE
  5
272
100
AcDbEntity
  8
03__ASM_ALL_CURVES
100
AcDbLine
 62
40
  6
CONTINUOUS
 10
5.2546313915
 20
3.4379369326
 11
5.249357954
 21
3.4414525577
  0
LINE
  5
273
100
AcDbEntity
  8
03__ASM_ALL_CURVES
100
AcDbLine
 62
40
  6
CONTINUOUS
 10
5.1702563915
 20
3.4988744326
 11
5.164982954
 21
3.5023900577
  0
LINE
  5
274
100
AcDbEntity
  8
03__ASM_ALL_CURVES
100
AcDbLine
 62
40
  6
CONTINUOUS
 10
5.133342329
 20
3.5410619326
 11
5.1386157665
 21
3.5375463084
  0
LINE
  5
275
100
AcDbEntity
  8
03__ASM_ALL_CURVES
100
AcDbLine
 62
40
  6
CONTINUOUS
 10
5.259904829
 20
3.4801244326
 11
5.2651782665
 21
3.4766088084
  0
LINE
  5
276
100
AcDbEntity
  8
03__ASM_ALL_CURVES
100
AcDbLine
 62
40
  6
CONTINUOUS
 10
5.175529829
 20
3.5410619326
 11
5.1808032665
 21
3.5375463084
  0
LINE
  5
277
100
AcDbEntity
  8
03__ASM_ALL_CURVES
100
AcDbLine
 62
40
  6
CONTINUOUS
 10
5.217717329
 20
3.5410619326
 11
5.2229907665
 21
3.5375463084
  0
LINE
  5
278
100
AcDbEntity
  8
03__ASM_ALL_CURVES
100
AcDbLine
 62
40
  6
CONTINUOUS
 10
5.2968188915
 20
3.4988744326
 11
5.291545454
 21
3.5023900577
  0
LINE
  5
279
100
AcDbEntity
  8
03__ASM_ALL_CURVES
100
AcDbLine
 62
40
  6
CONTINUOUS
 10
5.302092329
 20
3.5234838068
 11
5.3073657665
 21
3.5199681826
  0
LINE
  5
27A
100
AcDbEntity
  8
03__ASM_ALL_CURVES
100
AcDbLine
 62
40
  6
CONTINUOUS
 10
5.1386157665
 20
3.4766088084
 11
5.1412524853
 21
3.4730931818
  0
LINE
  5
27B
100
AcDbEntity
  8
03__ASM_ALL_CURVES
100
AcDbLine
 62
40
  6
CONTINUOUS
 10
5.164982954
 20
3.5023900577
 11
5.1597095165
 21
3.5094213076
  0
LINE
  5
27C
100
AcDbEntity
  8
03__ASM_ALL_CURVES
100
AcDbLine
 62
40
  6
CONTINUOUS
 10
5.1386157665
 20
3.5375463084
 11
5.1412524853
 21
3.5340306818
  0
LINE
  5
27D
100
AcDbEntity
  8
03__ASM_ALL_CURVES
100
AcDbLine
 62
40
  6
CONTINUOUS
 10
5.249357954
 20
3.4414525577
 11
5.2440845165
 21
3.4484838076
  0
LINE
  5
27E
100
AcDbEntity
  8
03__ASM_ALL_CURVES
100
AcDbLine
 62
40
  6
CONTINUOUS
 10
5.1808032665
 20
3.5375463084
 11
5.186076704
 21
3.5305150576
  0
LINE
  5
27F
100
AcDbEntity
  8
03__ASM_ALL_CURVES
100
AcDbLine
 62
40
  6
CONTINUOUS
 10
5.2651782665
 20
3.4766088084
 11
5.270451704
 21
3.4695775576
  0
LINE
  5
280
100
AcDbEntity
  8
03__ASM_ALL_CURVES
100
AcDbLine
 62
40
  6
CONTINUOUS
 10
5.2229907665
 20
3.5375463084
 11
5.2256274853
 21
3.5340306818
  0
LINE
  5
281
100
AcDbEntity
  8
03__ASM_ALL_CURVES
100
AcDbLine
 62
40
  6
CONTINUOUS
 10
4.9069614654
 20
5.1270229315
 11
4.9069614654
 21
5.1176479337
  0
LINE
  5
282
100
AcDbEntity
  8
0
100
AcDbLine
 62
7
  6
CONTINUOUS
 10
4.9423989654
 20
3.7070625833
 11
4.9423989654
 21
4.5630612819
  0
LINE
  5
283
100
AcDbEntity
  8
03__ASM_ALL_CURVES
100
AcDbLine
 62
40
  6
CONTINUOUS
 10
4.9632114654
 20
5.1176479337
 11
4.9632114654
 21
5.0988979332
  0
LINE
  5
284
100
AcDbEntity
  8
03__ASM_ALL_CURVES
100
AcDbLine
 62
40
  6
CONTINUOUS
 10
5.0018833404
 20
5.0801479326
 11
5.0018833404
 21
5.0848354327
  0
LINE
  5
285
100
AcDbEntity
  8
03__ASM_ALL_CURVES
100
AcDbLine
 62
40
  6
CONTINUOUS
 10
5.1178989654
 20
5.0801479326
 11
5.1214145904
 21
5.103585432
  0
LINE
  5
286
100
AcDbEntity
  8
03__ASM_ALL_CURVES
100
AcDbLine
 62
40
  6
CONTINUOUS
 10
5.1214145904
 20
5.103585432
 11
5.1249302154
 21
5.1176479337
  0
LINE
  5
287
100
AcDbEntity
  8
03__ASM_ALL_CURVES
100
AcDbLine
 62
40
  6
CONTINUOUS
 10
5.1811802154
 20
5.103585432
 11
5.1776645904
 21
5.0895229329
  0
LINE
  5
288
100
AcDbEntity
  8
03__ASM_ALL_CURVES
100
AcDbLine
 62
40
  6
CONTINUOUS
 10
5.6211645908
 20
5.1317104337
 11
5.6281958408
 21
5.1363979326
  0
LINE
  5
289
100
AcDbEntity
  8
03__ASM_ALL_CURVES
100
AcDbLine
 62
40
  6
CONTINUOUS
 10
6.5115454437
 20
3.4379369326
 11
6.4904516937
 21
3.4379369326
  0
LINE
  5
28A
100
AcDbEntity
  8
03__ASM_ALL_CURVES
100
AcDbLine
 62
40
  6
CONTINUOUS
 10
6.3770727874
 20
3.4379369326
 11
6.3717993499
 21
3.4379369326
  0
LINE
  5
28B
100
AcDbEntity
  8
03__ASM_ALL_CURVES
100
AcDbLine
 62
40
  6
CONTINUOUS
 10
6.3348852874
 20
3.4379369326
 11
6.3296118499
 21
3.4379369326
  0
LINE
  5
28C
100
AcDbEntity
  8
03__ASM_ALL_CURVES
100
AcDbLine
 62
40
  6
CONTINUOUS
 10
5.259904829
 20
3.4379369326
 11
5.2546313915
 21
3.4379369326
  0
LINE
  5
28D
100
AcDbEntity
  8
03__ASM_ALL_CURVES
100
AcDbLine
 62
40
  6
CONTINUOUS
 10
5.2045337353
 20
3.4379369326
 11
5.2256274853
 21
3.4379369326
  0
LINE
  5
28E
100
AcDbEntity
  8
03__ASM_ALL_CURVES
100
AcDbLine
 62
40
  6
CONTINUOUS
 10
6.4482641937
 20
3.4379369326
 11
6.4693579437
 21
3.4379369326
  0
LINE
  5
28F
100
AcDbEntity
  8
03__ASM_ALL_CURVES
100
AcDbLine
 62
40
  6
CONTINUOUS
 10
5.133342329
 20
3.4590306826
 11
5.1201587353
 21
3.4590306826
  0
LINE
  5
290
100
AcDbEntity
  8
03__ASM_ALL_CURVES
100
AcDbLine
 62
40
  6
CONTINUOUS
 10
6.4904516937
 20
3.4590306826
 11
6.5036352874
 21
3.4590306826
  0
LINE
  5
291
100
AcDbEntity
  8
03__ASM_ALL_CURVES
100
AcDbLine
 62
40
  6
CONTINUOUS
 10
5.1201587353
 20
3.4801244326
 11
5.133342329
 21
3.4801244326
  0
LINE
  5
292
100
AcDbEntity
  8
03__ASM_ALL_CURVES
100
AcDbLine
 62
40
  6
CONTINUOUS
 10
5.2546313915
 20
3.4801244326
 11
5.259904829
 21
3.4801244326
  0
LINE
  5
293
100
AcDbEntity
  8
03__ASM_ALL_CURVES
100
AcDbLine
 62
40
  6
CONTINUOUS
 10
5.2862720165
 20
3.4801244326
 11
5.312639204
 21
3.4801244326
  0
LINE
  5
294
100
AcDbEntity
  8
03__ASM_ALL_CURVES
100
AcDbLine
 62
40
  6
CONTINUOUS
 10
6.3296118499
 20
3.4801244326
 11
6.3348852874
 21
3.4801244326
  0
LINE
  5
295
100
AcDbEntity
  8
03__ASM_ALL_CURVES
100
AcDbLine
 62
40
  6
CONTINUOUS
 10
6.4034399749
 20
3.4801244326
 11
6.4298071624
 21
3.4801244326
  0
LINE
  5
296
100
AcDbEntity
  8
03__ASM_ALL_CURVES
100
AcDbLine
 62
40
  6
CONTINUOUS
 10
6.4904516937
 20
3.4801244326
 11
6.5115454437
 21
3.4801244326
  0
LINE
  5
297
100
AcDbEntity
  8
03__ASM_ALL_CURVES
100
AcDbLine
 62
40
  6
CONTINUOUS
 10
6.5300024749
 20
3.4801244326
 11
6.5563696624
 21
3.4801244326
  0
LINE
  5
298
100
AcDbEntity
  8
03__ASM_ALL_CURVES
100
AcDbLine
 62
40
  6
CONTINUOUS
 10
5.302092329
 20
3.5410619326
 11
5.3073657665
 21
3.5375463084
  0
LINE
  5
299
100
AcDbEntity
  8
03__ASM_ALL_CURVES
100
AcDbLine
 62
40
  6
CONTINUOUS
 10
5.291545454
 20
3.5023900577
 11
5.2889087353
 21
3.5059056828
  0
LINE
  5
29A
100
AcDbEntity
  8
03__ASM_ALL_CURVES
100
AcDbLine
 62
40
  6
CONTINUOUS
 10
5.3073657665
 20
3.5199681826
 11
5.312639204
 21
3.512936933
  0
LINE
  5
29B
100
AcDbEntity
  8
03__ASM_ALL_CURVES
100
AcDbLine
 62
40
  6
CONTINUOUS
 10
5.3073657665
 20
3.5375463084
 11
5.3100024853
 21
3.5340306818
  0
LINE
  5
29C
100
AcDbEntity
  8
03__ASM_ALL_CURVES
100
AcDbLine
 62
40
  6
CONTINUOUS
 10
5.217717329
 20
3.5199681826
 11
5.2256274853
 21
3.4988744326
  0
LINE
  5
29D
100
AcDbEntity
  8
03__ASM_ALL_CURVES
100
AcDbLine
 62
40
  6
CONTINUOUS
 10
5.1597095165
 20
3.5094213076
 11
5.1570727978
 21
3.5199681826
  0
LINE
  5
29E
100
AcDbEntity
  8
0
100
AcDbLine
 62
7
  6
CONTINUOUS
 10
5.0123989654
 20
4.5440619326
 11
5.0123989654
 21
3.7260619326
  0
LINE
  5
29F
100
AcDbEntity
  8
0
100
AcDbLine
 62
7
  6
CONTINUOUS
 10
5.0203989654
 20
3.7610619326
 11
5.0203989654
 21
4.5090619326
  0
LINE
  5
2A0
100
AcDbEntity
  8
0
100
AcDbLine
 62
7
  6
CONTINUOUS
 10
5.0333989654
 20
3.7065619326
 11
5.0333989654
 21
4.5635619326
  0
LINE
  5
2A1
100
AcDbEntity
  8
03__ASM_ALL_CURVES
100
AcDbLine
 62
40
  6
CONTINUOUS
 10
5.0757114654
 20
5.1176479337
 11
5.0757114654
 21
5.0988979332
  0
LINE
  5
2A2
100
AcDbEntity
  8
0
100
AcDbLine
 62
7
  6
CONTINUOUS
 10
5.0833989654
 20
3.7065619326
 11
5.0833989654
 21
4.5635619326
  0
LINE
  5
2A3
100
AcDbEntity
  8
126-300_HEX_FEATURES
100
AcDbLine
 62
7
  6
CONTINUOUS
 10
5.1063086213
 20
3.7920619326
 11
5.1063086213
 21
4.4780619326
  0
LINE
  5
2A4
100
AcDbEntity
  8
03__ASM_ALL_CURVES
100
AcDbLine
 62
40
  6
CONTINUOUS
 10
5.1201587353
 20
3.4379369326
 11
5.1201587353
 21
3.4801244326
  0
LINE
  5
2A5
100
AcDbEntity
  8
03__ASM_ALL_CURVES
100
AcDbLine
 62
40
  6
CONTINUOUS
 10
5.1201587353
 20
3.4988744326
 11
5.1201587353
 21
3.5410619326
  0
LINE
  5
2A6
100
AcDbEntity
  8
03__ASM_ALL_CURVES
100
AcDbLine
 62
40
  6
CONTINUOUS
 10
5.6774145908
 20
5.1317104337
 11
5.6844458408
 21
5.1363979326
  0
LINE
  5
2A7
100
AcDbEntity
  8
03__ASM_ALL_CURVES
100
AcDbLine
 62
40
  6
CONTINUOUS
 10
5.6422583408
 20
5.0848354327
 11
5.6352270908
 21
5.0801479326
  0
LINE
  5
2A8
100
AcDbEntity
  8
03__ASM_ALL_CURVES
100
AcDbLine
 62
40
  6
CONTINUOUS
 10
5.6985083408
 20
5.0848354327
 11
5.6914770908
 21
5.0801479326
  0
LINE
  5
2A9
100
AcDbEntity
  8
03__ASM_ALL_CURVES
100
AcDbLine
 62
40
  6
CONTINUOUS
 10
6.396848172
 20
3.4988744326
 11
6.3915747345
 21
3.4988744326
  0
LINE
  5
2AA
100
AcDbEntity
  8
03__ASM_ALL_CURVES
100
AcDbLine
 62
40
  6
CONTINUOUS
 10
5.302092329
 20
3.4988744326
 11
5.2968188915
 21
3.4988744326
  0
LINE
  5
2AB
100
AcDbEntity
  8
03__ASM_ALL_CURVES
100
AcDbLine
 62
40
  6
CONTINUOUS
 10
5.175529829
 20
3.4988744326
 11
5.1702563915
 21
3.4988744326
  0
LINE
  5
2AC
100
AcDbEntity
  8
03__ASM_ALL_CURVES
100
AcDbLine
 62
40
  6
CONTINUOUS
 10
6.5102270783
 20
3.4988744326
 11
6.5313208283
 21
3.4988744326
  0
LINE
  5
2AD
100
AcDbEntity
  8
03__ASM_ALL_CURVES
100
AcDbLine
 62
40
  6
CONTINUOUS
 10
6.439035672
 20
3.5199681826
 11
6.4258520783
 21
3.5199681826
  0
LINE
  5
2AE
100
AcDbEntity
  8
03__ASM_ALL_CURVES
100
AcDbLine
 62
40
  6
CONTINUOUS
 10
6.354660672
 20
3.5199681826
 11
6.3414770783
 21
3.5199681826
  0
LINE
  5
2AF
100
AcDbEntity
  8
03__ASM_ALL_CURVES
100
AcDbLine
 62
40
  6
CONTINUOUS
 10
5.217717329
 20
3.5199681826
 11
5.2045337353
 21
3.5199681826
  0
LINE
  5
2B0
100
AcDbEntity
  8
03__ASM_ALL_CURVES
100
AcDbLine
 62
40
  6
CONTINUOUS
 10
5.133342329
 20
3.5199681826
 11
5.1201587353
 21
3.5199681826
  0
LINE
  5
2B1
100
AcDbEntity
  8
03__ASM_ALL_CURVES
100
AcDbLine
 62
40
  6
CONTINUOUS
 10
5.2968188915
 20
3.5234838068
 11
5.302092329
 21
3.5234838068
  0
LINE
  5
2B2
100
AcDbEntity
  8
03__ASM_ALL_CURVES
100
AcDbLine
 62
40
  6
CONTINUOUS
 10
5.1201587353
 20
3.5410619326
 11
5.133342329
 21
3.5410619326
  0
LINE
  5
2B3
100
AcDbEntity
  8
03__ASM_ALL_CURVES
100
AcDbLine
 62
40
  6
CONTINUOUS
 10
5.1702563915
 20
3.5410619326
 11
5.175529829
 21
3.5410619326
  0
LINE
  5
2B4
100
AcDbEntity
  8
03__ASM_ALL_CURVES
100
AcDbLine
 62
40
  6
CONTINUOUS
 10
5.2045337353
 20
3.5410619326
 11
5.217717329
 21
3.5410619326
  0
LINE
  5
2B5
100
AcDbEntity
  8
03__ASM_ALL_CURVES
100
AcDbLine
 62
40
  6
CONTINUOUS
 10
5.2440845165
 20
3.5410619326
 11
5.270451704
 21
3.5410619326
  0
LINE
  5
2B6
100
AcDbEntity
  8
03__ASM_ALL_CURVES
100
AcDbLine
 62
40
  6
CONTINUOUS
 10
5.2968188915
 20
3.5410619326
 11
5.302092329
 21
3.5410619326
  0
LINE
  5
2B7
100
AcDbEntity
  8
03__ASM_ALL_CURVES
100
AcDbLine
 62
40
  6
CONTINUOUS
 10
6.3414770783
 20
3.5410619326
 11
6.354660672
 21
3.5410619326
  0
LINE
  5
2B8
100
AcDbEntity
  8
03__ASM_ALL_CURVES
100
AcDbLine
 62
40
  6
CONTINUOUS
 10
6.3915747345
 20
3.5410619326
 11
6.396848172
 21
3.5410619326
  0
LINE
  5
2B9
100
AcDbEntity
  8
03__ASM_ALL_CURVES
100
AcDbLine
 62
40
  6
CONTINUOUS
 10
6.4258520783
 20
3.5410619326
 11
6.439035672
 21
3.5410619326
  0
LINE
  5
2BA
100
AcDbEntity
  8
03__ASM_ALL_CURVES
100
AcDbLine
 62
40
  6
CONTINUOUS
 10
6.4654028595
 20
3.5410619326
 11
6.491770047
 21
3.5410619326
  0
LINE
  5
2BB
100
AcDbEntity
  8
03__ASM_ALL_CURVES
100
AcDbLine
 62
40
  6
CONTINUOUS
 10
6.5181372345
 20
3.5410619326
 11
6.523410672
 21
3.5410619326
  0
LINE
  5
2BC
100
AcDbEntity
  8
03__ASM_ALL_CURVES
100
AcDbLine
 62
40
  6
CONTINUOUS
 10
5.186076704
 20
3.5305150576
 11
5.1887134228
 21
3.5199681826
  0
LINE
  5
2BD
100
AcDbEntity
  8
03__ASM_ALL_CURVES
100
AcDbLine
 62
40
  6
CONTINUOUS
 10
4.8296177154
 20
5.103585432
 11
4.8331333404
 21
5.0895229329
  0
LINE
  5
2BE
100
AcDbEntity
  8
03__ASM_ALL_CURVES
100
AcDbLine
 62
40
  6
CONTINUOUS
 10
5.2440845165
 20
3.4484838076
 11
5.2414477978
 21
3.4590306826
  0
LINE
  5
2BF
100
AcDbEntity
  8
03__ASM_ALL_CURVES
100
AcDbLine
 62
40
  6
CONTINUOUS
 10
5.270451704
 20
3.4695775576
 11
5.2730884228
 21
3.4590306826
  0
LINE
  5
2C0
100
AcDbEntity
  8
03__ASM_ALL_CURVES
100
AcDbLine
 62
40
  6
CONTINUOUS
 10
5.1412524853
 20
3.5340306818
 11
5.1412524853
 21
3.5269994334
  0
LINE
  5
2C1
100
AcDbEntity
  8
03__ASM_ALL_CURVES
100
AcDbLine
 62
40
  6
CONTINUOUS
 10
5.1412524853
 20
3.4730931818
 11
5.1412524853
 21
3.4660619334
  0
LINE
  5
2C2
100
AcDbEntity
  8
03__ASM_ALL_CURVES
100
AcDbLine
 62
40
  6
CONTINUOUS
 10
5.1728931103
 20
3.4801244326
 11
5.1728931103
 21
3.4379369326
  0
LINE
  5
2C3
100
AcDbEntity
  8
03__ASM_ALL_CURVES
100
AcDbLine
 62
40
  6
CONTINUOUS
 10
5.1811802154
 20
5.1129604315
 11
5.1811802154
 21
5.103585432
  0
LINE
  5
2C4
100
AcDbEntity
  8
03__ASM_ALL_CURVES
100
AcDbLine
 62
40
  6
CONTINUOUS
 10
5.2045337353
 20
3.4801244326
 11
5.2045337353
 21
3.4379369326
  0
LINE
  5
2C5
100
AcDbEntity
  8
03__ASM_ALL_CURVES
100
AcDbLine
 62
40
  6
CONTINUOUS
 10
5.2045337353
 20
3.4988744326
 11
5.2045337353
 21
3.5410619326
  0
LINE
  5
2C6
100
AcDbEntity
  8
03__ASM_ALL_CURVES
100
AcDbLine
 62
40
  6
CONTINUOUS
 10
5.2256274853
 20
3.5340306818
 11
5.2256274853
 21
3.5269994334
  0
LINE
  5
2C7
100
AcDbEntity
  8
03__ASM_ALL_CURVES
100
AcDbLine
 62
40
  6
CONTINUOUS
 10
5.6141333408
 20
5.1223354326
 11
5.6211645908
 21
5.1317104337
  0
LINE
  5
2C8
100
AcDbEntity
  8
03__ASM_ALL_CURVES
100
AcDbLine
 62
40
  6
CONTINUOUS
 10
5.6492895908
 20
5.0942104326
 11
5.6422583408
 21
5.0848354327
  0
LINE
  5
2C9
100
AcDbEntity
  8
03__ASM_ALL_CURVES
100
AcDbLine
 62
40
  6
CONTINUOUS
 10
5.6703833408
 20
5.1223354326
 11
5.6774145908
 21
5.1317104337
  0
LINE
  5
2CA
100
AcDbEntity
  8
03__ASM_ALL_CURVES
100
AcDbLine
 62
40
  6
CONTINUOUS
 10
5.7020239658
 20
5.0895229329
 11
5.6985083408
 21
5.0848354327
  0
LINE
  5
2CB
100
AcDbEntity
  8
03__ASM_ALL_CURVES
100
AcDbLine
 62
40
  6
CONTINUOUS
 10
5.9586645908
 20
5.1317104337
 11
5.9656958408
 21
5.1363979326
  0
LINE
  5
2CC
100
AcDbEntity
  8
03__ASM_ALL_CURVES
100
AcDbLine
 62
40
  6
CONTINUOUS
 10
5.9797583408
 20
5.0848354327
 11
5.9727270908
 21
5.0801479326
  0
LINE
  5
2CD
100
AcDbEntity
  8
0
100
AcDbLine
 62
7
  6
CONTINUOUS
 10
4.7068989654
 20
3.6460619326
 11
4.3334626313
 21
3.6460619326
  0
LINE
  5
2CE
100
AcDbEntity
  8
0
100
AcDbLine
 62
7
  6
CONTINUOUS
 10
4.7068989654
 20
3.6469594601
 11
4.3334626313
 21
3.6469594601
  0
LINE
  5
2CF
100
AcDbEntity
  8
0
100
AcDbLine
 62
7
  6
CONTINUOUS
 10
5.4863989654
 20
3.7065619326
 11
5.4313989654
 21
3.7065619326
  0
LINE
  5
2D0
100
AcDbEntity
  8
0
100
AcDbLine
 62
7
  6
CONTINUOUS
 10
5.0833989654
 20
3.7065619326
 11
5.0333989654
 21
3.7065619326
  0
LINE
  5
2D1
100
AcDbEntity
  8
0
100
AcDbLine
 62
7
  6
CONTINUOUS
 10
4.8923989654
 20
3.7065619326
 11
4.7673989654
 21
3.7065619326
  0
LINE
  5
2D2
100
AcDbEntity
  8
0
100
AcDbLine
 62
7
  6
CONTINUOUS
 10
4.8923989654
 20
3.7070619326
 11
4.9423989654
 21
3.7070619326
  0
LINE
  5
2D3
100
AcDbEntity
  8
0
100
AcDbLine
 62
7
  6
CONTINUOUS
 10
5.1063086213
 20
4.4780619326
 11
5.0833989654
 21
4.5635619326
  0
LINE
  5
2D4
100
AcDbEntity
  8
03__ASM_ALL_CURVES
100
AcDbLine
 62
40
  6
CONTINUOUS
 10
5.2572681103
 20
3.5410619326
 11
5.2572681103
 21
3.4988744326
  0
LINE
  5
2D5
100
AcDbEntity
  8
03__ASM_ALL_CURVES
100
AcDbLine
 62
40
  6
CONTINUOUS
 10
5.2994556103
 20
3.4801244326
 11
5.2994556103
 21
3.4379369326
  0
LINE
  5
2D6
100
AcDbEntity
  8
03__ASM_ALL_CURVES
100
AcDbLine
 62
40
  6
CONTINUOUS
 10
5.3100024853
 20
3.5340306818
 11
5.3100024853
 21
3.5305150576
  0
LINE
  5
2D7
100
AcDbEntity
  8
03__ASM_ALL_CURVES
100
AcDbLine
 62
40
  6
CONTINUOUS
 10
5.312639204
 20
3.512936933
 11
5.312639204
 21
3.5094213076
  0
LINE
  5
2D8
100
AcDbEntity
  8
0
100
AcDbLine
 62
7
  6
CONTINUOUS
 10
5.1063086213
 20
3.7920619326
 11
5.0833989654
 21
3.7065619326
  0
LINE
  5
2D9
100
AcDbEntity
  8
03__ASM_ALL_CURVES
100
AcDbLine
 62
40
  6
CONTINUOUS
 10
6.0781958408
 20
5.1363979326
 11
6.0711645908
 21
5.1317104337
  0
LINE
  5
2DA
100
AcDbEntity
  8
03__ASM_ALL_CURVES
100
AcDbLine
 62
40
  6
CONTINUOUS
 10
6.0922583408
 20
5.0848354327
 11
6.0852270908
 21
5.0801479326
  0
LINE
  5
2DB
100
AcDbEntity
  8
03__ASM_ALL_CURVES
100
AcDbLine
 62
40
  6
CONTINUOUS
 10
6.1836645908
 20
5.1317104337
 11
6.1906958408
 21
5.1363979326
  0
LINE
  5
2DC
100
AcDbEntity
  8
THREAD
100
AcDbLine
 62
7
  6
CONTINUOUS
 10
5.5333989654
 20
3.7300619326
 11
5.5019874226
 21
3.7300619326
  0
LINE
  5
2DD
100
AcDbEntity
  8
0
100
AcDbLine
 62
7
  6
CONTINUOUS
 10
5.6033989654
 20
3.7305619326
 11
5.6533989654
 21
3.7305619326
  0
LINE
  5
2DE
100
AcDbEntity
  8
THREAD
100
AcDbLine
 62
7
  6
CONTINUOUS
 10
5.9418989654
 20
3.7475619326
 11
5.6947609253
 21
3.7475619326
  0
LINE
  5
2DF
100
AcDbEntity
  8
0
100
AcDbLine
 62
7
  6
CONTINUOUS
 10
5.0203989654
 20
3.7610619326
 11
5.0123989654
 21
3.7610619326
  0
LINE
  5
2E0
100
AcDbEntity
  8
THREAD
100
AcDbLine
 62
7
  6
CONTINUOUS
 10
5.6658934119
 20
3.7845619326
 11
5.6533989654
 21
3.7845619326
  0
LINE
  5
2E1
100
AcDbEntity
  8
THREAD
100
AcDbLine
 62
7
  6
CONTINUOUS
 10
6.1643989654
 20
3.7920619326
 11
5.9863989654
 21
3.7920619326
  0
LINE
  5
2E2
100
AcDbEntity
  8
0
100
AcDbLine
 62
7
  6
CONTINUOUS
 10
5.4084893094
 20
3.7920619326
 11
5.1377868463
 21
3.7920619326
  0
LINE
  5
2E3
100
AcDbEntity
  8
0
100
AcDbLine
 62
7
  6
CONTINUOUS
 10
6.5923989654
 20
3.7925619326
 11
6.6523989654
 21
3.7925619326
  0
LINE
  5
2E4
100
AcDbEntity
  8
0
100
AcDbLine
 62
7
  6
CONTINUOUS
 10
6.7933989654
 20
3.7925619326
 11
6.8473989654
 21
3.7925619326
  0
LINE
  5
2E5
100
AcDbEntity
  8
0
100
AcDbLine
 62
7
  6
CONTINUOUS
 10
6.6523989654
 20
3.7930619326
 11
6.7023989654
 21
3.7930619326
  0
LINE
  5
2E6
100
AcDbEntity
  8
0
100
AcDbLine
 62
7
  6
CONTINUOUS
 10
4.7673989654
 20
4.5635619326
 11
4.7073477291
 21
4.6236131688
  0
LINE
  5
2E7
100
AcDbEntity
  8
03__ASM_ALL_CURVES
100
AcDbLine
 62
40
  6
CONTINUOUS
 10
4.9386020904
 20
5.1082729326
 11
4.9350864654
 21
5.1176479337
  0
LINE
  5
2E8
100
AcDbEntity
  8
03__ASM_ALL_CURVES
100
AcDbLine
 62
40
  6
CONTINUOUS
 10
4.9596958404
 20
5.1270229315
 11
4.9632114654
 21
5.1176479337
  0
LINE
  5
2E9
100
AcDbEntity
  8
0
100
AcDbLine
 62
7
  6
CONTINUOUS
 10
5.4313989654
 20
3.7065619326
 11
5.4084893094
 21
3.7920619326
  0
LINE
  5
2EA
100
AcDbEntity
  8
0
100
AcDbLine
 62
7
  6
CONTINUOUS
 10
5.4084893094
 20
3.7920619326
 11
5.4084893094
 21
4.4780619326
  0
LINE
  5
2EB
100
AcDbEntity
  8
03__ASM_ALL_CURVES
100
AcDbLine
 62
40
  6
CONTINUOUS
 10
5.4301489654
 20
5.0707729326
 11
5.4301489654
 21
5.0520229326
  0
LINE
  5
2EC
100
AcDbEntity
  8
0
100
AcDbLine
 62
7
  6
CONTINUOUS
 10
5.4313989654
 20
3.7065619326
 11
5.4313989654
 21
4.5635619326
  0
LINE
  5
2ED
100
AcDbEntity
  8
03__ASM_ALL_CURVES
100
AcDbLine
 62
40
  6
CONTINUOUS
 10
5.1570727978
 20
3.5199681826
 11
5.1597095165
 21
3.5305150576
  0
LINE
  5
2EE
100
AcDbEntity
  8
03__ASM_ALL_CURVES
100
AcDbLine
 62
40
  6
CONTINUOUS
 10
5.1887134228
 20
3.5199681826
 11
5.186076704
 21
3.5094213076
  0
LINE
  5
2EF
100
AcDbEntity
  8
03__ASM_ALL_CURVES
100
AcDbLine
 62
40
  6
CONTINUOUS
 10
5.6106177158
 20
5.1082729326
 11
5.6141333408
 21
5.1223354326
  0
LINE
  5
2F0
100
AcDbEntity
  8
03__ASM_ALL_CURVES
100
AcDbLine
 62
40
  6
CONTINUOUS
 10
5.6528052158
 20
5.1082729326
 11
5.6492895908
 21
5.0942104326
  0
LINE
  5
2F1
100
AcDbEntity
  8
03__ASM_ALL_CURVES
100
AcDbLine
 62
40
  6
CONTINUOUS
 10
5.2414477978
 20
3.4590306826
 11
5.2440845165
 21
3.4695775576
  0
LINE
  5
2F2
100
AcDbEntity
  8
0
100
AcDbLine
 62
7
  6
CONTINUOUS
 10
5.4313989654
 20
4.5635619326
 11
5.4084893094
 21
4.4780619326
  0
LINE
  5
2F3
100
AcDbEntity
  8
03__ASM_ALL_CURVES
100
AcDbLine
 62
40
  6
CONTINUOUS
 10
5.9516333408
 20
5.1223354326
 11
5.9586645908
 21
5.1317104337
  0
LINE
  5
2F4
100
AcDbEntity
  8
03__ASM_ALL_CURVES
100
AcDbLine
 62
40
  6
CONTINUOUS
 10
5.9832739658
 20
5.0895229329
 11
5.9797583408
 21
5.0848354327
  0
LINE
  5
2F5
100
AcDbEntity
  8
03__ASM_ALL_CURVES
100
AcDbLine
 62
40
  6
CONTINUOUS
 10
6.2047583408
 20
5.0848354327
 11
6.1977270908
 21
5.0801479326
  0
LINE
  5
2F6
100
AcDbEntity
  8
03__ASM_ALL_CURVES
100
AcDbLine
 62
40
  6
CONTINUOUS
 10
6.2610083408
 20
5.0848354327
 11
6.2539770908
 21
5.0801479326
  0
LINE
  5
2F7
100
AcDbEntity
  8
03__ASM_ALL_CURVES
100
AcDbLine
 62
40
  6
CONTINUOUS
 10
6.3699927158
 20
5.0848354327
 11
6.3629614658
 21
5.0801479326
  0
LINE
  5
2F8
100
AcDbEntity
  8
0
100
AcDbLine
 62
7
  6
CONTINUOUS
 10
6.7933989654
 20
3.8470619326
 11
6.7723989654
 21
3.8470619326
  0
LINE
  5
2F9
100
AcDbEntity
  8
0
100
AcDbLine
 62
7
  6
CONTINUOUS
 10
6.5793989654
 20
3.8545619326
 11
6.5628989654
 21
3.8545619326
  0
LINE
  5
2FA
100
AcDbEntity
  8
0
100
AcDbLine
 62
7
  6
CONTINUOUS
 10
6.4538989654
 20
3.8545619326
 11
6.1743989654
 21
3.8545619326
  0
LINE
  5
2FB
100
AcDbEntity
  8
0
100
AcDbLine
 62
7
  6
CONTINUOUS
 10
4.7068989654
 20
3.8653644051
 11
4.3334626313
 21
3.8653644051
  0
LINE
  5
2FC
100
AcDbEntity
  8
0
100
AcDbLine
 62
7
  6
CONTINUOUS
 10
4.7068989654
 20
3.9166569876
 11
4.3334626313
 21
3.9166569876
  0
LINE
  5
2FD
100
AcDbEntity
  8
03__ASM_ALL_CURVES
100
AcDbLine
 62
40
  6
CONTINUOUS
 10
6.3296118499
 20
3.4379369326
 11
6.3243384124
 21
3.4414525577
  0
LINE
  5
2FE
100
AcDbEntity
  8
03__ASM_ALL_CURVES
100
AcDbLine
 62
40
  6
CONTINUOUS
 10
6.3717993499
 20
3.4379369326
 11
6.3665259124
 21
3.4414525577
  0
LINE
  5
2FF
100
AcDbEntity
  8
03__ASM_ALL_CURVES
100
AcDbLine
 62
40
  6
CONTINUOUS
 10
6.3348852874
 20
3.4801244326
 11
6.3401587249
 21
3.4766088084
  0
LINE
  5
300
100
AcDbEntity
  8
03__ASM_ALL_CURVES
100
AcDbLine
 62
40
  6
CONTINUOUS
 10
4.6643833404
 20
5.0848354327
 11
4.6678989654
 21
5.0801479326
  0
LINE
  5
301
100
AcDbEntity
  8
03__ASM_ALL_CURVES
100
AcDbLine
 62
40
  6
CONTINUOUS
 10
4.7698520904
 20
5.0848354327
 11
4.7628208404
 21
5.0942104326
  0
LINE
  5
302
100
AcDbEntity
  8
THREAD
100
AcDbLine
 62
7
  6
CONTINUOUS
 10
5.6947609253
 20
3.7475619326
 11
5.6771517421
 21
3.7780619326
  0
LINE
  5
303
100
AcDbEntity
  8
03__ASM_ALL_CURVES
100
AcDbLine
 62
40
  6
CONTINUOUS
 10
5.0511020904
 20
5.1082729326
 11
5.0475864654
 21
5.1176479337
  0
LINE
  5
304
100
AcDbEntity
  8
03__ASM_ALL_CURVES
100
AcDbLine
 62
40
  6
CONTINUOUS
 10
5.0721958404
 20
5.1270229315
 11
5.0757114654
 21
5.1176479337
  0
LINE
  5
305
100
AcDbEntity
  8
03__ASM_ALL_CURVES
100
AcDbLine
 62
40
  6
CONTINUOUS
 10
5.1776645904
 20
5.1270229315
 11
5.1811802154
 21
5.1129604315
  0
LINE
  5
306
100
AcDbEntity
  8
0
100
AcDbLine
 62
7
  6
CONTINUOUS
 10
5.4863989654
 20
3.7065619326
 11
5.4863989654
 21
4.5635619326
  0
LINE
  5
307
100
AcDbEntity
  8
03__ASM_ALL_CURVES
100
AcDbLine
 62
40
  6
CONTINUOUS
 10
5.4863989654
 20
4.5729369326
 11
5.4863989654
 21
5.0801479326
  0
LINE
  5
308
100
AcDbEntity
  8
THREAD
100
AcDbLine
 62
7
  6
CONTINUOUS
 10
5.5019874226
 20
3.7300619326
 11
5.5019874226
 21
4.5400619326
  0
LINE
  5
309
100
AcDbEntity
  8
0
100
AcDbLine
 62
7
  6
CONTINUOUS
 10
5.5333989654
 20
4.5440619326
 11
5.5333989654
 21
3.7260619326
  0
LINE
  5
30A
100
AcDbEntity
  8
THREAD
100
AcDbLine
 62
7
  6
CONTINUOUS
 10
5.5333989654
 20
3.7300619326
 11
5.5333989654
 21
4.5400619326
  0
LINE
  5
30B
100
AcDbEntity
  8
03__ASM_ALL_CURVES
100
AcDbLine
 62
40
  6
CONTINUOUS
 10
5.5426489654
 20
5.0707729326
 11
5.5426489654
 21
5.0520229326
  0
LINE
  5
30C
100
AcDbEntity
  8
03__ASM_ALL_CURVES
100
AcDbLine
 62
40
  6
CONTINUOUS
 10
5.5613989658
 20
5.1363979326
 11
5.5613989658
 21
5.0801479326
  0
LINE
  5
30D
100
AcDbEntity
  8
03__ASM_ALL_CURVES
100
AcDbLine
 62
40
  6
CONTINUOUS
 10
5.6668677158
 20
5.1082729326
 11
5.6703833408
 21
5.1223354326
  0
LINE
  5
30E
100
AcDbEntity
  8
03__ASM_ALL_CURVES
100
AcDbLine
 62
40
  6
CONTINUOUS
 10
5.2730884228
 20
3.4590306826
 11
5.270451704
 21
3.4484838076
  0
LINE
  5
30F
100
AcDbEntity
  8
03__ASM_ALL_CURVES
100
AcDbLine
 62
40
  6
CONTINUOUS
 10
5.7266333408
 20
5.0801479326
 11
5.7442114658
 21
5.1363979326
  0
LINE
  5
310
100
AcDbEntity
  8
03__ASM_ALL_CURVES
100
AcDbLine
 62
40
  6
CONTINUOUS
 10
6.0711645908
 20
5.1317104337
 11
6.0676489658
 21
5.1270229315
  0
LINE
  5
311
100
AcDbEntity
  8
03__ASM_ALL_CURVES
100
AcDbLine
 62
40
  6
CONTINUOUS
 10
6.0957739658
 20
5.0895229329
 11
6.0922583408
 21
5.0848354327
  0
LINE
  5
312
100
AcDbEntity
  8
0
100
AcDbLine
 62
7
  6
CONTINUOUS
 10
4.7673989654
 20
3.7065619326
 11
4.7073477291
 21
3.6465106963
  0
LINE
  5
313
100
AcDbEntity
  8
03__ASM_ALL_CURVES
100
AcDbLine
 62
40
  6
CONTINUOUS
 10
6.4860083408
 20
5.1129604315
 11
6.4789770908
 21
5.1082729326
  0
LINE
  5
314
100
AcDbEntity
  8
03__ASM_ALL_CURVES
100
AcDbLine
 62
40
  6
CONTINUOUS
 10
6.3915747345
 20
3.4988744326
 11
6.386301297
 21
3.5023900577
  0
LINE
  5
315
100
AcDbEntity
  8
03__ASM_ALL_CURVES
100
AcDbLine
 62
40
  6
CONTINUOUS
 10
6.354660672
 20
3.5410619326
 11
6.3599341095
 21
3.5375463084
  0
LINE
  5
316
100
AcDbEntity
  8
03__ASM_ALL_CURVES
100
AcDbLine
 62
40
  6
CONTINUOUS
 10
6.396848172
 20
3.5410619326
 11
6.4021216095
 21
3.5375463084
  0
LINE
  5
317
100
AcDbEntity
  8
03__ASM_ALL_CURVES
100
AcDbLine
 62
40
  6
CONTINUOUS
 10
6.439035672
 20
3.5410619326
 11
6.4443091095
 21
3.5375463084
  0
LINE
  5
318
100
AcDbEntity
  8
03__ASM_ALL_CURVES
100
AcDbLine
 62
40
  6
CONTINUOUS
 10
6.523410672
 20
3.5410619326
 11
6.5286841095
 21
3.5375463084
  0
LINE
  5
319
100
AcDbEntity
  8
03__ASM_ALL_CURVES
100
AcDbLine
 62
40
  6
CONTINUOUS
 10
4.7698520904
 20
5.1176479337
 11
4.7663364654
 21
5.1223354326
  0
LINE
  5
31A
100
AcDbEntity
  8
03__ASM_ALL_CURVES
100
AcDbLine
 62
40
  6
CONTINUOUS
 10
4.7909458404
 20
5.1082729326
 11
4.7979770904
 21
5.0988979332
  0
LINE
  5
31B
100
AcDbEntity
  8
03__ASM_ALL_CURVES
100
AcDbLine
 62
40
  6
CONTINUOUS
 10
4.7909458404
 20
5.1317104337
 11
4.7944614654
 21
5.1270229315
  0
LINE
  5
31C
100
AcDbEntity
  8
03__ASM_ALL_CURVES
100
AcDbLine
 62
40
  6
CONTINUOUS
 10
4.8331333404
 20
5.0895229329
 11
4.8401645904
 21
5.0801479326
  0
LINE
  5
31D
100
AcDbEntity
  8
0
100
AcDbLine
 62
7
  6
CONTINUOUS
 10
5.6033989654
 20
4.5440619326
 11
5.6033989654
 21
3.7260619326
  0
LINE
  5
31E
100
AcDbEntity
  8
0
100
AcDbLine
 62
7
  6
CONTINUOUS
 10
5.6533989654
 20
3.7305625476
 11
5.6533989654
 21
4.5395613176
  0
LINE
  5
31F
100
AcDbEntity
  8
0
100
AcDbLine
 62
7
  6
CONTINUOUS
 10
5.6658934119
 20
3.7845619326
 11
5.6658934119
 21
4.4855619326
  0
LINE
  5
320
100
AcDbEntity
  8
0
100
AcDbLine
 62
7
  6
CONTINUOUS
 10
5.6771517421
 20
3.7780619326
 11
5.6771517421
 21
4.4920619326
  0
LINE
  5
321
100
AcDbEntity
  8
THREAD
100
AcDbLine
 62
7
  6
CONTINUOUS
 10
5.6947609253
 20
3.7475619326
 11
5.6947609253
 21
4.5225619326
  0
LINE
  5
322
100
AcDbEntity
  8
THREAD
100
AcDbLine
 62
7
  6
CONTINUOUS
 10
5.6947609253
 20
4.5225619326
 11
5.6771517421
 21
4.4920619326
  0
LINE
  5
323
100
AcDbEntity
  8
03__ASM_ALL_CURVES
100
AcDbLine
 62
40
  6
CONTINUOUS
 10
6.1766333408
 20
5.1223354326
 11
6.1836645908
 21
5.1317104337
  0
LINE
  5
324
100
AcDbEntity
  8
03__ASM_ALL_CURVES
100
AcDbLine
 62
40
  6
CONTINUOUS
 10
6.2117895908
 20
5.0942104326
 11
6.2047583408
 21
5.0848354327
  0
LINE
  5
325
100
AcDbEntity
  8
03__ASM_ALL_CURVES
100
AcDbLine
 62
40
  6
CONTINUOUS
 10
6.2645239658
 20
5.0895229329
 11
6.2610083408
 21
5.0848354327
  0
LINE
  5
326
100
AcDbEntity
  8
03__ASM_ALL_CURVES
100
AcDbLine
 62
40
  6
CONTINUOUS
 10
7.25850834
 20
4.0834994326
 11
7.23741459
 21
4.0834994326
  0
LINE
  5
327
100
AcDbEntity
  8
03__ASM_ALL_CURVES
100
AcDbLine
 62
40
  6
CONTINUOUS
 10
7.19522709
 20
4.0834994326
 11
7.21632084
 21
4.0834994326
  0
LINE
  5
328
100
AcDbEntity
  8
03__ASM_ALL_CURVES
100
AcDbLine
 62
40
  6
CONTINUOUS
 10
7.23741459
 20
4.1045931826
 11
7.2505981838
 21
4.1045931826
  0
LINE
  5
329
100
AcDbEntity
  8
03__ASM_ALL_CURVES
100
AcDbLine
 62
40
  6
CONTINUOUS
 10
7.23741459
 20
4.1256869326
 11
7.25850834
 21
4.1256869326
  0
LINE
  5
32A
100
AcDbEntity
  8
03__ASM_ALL_CURVES
100
AcDbLine
 62
40
  6
CONTINUOUS
 10
7.2769653713
 20
4.1256869326
 11
7.3033325588
 21
4.1256869326
  0
LINE
  5
32B
100
AcDbEntity
  8
03__ASM_ALL_CURVES
100
AcDbLine
 62
40
  6
CONTINUOUS
 10
7.1767700589
 20
4.1444369326
 11
7.1714966214
 21
4.1444369326
  0
LINE
  5
32C
100
AcDbEntity
  8
03__ASM_ALL_CURVES
100
AcDbLine
 62
40
  6
CONTINUOUS
 10
7.2189575589
 20
4.1655306826
 11
7.2057739652
 21
4.1655306826
  0
LINE
  5
32D
100
AcDbEntity
  8
03__ASM_ALL_CURVES
100
AcDbLine
 62
40
  6
CONTINUOUS
 10
7.1345825589
 20
4.1655306826
 11
7.1213989652
 21
4.1655306826
  0
LINE
  5
32E
100
AcDbEntity
  8
03__ASM_ALL_CURVES
100
AcDbLine
 62
40
  6
CONTINUOUS
 10
7.1213989652
 20
4.1866244326
 11
7.1345825589
 21
4.1866244326
  0
LINE
  5
32F
100
AcDbEntity
  8
03__ASM_ALL_CURVES
100
AcDbLine
 62
40
  6
CONTINUOUS
 10
7.1714966214
 20
4.1866244326
 11
7.1767700589
 21
4.1866244326
  0
LINE
  5
330
100
AcDbEntity
  8
03__ASM_ALL_CURVES
100
AcDbLine
 62
40
  6
CONTINUOUS
 10
7.2057739652
 20
4.1866244326
 11
7.2189575589
 21
4.1866244326
  0
LINE
  5
331
100
AcDbEntity
  8
03__ASM_ALL_CURVES
100
AcDbLine
 62
40
  6
CONTINUOUS
 10
7.2453247464
 20
4.1866244326
 11
7.2716919339
 21
4.1866244326
  0
LINE
  5
332
100
AcDbEntity
  8
03__ASM_ALL_CURVES
100
AcDbLine
 62
40
  6
CONTINUOUS
 10
4.9034458404
 20
5.1317104337
 11
4.9069614654
 21
5.1270229315
  0
LINE
  5
333
100
AcDbEntity
  8
03__ASM_ALL_CURVES
100
AcDbLine
 62
40
  6
CONTINUOUS
 10
4.9421177154
 20
5.0848354327
 11
4.9386020904
 21
5.0895229329
  0
LINE
  5
334
100
AcDbEntity
  8
03__ASM_ALL_CURVES
100
AcDbLine
 62
40
  6
CONTINUOUS
 10
4.9561802154
 20
5.1317104337
 11
4.9596958404
 21
5.1270229315
  0
LINE
  5
335
100
AcDbEntity
  8
03__ASM_ALL_CURVES
100
AcDbLine
 62
40
  6
CONTINUOUS
 10
5.0018833404
 20
5.0848354327
 11
5.0053989654
 21
5.0801479326
  0
LINE
  5
336
100
AcDbEntity
  8
03__ASM_ALL_CURVES
100
AcDbLine
 62
40
  6
CONTINUOUS
 10
5.0546177154
 20
5.0848354327
 11
5.0511020904
 21
5.0895229329
  0
LINE
  5
337
100
AcDbEntity
  8
03__ASM_ALL_CURVES
100
AcDbLine
 62
40
  6
CONTINUOUS
 10
5.8004614658
 20
5.1363979326
 11
5.8004614658
 21
5.0801479326
  0
LINE
  5
338
100
AcDbEntity
  8
03__ASM_ALL_CURVES
100
AcDbLine
 62
40
  6
CONTINUOUS
 10
5.9481177158
 20
5.1082729326
 11
5.9516333408
 21
5.1223354326
  0
LINE
  5
339
100
AcDbEntity
  8
03__ASM_ALL_CURVES
100
AcDbLine
 62
40
  6
CONTINUOUS
 10
5.1412524853
 20
3.5269994334
 11
5.1386157665
 21
3.5234838068
  0
LINE
  5
33A
100
AcDbEntity
  8
03__ASM_ALL_CURVES
100
AcDbLine
 62
40
  6
CONTINUOUS
 10
5.1597095165
 20
3.5305150576
 11
5.164982954
 21
3.5375463084
  0
LINE
  5
33B
100
AcDbEntity
  8
03__ASM_ALL_CURVES
100
AcDbLine
 62
40
  6
CONTINUOUS
 10
5.1412524853
 20
3.4660619334
 11
5.1386157665
 21
3.4625463068
  0
LINE
  5
33C
100
AcDbEntity
  8
03__ASM_ALL_CURVES
100
AcDbLine
 62
40
  6
CONTINUOUS
 10
5.186076704
 20
3.5094213076
 11
5.1808032665
 21
3.5023900577
  0
LINE
  5
33D
100
AcDbEntity
  8
03__ASM_ALL_CURVES
100
AcDbLine
 62
40
  6
CONTINUOUS
 10
6.3770239658
 20
5.0942104326
 11
6.3699927158
 21
5.0848354327
  0
LINE
  5
33E
100
AcDbEntity
  8
03__ASM_ALL_CURVES
100
AcDbLine
 62
40
  6
CONTINUOUS
 10
5.2256274853
 20
3.5269994334
 11
5.2229907665
 21
3.5234838068
  0
LINE
  5
33F
100
AcDbEntity
  8
03__ASM_ALL_CURVES
100
AcDbLine
 62
40
  6
CONTINUOUS
 10
6.3243384124
 20
3.4414525577
 11
6.3190649749
 21
3.4484838076
  0
LINE
  5
340
100
AcDbEntity
  8
03__ASM_ALL_CURVES
100
AcDbLine
 62
40
  6
CONTINUOUS
 10
5.0686802154
 20
5.1317104337
 11
5.0721958404
 21
5.1270229315
  0
LINE
  5
341
100
AcDbEntity
  8
03__ASM_ALL_CURVES
100
AcDbLine
 62
40
  6
CONTINUOUS
 10
6.3665259124
 20
3.4414525577
 11
6.3638891937
 21
3.4449681828
  0
LINE
  5
342
100
AcDbEntity
  8
03__ASM_ALL_CURVES
100
AcDbLine
 62
40
  6
CONTINUOUS
 10
6.3401587249
 20
3.4766088084
 11
6.3454321624
 21
3.4695775576
  0
LINE
  5
343
100
AcDbEntity
  8
03__ASM_ALL_CURVES
100
AcDbLine
 62
40
  6
CONTINUOUS
 10
6.386301297
 20
3.5023900577
 11
6.3810278595
 21
3.5094213076
  0
LINE
  5
344
100
AcDbEntity
  8
03__ASM_ALL_CURVES
100
AcDbLine
 62
40
  6
CONTINUOUS
 10
6.3599341095
 20
3.5375463084
 11
6.3625708283
 21
3.5340306818
  0
LINE
  5
345
100
AcDbEntity
  8
03__ASM_ALL_CURVES
100
AcDbLine
 62
40
  6
CONTINUOUS
 10
5.1706333404
 20
5.1363979326
 11
5.1776645904
 21
5.1270229315
  0
LINE
  5
346
100
AcDbEntity
  8
03__ASM_ALL_CURVES
100
AcDbLine
 62
40
  6
CONTINUOUS
 10
5.6141333408
 20
5.0942104326
 11
5.6106177158
 21
5.1082729326
  0
LINE
  5
347
100
AcDbEntity
  8
03__ASM_ALL_CURVES
100
AcDbLine
 62
40
  6
CONTINUOUS
 10
5.8567114658
 20
5.1363979326
 11
5.8567114658
 21
5.0801479326
  0
LINE
  5
348
100
AcDbEntity
  8
03__ASM_ALL_CURVES
100
AcDbLine
 62
40
  6
CONTINUOUS
 10
5.8988989658
 20
5.0801479326
 11
5.8988989658
 21
5.1363979326
  0
LINE
  5
349
100
AcDbEntity
  8
03__ASM_ALL_CURVES
100
AcDbLine
 62
40
  6
CONTINUOUS
 10
5.9270239658
 20
5.0801479326
 11
5.9270239658
 21
5.1363979326
  0
LINE
  5
34A
100
AcDbEntity
  8
03__ASM_ALL_CURVES
100
AcDbLine
 62
40
  6
CONTINUOUS
 10
5.2440845165
 20
3.4695775576
 11
5.249357954
 21
3.4766088084
  0
LINE
  5
34B
100
AcDbEntity
  8
03__ASM_ALL_CURVES
100
AcDbLine
 62
40
  6
CONTINUOUS
 10
6.4895239658
 20
5.1176479337
 11
6.4860083408
 21
5.1129604315
  0
LINE
  5
34C
100
AcDbEntity
  8
03__ASM_ALL_CURVES
100
AcDbLine
 62
40
  6
CONTINUOUS
 10
5.3100024853
 20
3.5305150576
 11
5.3073657665
 21
3.5269994334
  0
LINE
  5
34D
100
AcDbEntity
  8
03__ASM_ALL_CURVES
100
AcDbLine
 62
40
  6
CONTINUOUS
 10
5.312639204
 20
3.5094213076
 11
5.3073657665
 21
3.5023900577
  0
LINE
  5
34E
100
AcDbEntity
  8
03__ASM_ALL_CURVES
100
AcDbLine
 62
40
  6
CONTINUOUS
 10
5.270451704
 20
3.4484838076
 11
5.2651782665
 21
3.4414525577
  0
LINE
  5
34F
100
AcDbEntity
  8
0
100
AcDbLine
 62
7
  6
CONTINUOUS
 10
4.7068989654
 20
4.3534668776
 11
4.3334626313
 21
4.3534668776
  0
LINE
  5
350
100
AcDbEntity
  8
0
100
AcDbLine
 62
7
  6
CONTINUOUS
 10
4.7068989654
 20
4.4047594601
 11
4.3334626313
 21
4.4047594601
  0
LINE
  5
351
100
AcDbEntity
  8
0
100
AcDbLine
 62
7
  6
CONTINUOUS
 10
6.5793989654
 20
4.4155619326
 11
6.5628989654
 21
4.4155619326
  0
LINE
  5
352
100
AcDbEntity
  8
0
100
AcDbLine
 62
7
  6
CONTINUOUS
 10
6.4538989654
 20
4.4155619326
 11
6.2343989654
 21
4.4155619326
  0
LINE
  5
353
100
AcDbEntity
  8
THREAD
100
AcDbLine
 62
7
  6
CONTINUOUS
 10
5.5019874226
 20
4.5400619326
 11
5.4863989654
 21
4.5490619326
  0
LINE
  5
354
100
AcDbEntity
  8
03__ASM_ALL_CURVES
100
AcDbLine
 62
40
  6
CONTINUOUS
 10
4.7768833404
 20
5.0801479326
 11
4.7698520904
 21
5.0848354327
  0
LINE
  5
355
100
AcDbEntity
  8
03__ASM_ALL_CURVES
100
AcDbLine
 62
40
  6
CONTINUOUS
 10
4.7768833404
 20
5.1129604315
 11
4.7698520904
 21
5.1176479337
  0
LINE
  5
356
100
AcDbEntity
  8
03__ASM_ALL_CURVES
100
AcDbLine
 62
40
  6
CONTINUOUS
 10
4.7839145904
 20
5.1129604315
 11
4.7909458404
 21
5.1082729326
  0
LINE
  5
357
100
AcDbEntity
  8
03__ASM_ALL_CURVES
100
AcDbLine
 62
40
  6
CONTINUOUS
 10
6.4021216095
 20
3.5375463084
 11
6.407395047
 21
3.5305150576
  0
LINE
  5
358
100
AcDbEntity
  8
03__ASM_ALL_CURVES
100
AcDbLine
 62
40
  6
CONTINUOUS
 10
6.4443091095
 20
3.5375463084
 11
6.4469458283
 21
3.5340306818
  0
LINE
  5
359
100
AcDbEntity
  8
03__ASM_ALL_CURVES
100
AcDbLine
 62
40
  6
CONTINUOUS
 10
5.6492895908
 20
5.1223354326
 11
5.6528052158
 21
5.1082729326
  0
LINE
  5
35A
100
AcDbEntity
  8
03__ASM_ALL_CURVES
100
AcDbLine
 62
40
  6
CONTINUOUS
 10
5.6703833408
 20
5.0942104326
 11
5.6668677158
 21
5.1082729326
  0
LINE
  5
35B
100
AcDbEntity
  8
THREAD
100
AcDbLine
 62
7
  6
CONTINUOUS
 10
5.9418989654
 20
3.7475619326
 11
5.9418989654
 21
4.5225619326
  0
LINE
  5
35C
100
AcDbEntity
  8
03__ASM_ALL_CURVES
100
AcDbLine
 62
40
  6
CONTINUOUS
 10
5.9832739658
 20
5.1082729326
 11
5.9832739658
 21
5.0895229329
  0
LINE
  5
35D
100
AcDbEntity
  8
THREAD
100
AcDbLine
 62
7
  6
CONTINUOUS
 10
5.9863989654
 20
3.7920619326
 11
5.9863989654
 21
4.4780619326
  0
LINE
  5
35E
100
AcDbEntity
  8
03__ASM_ALL_CURVES
100
AcDbLine
 62
40
  6
CONTINUOUS
 10
6.1731177158
 20
5.1082729326
 11
6.1766333408
 21
5.1223354326
  0
LINE
  5
35F
100
AcDbEntity
  8
03__ASM_ALL_CURVES
100
AcDbLine
 62
40
  6
CONTINUOUS
 10
6.2153052158
 20
5.1082729326
 11
6.2117895908
 21
5.0942104326
  0
LINE
  5
360
100
AcDbEntity
  8
0
100
AcDbLine
 62
7
  6
CONTINUOUS
 10
6.7933989654
 20
4.4230619326
 11
6.7723989654
 21
4.4230619326
  0
LINE
  5
361
100
AcDbEntity
  8
0
100
AcDbLine
 62
7
  6
CONTINUOUS
 10
6.6523989654
 20
4.4770619326
 11
6.7023989654
 21
4.4770619326
  0
LINE
  5
362
100
AcDbEntity
  8
0
100
AcDbLine
 62
7
  6
CONTINUOUS
 10
6.5923989654
 20
4.4775619326
 11
6.6523989654
 21
4.4775619326
  0
LINE
  5
363
100
AcDbEntity
  8
0
100
AcDbLine
 62
7
  6
CONTINUOUS
 10
6.7933989654
 20
4.4775619326
 11
6.8473989654
 21
4.4775619326
  0
LINE
  5
364
100
AcDbEntity
  8
THREAD
100
AcDbLine
 62
7
  6
CONTINUOUS
 10
6.1643989654
 20
4.4780619326
 11
5.9863989654
 21
4.4780619326
  0
LINE
  5
365
100
AcDbEntity
  8
0
100
AcDbLine
 62
7
  6
CONTINUOUS
 10
5.4084893094
 20
4.4780619326
 11
5.1063086213
 21
4.4780619326
  0
LINE
  5
366
100
AcDbEntity
  8
THREAD
100
AcDbLine
 62
7
  6
CONTINUOUS
 10
5.6658934119
 20
4.4855619326
 11
5.6533989654
 21
4.4855619326
  0
LINE
  5
367
100
AcDbEntity
  8
0
100
AcDbLine
 62
7
  6
CONTINUOUS
 10
5.0203989654
 20
4.5090619326
 11
5.0123989654
 21
4.5090619326
  0
LINE
  5
368
100
AcDbEntity
  8
THREAD
100
AcDbLine
 62
7
  6
CONTINUOUS
 10
5.9418989654
 20
4.5225619326
 11
5.6947609253
 21
4.5225619326
  0
LINE
  5
369
100
AcDbEntity
  8
03__ASM_ALL_CURVES
100
AcDbLine
 62
40
  6
CONTINUOUS
 10
4.7839145904
 20
5.1363979326
 11
4.7909458404
 21
5.1317104337
  0
LINE
  5
36A
100
AcDbEntity
  8
03__ASM_ALL_CURVES
100
AcDbLine
 62
40
  6
CONTINUOUS
 10
4.9491489654
 20
5.0801479326
 11
4.9421177154
 21
5.0848354327
  0
LINE
  5
36B
100
AcDbEntity
  8
03__ASM_ALL_CURVES
100
AcDbLine
 62
40
  6
CONTINUOUS
 10
4.8964145904
 20
5.1363979326
 11
4.9034458404
 21
5.1317104337
  0
LINE
  5
36C
100
AcDbEntity
  8
03__ASM_ALL_CURVES
100
AcDbLine
 62
40
  6
CONTINUOUS
 10
4.9491489654
 20
5.1363979326
 11
4.9561802154
 21
5.1317104337
  0
LINE
  5
36D
100
AcDbEntity
  8
0
100
AcDbLine
 62
7
  6
CONTINUOUS
 10
6.5793989654
 20
3.8055619326
 11
6.5923989654
 21
3.7925619326
  0
LINE
  5
36E
100
AcDbEntity
  8
03__ASM_ALL_CURVES
100
AcDbLine
 62
40
  6
CONTINUOUS
 10
6.5286841095
 20
3.5375463084
 11
6.5313208283
 21
3.5340306818
  0
LINE
  5
36F
100
AcDbEntity
  8
03__ASM_ALL_CURVES
100
AcDbLine
 62
40
  6
CONTINUOUS
 10
5.7442114658
 20
5.1363979326
 11
5.7617895908
 21
5.0801479326
  0
LINE
  5
370
100
AcDbEntity
  8
03__ASM_ALL_CURVES
100
AcDbLine
 62
40
  6
CONTINUOUS
 10
6.0676489658
 20
5.1270229315
 11
6.0676489658
 21
5.1223354326
  0
LINE
  5
371
100
AcDbEntity
  8
03__ASM_ALL_CURVES
100
AcDbLine
 62
40
  6
CONTINUOUS
 10
6.0957739658
 20
5.0988979332
 11
6.0957739658
 21
5.0895229329
  0
LINE
  5
372
100
AcDbEntity
  8
03__ASM_ALL_CURVES
100
AcDbLine
 62
40
  6
CONTINUOUS
 10
6.1238989658
 20
5.1363979326
 11
6.1238989658
 21
5.0801479326
  0
LINE
  5
373
100
AcDbEntity
  8
03__ASM_ALL_CURVES
100
AcDbLine
 62
40
  6
CONTINUOUS
 10
6.1520239658
 20
5.1363979326
 11
6.1520239658
 21
5.0801479326
  0
LINE
  5
374
100
AcDbEntity
  8
03__ASM_ALL_CURVES
100
AcDbLine
 62
40
  6
CONTINUOUS
 10
5.1386157665
 20
3.5234838068
 11
5.133342329
 21
3.5199681826
  0
LINE
  5
375
100
AcDbEntity
  8
03__ASM_ALL_CURVES
100
AcDbLine
 62
40
  6
CONTINUOUS
 10
5.164982954
 20
3.5375463084
 11
5.1702563915
 21
3.5410619326
  0
LINE
  5
376
100
AcDbEntity
  8
03__ASM_ALL_CURVES
100
AcDbLine
 62
40
  6
CONTINUOUS
 10
5.1808032665
 20
3.5023900577
 11
5.175529829
 21
3.4988744326
  0
LINE
  5
377
100
AcDbEntity
  8
03__ASM_ALL_CURVES
100
AcDbLine
 62
40
  6
CONTINUOUS
 10
5.2229907665
 20
3.5234838068
 11
5.217717329
 21
3.5199681826
  0
LINE
  5
378
100
AcDbEntity
  8
03__ASM_ALL_CURVES
100
AcDbLine
 62
40
  6
CONTINUOUS
 10
5.1386157665
 20
3.4625463068
 11
5.133342329
 21
3.4590306826
  0
LINE
  5
379
100
AcDbEntity
  8
03__ASM_ALL_CURVES
100
AcDbLine
 62
40
  6
CONTINUOUS
 10
5.291545454
 20
3.5375463084
 11
5.2968188915
 21
3.5410619326
  0
LINE
  5
37A
100
AcDbEntity
  8
03__ASM_ALL_CURVES
100
AcDbLine
 62
40
  6
CONTINUOUS
 10
5.3073657665
 20
3.5269994334
 11
5.302092329
 21
3.5234838068
  0
LINE
  5
37B
100
AcDbEntity
  8
THREAD
100
AcDbLine
 62
7
  6
CONTINUOUS
 10
5.5019874226
 20
3.7300619326
 11
5.4863989654
 21
3.7210619326
  0
LINE
  5
37C
100
AcDbEntity
  8
0
100
AcDbLine
 62
7
  6
CONTINUOUS
 10
5.6033989654
 20
4.5395619326
 11
5.6533989654
 21
4.5395619326
  0
LINE
  5
37D
100
AcDbEntity
  8
THREAD
100
AcDbLine
 62
7
  6
CONTINUOUS
 10
5.5333989654
 20
4.5400619326
 11
5.5019874226
 21
4.5400619326
  0
LINE
  5
37E
100
AcDbEntity
  8
0
100
AcDbLine
 62
7
  6
CONTINUOUS
 10
4.8923989654
 20
4.5630619326
 11
4.9423989654
 21
4.5630619326
  0
LINE
  5
37F
100
AcDbEntity
  8
0
100
AcDbLine
 62
7
  6
CONTINUOUS
 10
5.4863989654
 20
4.5635619326
 11
5.4313989654
 21
4.5635619326
  0
LINE
  5
380
100
AcDbEntity
  8
0
100
AcDbLine
 62
7
  6
CONTINUOUS
 10
5.0833989654
 20
4.5635619326
 11
5.0333989654
 21
4.5635619326
  0
LINE
  5
381
100
AcDbEntity
  8
0
100
AcDbLine
 62
7
  6
CONTINUOUS
 10
4.8923989654
 20
4.5635619326
 11
4.7673989654
 21
4.5635619326
  0
LINE
  5
382
100
AcDbEntity
  8
0
100
AcDbLine
 62
7
  6
CONTINUOUS
 10
4.7068989654
 20
4.6231644051
 11
4.3334626313
 21
4.6231644051
  0
LINE
  5
383
100
AcDbEntity
  8
0
100
AcDbLine
 62
7
  6
CONTINUOUS
 10
4.7068989654
 20
4.6240619326
 11
4.3334626313
 21
4.6240619326
  0
LINE
  5
384
100
AcDbEntity
  8
03__ASM_ALL_CURVES
100
AcDbLine
 62
40
  6
CONTINUOUS
 10
5.0616489654
 20
5.0801479326
 11
5.0546177154
 21
5.0848354327
  0
LINE
  5
385
100
AcDbEntity
  8
03__ASM_ALL_CURVES
100
AcDbLine
 62
40
  6
CONTINUOUS
 10
5.0616489654
 20
5.1363979326
 11
5.0686802154
 21
5.1317104337
  0
LINE
  5
386
100
AcDbEntity
  8
THREAD
100
AcDbLine
 62
7
  6
CONTINUOUS
 10
5.9863989654
 20
4.4780619326
 11
5.9418989654
 21
4.5225619326
  0
LINE
  5
387
100
AcDbEntity
  8
03__ASM_ALL_CURVES
100
AcDbLine
 62
40
  6
CONTINUOUS
 10
5.6211645908
 20
5.0848354327
 11
5.6141333408
 21
5.0942104326
  0
LINE
  5
388
100
AcDbEntity
  8
03__ASM_ALL_CURVES
100
AcDbLine
 62
40
  6
CONTINUOUS
 10
6.439035672
 20
3.5199681826
 11
6.4469458283
 21
3.4988744326
  0
LINE
  5
389
100
AcDbEntity
  8
03__ASM_ALL_CURVES
100
AcDbLine
 62
40
  6
CONTINUOUS
 10
6.3190649749
 20
3.4484838076
 11
6.3164282562
 21
3.4590306826
  0
LINE
  5
38A
100
AcDbEntity
  8
03__ASM_ALL_CURVES
100
AcDbLine
 62
40
  6
CONTINUOUS
 10
6.3454321624
 20
3.4695775576
 11
6.3480688812
 21
3.4590306826
  0
LINE
  5
38B
100
AcDbEntity
  8
03__ASM_ALL_CURVES
100
AcDbLine
 62
40
  6
CONTINUOUS
 10
5.9516333408
 20
5.0942104326
 11
5.9481177158
 21
5.1082729326
  0
LINE
  5
38C
100
AcDbEntity
  8
0
100
AcDbLine
 62
7
  6
CONTINUOUS
 10
6.1643989654
 20
3.7920619326
 11
6.1643989654
 21
4.4780619326
  0
LINE
  5
38D
100
AcDbEntity
  8
0
100
AcDbLine
 62
7
  6
CONTINUOUS
 10
6.1743989654
 20
3.8020619326
 11
6.1743989654
 21
4.4680619326
  0
LINE
  5
38E
100
AcDbEntity
  8
03__ASM_ALL_CURVES
100
AcDbLine
 62
40
  6
CONTINUOUS
 10
6.2363989658
 20
5.0895229329
 11
6.2363989658
 21
5.1363979326
  0
LINE
  5
38F
100
AcDbEntity
  8
03__ASM_ALL_CURVES
100
AcDbLine
 62
40
  6
CONTINUOUS
 10
6.2645239658
 20
5.1363979326
 11
6.2645239658
 21
5.0895229329
  0
LINE
  5
390
100
AcDbEntity
  8
03__ASM_ALL_CURVES
100
AcDbLine
 62
40
  6
CONTINUOUS
 10
6.3805395908
 20
5.1082729326
 11
6.3770239658
 21
5.0942104326
  0
LINE
  5
391
100
AcDbEntity
  8
0
100
AcDbLine
 62
7
  6
CONTINUOUS
 10
6.5793989654
 20
4.4645619326
 11
6.5923989654
 21
4.4775619326
  0
LINE
  5
392
100
AcDbEntity
  8
03__ASM_ALL_CURVES
100
AcDbLine
 62
40
  6
CONTINUOUS
 10
5.249357954
 20
3.4766088084
 11
5.2546313915
 21
3.4801244326
  0
LINE
  5
393
100
AcDbEntity
  8
03__ASM_ALL_CURVES
100
AcDbLine
 62
40
  6
CONTINUOUS
 10
5.3073657665
 20
3.5023900577
 11
5.302092329
 21
3.4988744326
  0
LINE
  5
394
100
AcDbEntity
  8
03__ASM_ALL_CURVES
100
AcDbLine
 62
40
  6
CONTINUOUS
 10
5.2651782665
 20
3.4414525577
 11
5.259904829
 21
3.4379369326
  0
LINE
  5
395
100
AcDbEntity
  8
03__ASM_ALL_CURVES
100
AcDbLine
 62
40
  6
CONTINUOUS
 10
4.9491489654
 20
5.103585432
 11
4.9386020904
 21
5.1082729326
  0
LINE
  5
396
100
AcDbEntity
  8
03__ASM_ALL_CURVES
100
AcDbLine
 62
40
  6
CONTINUOUS
 10
5.0616489654
 20
5.103585432
 11
5.0511020904
 21
5.1082729326
  0
LINE
  5
397
100
AcDbEntity
  8
0
100
AcDbLine
 62
7
  6
CONTINUOUS
 10
6.1743989654
 20
4.4680619326
 11
6.1643989654
 21
4.4780619326
  0
LINE
  5
398
100
AcDbEntity
  8
03__ASM_ALL_CURVES
100
AcDbLine
 62
40
  6
CONTINUOUS
 10
5.6774145908
 20
5.0848354327
 11
5.6703833408
 21
5.0942104326
  0
LINE
  5
399
100
AcDbEntity
  8
03__ASM_ALL_CURVES
100
AcDbLine
 62
40
  6
CONTINUOUS
 10
5.6422583408
 20
5.1317104337
 11
5.6492895908
 21
5.1223354326
  0
LINE
  5
39A
100
AcDbEntity
  8
03__ASM_ALL_CURVES
100
AcDbLine
 62
40
  6
CONTINUOUS
 10
5.6985083408
 20
5.1317104337
 11
5.7020239658
 21
5.1270229315
  0
LINE
  5
39B
100
AcDbEntity
  8
03__ASM_ALL_CURVES
100
AcDbLine
 62
40
  6
CONTINUOUS
 10
5.8988989658
 20
5.1363979326
 11
5.9270239658
 21
5.0801479326
  0
LINE
  5
39C
100
AcDbEntity
  8
03__ASM_ALL_CURVES
100
AcDbLine
 62
40
  6
CONTINUOUS
 10
6.3810278595
 20
3.5094213076
 11
6.3783911408
 21
3.5199681826
  0
LINE
  5
39D
100
AcDbEntity
  8
03__ASM_ALL_CURVES
100
AcDbLine
 62
40
  6
CONTINUOUS
 10
6.407395047
 20
3.5305150576
 11
6.4100317658
 21
3.5199681826
  0
LINE
  5
39E
100
AcDbEntity
  8
03__ASM_ALL_CURVES
100
AcDbLine
 62
40
  6
CONTINUOUS
 10
6.2926489658
 20
5.1363979326
 11
6.2926489658
 21
5.0801479326
  0
LINE
  5
39F
100
AcDbEntity
  8
03__ASM_ALL_CURVES
100
AcDbLine
 62
40
  6
CONTINUOUS
 10
6.3414770783
 20
3.4988744326
 11
6.3414770783
 21
3.5410619326
  0
LINE
  5
3A0
100
AcDbEntity
  8
03__ASM_ALL_CURVES
100
AcDbLine
 62
40
  6
CONTINUOUS
 10
6.3488989658
 20
5.0801479326
 11
6.3488989658
 21
5.1363979326
  0
LINE
  5
3A1
100
AcDbEntity
  8
03__ASM_ALL_CURVES
100
AcDbLine
 62
40
  6
CONTINUOUS
 10
6.3625708283
 20
3.5340306818
 11
6.3625708283
 21
3.5269994334
  0
LINE
  5
3A2
100
AcDbEntity
  8
03__ASM_ALL_CURVES
100
AcDbLine
 62
40
  6
CONTINUOUS
 10
6.3638891937
 20
3.4449681828
 11
6.3638891937
 21
3.4801244326
  0
LINE
  5
3A3
100
AcDbEntity
  8
03__ASM_ALL_CURVES
100
AcDbLine
 62
40
  6
CONTINUOUS
 10
6.3849829437
 20
3.4801244326
 11
6.3849829437
 21
3.4449681828
  0
LINE
  5
3A4
100
AcDbEntity
  8
THREAD
100
AcDbLine
 62
7
  6
CONTINUOUS
 10
5.9863989654
 20
3.7920619326
 11
5.9418989654
 21
3.7475619326
  0
LINE
  5
3A5
100
AcDbEntity
  8
03__ASM_ALL_CURVES
100
AcDbLine
 62
40
  6
CONTINUOUS
 10
4.3556489654
 20
5.0535854326
 11
4.2993989654
 21
5.0613979326
  0
LINE
  5
3A6
100
AcDbEntity
  8
03__ASM_ALL_CURVES
100
AcDbLine
 62
40
  6
CONTINUOUS
 10
4.3556489654
 20
5.0520229326
 11
4.2993989654
 21
5.0613979326
  0
LINE
  5
3A7
100
AcDbEntity
  8
03__ASM_ALL_CURVES
100
AcDbLine
 62
40
  6
CONTINUOUS
 10
5.6281958408
 20
5.0801479326
 11
5.6211645908
 21
5.0848354327
  0
LINE
  5
3A8
100
AcDbEntity
  8
03__ASM_ALL_CURVES
100
AcDbLine
 62
40
  6
CONTINUOUS
 10
6.1766333408
 20
5.0942104326
 11
6.1731177158
 21
5.1082729326
  0
LINE
  5
3A9
100
AcDbEntity
  8
03__ASM_ALL_CURVES
100
AcDbLine
 62
40
  6
CONTINUOUS
 10
6.4051489658
 20
5.0801479326
 11
6.4051489658
 21
5.1363979326
  0
LINE
  5
3AA
100
AcDbEntity
  8
03__ASM_ALL_CURVES
100
AcDbLine
 62
40
  6
CONTINUOUS
 10
6.4166235687
 20
3.4801244326
 11
6.4166235687
 21
3.4379369326
  0
LINE
  5
3AB
100
AcDbEntity
  8
03__ASM_ALL_CURVES
100
AcDbLine
 62
40
  6
CONTINUOUS
 10
6.4258520783
 20
3.4988744326
 11
6.4258520783
 21
3.5410619326
  0
LINE
  5
3AC
100
AcDbEntity
  8
03__ASM_ALL_CURVES
100
AcDbLine
 62
40
  6
CONTINUOUS
 10
6.4469458283
 20
3.5340306818
 11
6.4469458283
 21
3.5269994334
  0
LINE
  5
3AD
100
AcDbEntity
  8
03__ASM_ALL_CURVES
100
AcDbLine
 62
40
  6
CONTINUOUS
 10
6.4482641937
 20
3.4801244326
 11
6.4482641937
 21
3.4379369326
  0
LINE
  5
3AE
100
AcDbEntity
  8
0
100
AcDbLine
 62
7
  6
CONTINUOUS
 10
6.456235101
 20
4.1202081203
 11
6.456235101
 21
4.1499175554
  0
LINE
  5
3AF
100
AcDbEntity
  8
03__ASM_ALL_CURVES
100
AcDbLine
 62
40
  6
CONTINUOUS
 10
6.4613989658
 20
5.0801479326
 11
6.4613989658
 21
5.1363979326
  0
LINE
  5
3B0
100
AcDbEntity
  8
03__ASM_ALL_CURVES
100
AcDbLine
 62
40
  6
CONTINUOUS
 10
6.4785864533
 20
3.5410619326
 11
6.4785864533
 21
3.4988744326
  0
LINE
  5
3B1
100
AcDbEntity
  8
03__ASM_ALL_CURVES
100
AcDbLine
 62
40
  6
CONTINUOUS
 10
6.4895239658
 20
5.1270229315
 11
6.4895239658
 21
5.1176479337
  0
LINE
  5
3B2
100
AcDbEntity
  8
03__ASM_ALL_CURVES
100
AcDbLine
 62
40
  6
CONTINUOUS
 10
6.4904516937
 20
3.4379369326
 11
6.4904516937
 21
3.4801244326
  0
LINE
  5
3B3
100
AcDbEntity
  8
0
100
AcDbLine
 62
7
  6
CONTINUOUS
 10
6.503424838
 20
4.3119859523
 11
6.503424838
 21
4.2914194996
  0
LINE
  5
3B4
100
AcDbEntity
  8
0
100
AcDbLine
 62
7
  6
CONTINUOUS
 10
6.503424838
 20
4.1892884292
 11
6.503424838
 21
4.080897156
  0
LINE
  5
3B5
100
AcDbEntity
  8
0
100
AcDbLine
 62
7
  6
CONTINUOUS
 10
6.503424838
 20
3.9786741133
 11
6.503424838
 21
3.9581380755
  0
LINE
  5
3B6
100
AcDbEntity
  8
03__ASM_ALL_CURVES
100
AcDbLine
 62
40
  6
CONTINUOUS
 10
6.3164282562
 20
3.4590306826
 11
6.3190649749
 21
3.4695775576
  0
LINE
  5
3B7
100
AcDbEntity
  8
0
100
AcDbLine
 62
7
  6
CONTINUOUS
 10
6.1743989654
 20
3.8020619326
 11
6.1643989654
 21
3.7920619326
  0
LINE
  5
3B8
100
AcDbEntity
  8
03__ASM_ALL_CURVES
100
AcDbLine
 62
40
  6
CONTINUOUS
 10
4.3556489654
 20
5.0582729326
 11
4.2993989654
 21
5.0613979326
  0
LINE
  5
3B9
100
AcDbEntity
  8
03__ASM_ALL_CURVES
100
AcDbLine
 62
40
  6
CONTINUOUS
 10
4.3556489654
 20
5.0567104326
 11
4.2993989654
 21
5.0613979326
  0
LINE
  5
3BA
100
AcDbEntity
  8
03__ASM_ALL_CURVES
100
AcDbLine
 62
40
  6
CONTINUOUS
 10
4.3556489654
 20
5.0551479326
 11
4.2993989654
 21
5.0613979326
  0
LINE
  5
3BB
100
AcDbEntity
  8
03__ASM_ALL_CURVES
100
AcDbLine
 62
40
  6
CONTINUOUS
 10
5.6844458408
 20
5.0801479326
 11
5.6774145908
 21
5.0848354327
  0
LINE
  5
3BC
100
AcDbEntity
  8
03__ASM_ALL_CURVES
100
AcDbLine
 62
40
  6
CONTINUOUS
 10
5.6352270908
 20
5.1363979326
 11
5.6422583408
 21
5.1317104337
  0
LINE
  5
3BD
100
AcDbEntity
  8
03__ASM_ALL_CURVES
100
AcDbLine
 62
40
  6
CONTINUOUS
 10
7.1714966214
 20
4.1444369326
 11
7.1662231839
 21
4.1479525577
  0
LINE
  5
3BE
100
AcDbEntity
  8
03__ASM_ALL_CURVES
100
AcDbLine
 62
40
  6
CONTINUOUS
 10
5.6914770908
 20
5.1363979326
 11
5.6985083408
 21
5.1317104337
  0
LINE
  5
3BF
100
AcDbEntity
  8
03__ASM_ALL_CURVES
100
AcDbLine
 62
40
  6
CONTINUOUS
 10
7.1345825589
 20
4.1866244326
 11
7.1398559964
 21
4.1831088084
  0
LINE
  5
3C0
100
AcDbEntity
  8
03__ASM_ALL_CURVES
100
AcDbLine
 62
40
  6
CONTINUOUS
 10
7.1767700589
 20
4.1866244326
 11
7.1820434964
 21
4.1831088084
  0
LINE
  5
3C1
100
AcDbEntity
  8
03__ASM_ALL_CURVES
100
AcDbLine
 62
40
  6
CONTINUOUS
 10
7.2189575589
 20
4.1866244326
 11
7.2242309964
 21
4.1831088084
  0
LINE
  5
3C2
100
AcDbEntity
  8
03__ASM_ALL_CURVES
100
AcDbLine
 62
40
  6
CONTINUOUS
 10
5.9586645908
 20
5.0848354327
 11
5.9516333408
 21
5.0942104326
  0
LINE
  5
3C3
100
AcDbEntity
  8
03__ASM_ALL_CURVES
100
AcDbLine
 62
40
  6
CONTINUOUS
 10
5.9797583408
 20
5.1317104337
 11
5.9832739658
 21
5.1270229315
  0
LINE
  5
3C4
100
AcDbEntity
  8
03__ASM_ALL_CURVES
100
AcDbLine
 62
40
  6
CONTINUOUS
 10
6.0711645908
 20
5.0848354327
 11
6.0641333408
 21
5.0942104326
  0
LINE
  5
3C5
100
AcDbEntity
  8
03__ASM_ALL_CURVES
100
AcDbLine
 62
40
  6
CONTINUOUS
 10
6.2117895908
 20
5.1223354326
 11
6.2153052158
 21
5.1082729326
  0
LINE
  5
3C6
100
AcDbEntity
  8
03__ASM_ALL_CURVES
100
AcDbLine
 62
40
  6
CONTINUOUS
 10
6.5313208283
 20
3.5340306818
 11
6.5313208283
 21
3.5269994334
  0
LINE
  5
3C7
100
AcDbEntity
  8
03__ASM_ALL_CURVES
100
AcDbLine
 62
40
  6
CONTINUOUS
 10
6.5431860687
 20
3.4801244326
 11
6.5431860687
 21
3.4379369326
  0
LINE
  5
3C8
100
AcDbEntity
  8
0
100
AcDbLine
 62
7
  6
CONTINUOUS
 10
6.553235101
 20
4.1658427211
 11
6.553235101
 21
4.1043399987
  0
LINE
  5
3C9
100
AcDbEntity
  8
0
100
AcDbLine
 62
7
  6
CONTINUOUS
 10
6.5793989654
 20
4.4645619326
 11
6.5793989654
 21
3.8055619326
  0
LINE
  5
3CA
100
AcDbEntity
  8
0
100
AcDbLine
 62
7
  6
CONTINUOUS
 10
6.5923989654
 20
4.4775619326
 11
6.5923989654
 21
3.7925619326
  0
LINE
  5
3CB
100
AcDbEntity
  8
03__ASM_ALL_CURVES
100
AcDbLine
 62
40
  6
CONTINUOUS
 10
6.3480688812
 20
3.4590306826
 11
6.3454321624
 21
3.4484838076
  0
LINE
  5
3CC
100
AcDbEntity
  8
03__ASM_ALL_CURVES
100
AcDbLine
 62
40
  6
CONTINUOUS
 10
6.3783911408
 20
3.5199681826
 11
6.3810278595
 21
3.5305150576
  0
LINE
  5
3CD
100
AcDbEntity
  8
03__ASM_ALL_CURVES
100
AcDbLine
 62
40
  6
CONTINUOUS
 10
6.4100317658
 20
3.5199681826
 11
6.407395047
 21
3.5094213076
  0
LINE
  5
3CE
100
AcDbEntity
  8
03__ASM_ALL_CURVES
100
AcDbLine
 62
40
  6
CONTINUOUS
 10
5.4301489654
 20
5.0520229326
 11
5.5426489654
 21
5.0707729326
  0
LINE
  5
3CF
100
AcDbEntity
  8
03__ASM_ALL_CURVES
100
AcDbLine
 62
40
  6
CONTINUOUS
 10
5.4301489654
 20
5.0535854326
 11
5.5426489654
 21
5.0692104326
  0
LINE
  5
3D0
100
AcDbEntity
  8
03__ASM_ALL_CURVES
100
AcDbLine
 62
40
  6
CONTINUOUS
 10
5.4301489654
 20
5.0551479326
 11
5.5426489654
 21
5.0676479326
  0
LINE
  5
3D1
100
AcDbEntity
  8
03__ASM_ALL_CURVES
100
AcDbLine
 62
40
  6
CONTINUOUS
 10
5.4301489654
 20
5.0567104326
 11
5.5426489654
 21
5.0660854326
  0
LINE
  5
3D2
100
AcDbEntity
  8
03__ASM_ALL_CURVES
100
AcDbLine
 62
40
  6
CONTINUOUS
 10
5.4301489654
 20
5.0582729326
 11
5.5426489654
 21
5.0645229326
  0
LINE
  5
3D3
100
AcDbEntity
  8
03__ASM_ALL_CURVES
100
AcDbLine
 62
40
  6
CONTINUOUS
 10
5.4301489654
 20
5.0598354326
 11
5.5426489654
 21
5.0629604326
  0
LINE
  5
3D4
100
AcDbEntity
  8
03__ASM_ALL_CURVES
100
AcDbLine
 62
40
  6
CONTINUOUS
 10
4.3556489654
 20
5.0629604326
 11
4.2993989654
 21
5.0613979326
  0
LINE
  5
3D5
100
AcDbEntity
  8
03__ASM_ALL_CURVES
100
AcDbLine
 62
40
  6
CONTINUOUS
 10
4.2993989654
 20
5.0613979326
 11
6.5551489654
 21
5.0613979326
  0
LINE
  5
3D6
100
AcDbEntity
  8
03__ASM_ALL_CURVES
100
AcDbLine
 62
40
  6
CONTINUOUS
 10
6.4332739658
 20
5.0801479326
 11
6.4051489658
 21
5.0801479326
  0
LINE
  5
3D7
100
AcDbEntity
  8
03__ASM_ALL_CURVES
100
AcDbLine
 62
40
  6
CONTINUOUS
 10
6.3629614658
 20
5.0801479326
 11
6.3488989658
 21
5.0801479326
  0
LINE
  5
3D8
100
AcDbEntity
  8
03__ASM_ALL_CURVES
100
AcDbLine
 62
40
  6
CONTINUOUS
 10
6.2539770908
 20
5.0801479326
 11
6.2469458408
 21
5.0801479326
  0
LINE
  5
3D9
100
AcDbEntity
  8
03__ASM_ALL_CURVES
100
AcDbLine
 62
40
  6
CONTINUOUS
 10
6.1977270908
 20
5.0801479326
 11
6.1906958408
 21
5.0801479326
  0
LINE
  5
3DA
100
AcDbEntity
  8
03__ASM_ALL_CURVES
100
AcDbLine
 62
40
  6
CONTINUOUS
 10
6.0852270908
 20
5.0801479326
 11
6.0781958408
 21
5.0801479326
  0
LINE
  5
3DB
100
AcDbEntity
  8
03__ASM_ALL_CURVES
100
AcDbLine
 62
40
  6
CONTINUOUS
 10
5.9727270908
 20
5.0801479326
 11
5.9656958408
 21
5.0801479326
  0
LINE
  5
3DC
100
AcDbEntity
  8
03__ASM_ALL_CURVES
100
AcDbLine
 62
40
  6
CONTINUOUS
 10
5.6914770908
 20
5.0801479326
 11
5.6844458408
 21
5.0801479326
  0
LINE
  5
3DD
100
AcDbEntity
  8
03__ASM_ALL_CURVES
100
AcDbLine
 62
40
  6
CONTINUOUS
 10
5.6352270908
 20
5.0801479326
 11
5.6281958408
 21
5.0801479326
  0
LINE
  5
3DE
100
AcDbEntity
  8
03__ASM_ALL_CURVES
100
AcDbLine
 62
40
  6
CONTINUOUS
 10
5.0053989654
 20
5.0801479326
 11
5.0018833404
 21
5.0801479326
  0
LINE
  5
3DF
100
AcDbEntity
  8
03__ASM_ALL_CURVES
100
AcDbLine
 62
40
  6
CONTINUOUS
 10
4.7839145904
 20
5.0801479326
 11
4.7768833404
 21
5.0801479326
  0
LINE
  5
3E0
100
AcDbEntity
  8
03__ASM_ALL_CURVES
100
AcDbLine
 62
40
  6
CONTINUOUS
 10
4.6678989654
 20
5.0801479326
 11
4.6643833404
 21
5.0801479326
  0
LINE
  5
3E1
100
AcDbEntity
  8
03__ASM_ALL_CURVES
100
AcDbLine
 62
40
  6
CONTINUOUS
 10
4.8788364654
 20
5.0801479326
 11
4.9069614654
 21
5.0801479326
  0
LINE
  5
3E2
100
AcDbEntity
  8
03__ASM_ALL_CURVES
100
AcDbLine
 62
40
  6
CONTINUOUS
 10
5.5613989658
 20
5.0801479326
 11
5.5895239658
 21
5.0801479326
  0
LINE
  5
3E3
100
AcDbEntity
  8
03__ASM_ALL_CURVES
100
AcDbLine
 62
40
  6
CONTINUOUS
 10
6.2926489658
 20
5.0801479326
 11
6.3207739658
 21
5.0801479326
  0
LINE
  5
3E4
100
AcDbEntity
  8
03__ASM_ALL_CURVES
100
AcDbLine
 62
40
  6
CONTINUOUS
 10
5.7336645908
 20
5.0988979332
 11
5.7547583408
 21
5.0988979332
  0
LINE
  5
3E5
100
AcDbEntity
  8
03__ASM_ALL_CURVES
100
AcDbLine
 62
40
  6
CONTINUOUS
 10
4.3556489654
 20
5.0598354326
 11
4.2993989654
 21
5.0613979326
  0
LINE
  5
3E6
100
AcDbEntity
  8
03__ASM_ALL_CURVES
100
AcDbLine
 62
40
  6
CONTINUOUS
 10
5.4301489654
 20
5.0629604326
 11
5.5426489654
 21
5.0598354326
  0
LINE
  5
3E7
100
AcDbEntity
  8
03__ASM_ALL_CURVES
100
AcDbLine
 62
40
  6
CONTINUOUS
 10
5.4301489654
 20
5.0645229326
 11
5.5426489654
 21
5.0582729326
  0
LINE
  5
3E8
100
AcDbEntity
  8
03__ASM_ALL_CURVES
100
AcDbLine
 62
40
  6
CONTINUOUS
 10
5.4301489654
 20
5.0660854326
 11
5.5426489654
 21
5.0567104326
  0
LINE
  5
3E9
100
AcDbEntity
  8
03__ASM_ALL_CURVES
100
AcDbLine
 62
40
  6
CONTINUOUS
 10
5.4301489654
 20
5.0676479326
 11
5.5426489654
 21
5.0551479326
  0
LINE
  5
3EA
100
AcDbEntity
  8
03__ASM_ALL_CURVES
100
AcDbLine
 62
40
  6
CONTINUOUS
 10
5.4301489654
 20
5.0692104326
 11
5.5426489654
 21
5.0535854326
  0
LINE
  5
3EB
100
AcDbEntity
  8
03__ASM_ALL_CURVES
100
AcDbLine
 62
40
  6
CONTINUOUS
 10
5.5426489654
 20
5.0520229326
 11
5.4301489654
 21
5.0707729326
  0
LINE
  5
3EC
100
AcDbEntity
  8
03__ASM_ALL_CURVES
100
AcDbLine
 62
40
  6
CONTINUOUS
 10
5.9656958408
 20
5.0801479326
 11
5.9586645908
 21
5.0848354327
  0
LINE
  5
3ED
100
AcDbEntity
  8
03__ASM_ALL_CURVES
100
AcDbLine
 62
40
  6
CONTINUOUS
 10
5.9727270908
 20
5.1363979326
 11
5.9797583408
 21
5.1317104337
  0
LINE
  5
3EE
100
AcDbEntity
  8
03__ASM_ALL_CURVES
100
AcDbLine
 62
40
  6
CONTINUOUS
 10
6.0781958408
 20
5.0801479326
 11
6.0711645908
 21
5.0848354327
  0
LINE
  5
3EF
100
AcDbEntity
  8
03__ASM_ALL_CURVES
100
AcDbLine
 62
40
  6
CONTINUOUS
 10
6.0676489658
 20
5.1223354326
 11
6.0711645908
 21
5.1176479337
  0
LINE
  5
3F0
100
AcDbEntity
  8
03__ASM_ALL_CURVES
100
AcDbLine
 62
40
  6
CONTINUOUS
 10
6.0922583408
 20
5.103585432
 11
6.0957739658
 21
5.0988979332
  0
LINE
  5
3F1
100
AcDbEntity
  8
03__ASM_ALL_CURVES
100
AcDbLine
 62
40
  6
CONTINUOUS
 10
6.0957739658
 20
5.1270229315
 11
6.0922583408
 21
5.1317104337
  0
LINE
  5
3F2
100
AcDbEntity
  8
03__ASM_ALL_CURVES
100
AcDbLine
 62
40
  6
CONTINUOUS
 10
6.1836645908
 20
5.0848354327
 11
6.1766333408
 21
5.0942104326
  0
LINE
  5
3F3
100
AcDbEntity
  8
03__ASM_ALL_CURVES
100
AcDbLine
 62
40
  6
CONTINUOUS
 10
6.3770239658
 20
5.1223354326
 11
6.3805395908
 21
5.1082729326
  0
LINE
  5
3F4
100
AcDbEntity
  8
0
100
AcDbLine
 62
7
  6
CONTINUOUS
 10
6.6523989654
 20
4.4775579195
 11
6.6523989654
 21
3.7925659457
  0
LINE
  5
3F5
100
AcDbEntity
  8
0
100
AcDbLine
 62
7
  6
CONTINUOUS
 10
6.7023989654
 20
3.7930624526
 11
6.7023989654
 21
4.4770614126
  0
LINE
  5
3F6
100
AcDbEntity
  8
03__ASM_ALL_CURVES
100
AcDbLine
 62
40
  6
CONTINUOUS
 10
6.512863797
 20
3.5094213076
 11
6.5102270783
 21
3.4988744326
  0
LINE
  5
3F7
100
AcDbEntity
  8
03__ASM_ALL_CURVES
100
AcDbLine
 62
40
  6
CONTINUOUS
 10
6.3190649749
 20
3.4695775576
 11
6.3243384124
 21
3.4766088084
  0
LINE
  5
3F8
100
AcDbEntity
  8
03__ASM_ALL_CURVES
100
AcDbLine
 62
40
  6
CONTINUOUS
 10
6.3625708283
 20
3.5269994334
 11
6.3599341095
 21
3.5234838068
  0
LINE
  5
3F9
100
AcDbEntity
  8
03__ASM_ALL_CURVES
100
AcDbLine
 62
40
  6
CONTINUOUS
 10
6.3810278595
 20
3.5305150576
 11
6.386301297
 21
3.5375463084
  0
LINE
  5
3FA
100
AcDbEntity
  8
03__ASM_ALL_CURVES
100
AcDbLine
 62
40
  6
CONTINUOUS
 10
7.1398559964
 20
4.1690463068
 11
7.1345825589
 21
4.1655306826
  0
LINE
  5
3FB
100
AcDbEntity
  8
03__ASM_ALL_CURVES
100
AcDbLine
 62
40
  6
CONTINUOUS
 10
7.1662231839
 20
4.1831088084
 11
7.1714966214
 21
4.1866244326
  0
LINE
  5
3FC
100
AcDbEntity
  8
03__ASM_ALL_CURVES
100
AcDbLine
 62
40
  6
CONTINUOUS
 10
7.1820434964
 20
4.1479525577
 11
7.1767700589
 21
4.1444369326
  0
LINE
  5
3FD
100
AcDbEntity
  8
03__ASM_ALL_CURVES
100
AcDbLine
 62
40
  6
CONTINUOUS
 10
7.2242309964
 20
4.1690463068
 11
7.2189575589
 21
4.1655306826
  0
LINE
  5
3FE
100
AcDbEntity
  8
03__ASM_ALL_CURVES
100
AcDbLine
 62
40
  6
CONTINUOUS
 10
4.3556489654
 20
5.0676479326
 11
4.2993989654
 21
5.0613979326
  0
LINE
  5
3FF
100
AcDbEntity
  8
03__ASM_ALL_CURVES
100
AcDbLine
 62
40
  6
CONTINUOUS
 10
4.3556489654
 20
5.0660854326
 11
4.2993989654
 21
5.0613979326
  0
LINE
  5
400
100
AcDbEntity
  8
03__ASM_ALL_CURVES
100
AcDbLine
 62
40
  6
CONTINUOUS
 10
4.3556489654
 20
5.0645229326
 11
4.2993989654
 21
5.0613979326
  0
LINE
  5
401
100
AcDbEntity
  8
03__ASM_ALL_CURVES
100
AcDbLine
 62
40
  6
CONTINUOUS
 10
6.4789770908
 20
5.1082729326
 11
6.4613989658
 21
5.1082729326
  0
LINE
  5
402
100
AcDbEntity
  8
03__ASM_ALL_CURVES
100
AcDbLine
 62
40
  6
CONTINUOUS
 10
5.9692114658
 20
5.1082729326
 11
5.9832739658
 21
5.1082729326
  0
LINE
  5
403
100
AcDbEntity
  8
03__ASM_ALL_CURVES
100
AcDbLine
 62
40
  6
CONTINUOUS
 10
6.1238989658
 20
5.1082729326
 11
6.1520239658
 21
5.1082729326
  0
LINE
  5
404
100
AcDbEntity
  8
03__ASM_ALL_CURVES
100
AcDbLine
 62
40
  6
CONTINUOUS
 10
6.4051489658
 20
5.1082729326
 11
6.4227270908
 21
5.1082729326
  0
LINE
  5
405
100
AcDbEntity
  8
03__ASM_ALL_CURVES
100
AcDbLine
 62
40
  6
CONTINUOUS
 10
4.7768833404
 20
5.1129604315
 11
4.7839145904
 21
5.1129604315
  0
LINE
  5
406
100
AcDbEntity
  8
03__ASM_ALL_CURVES
100
AcDbLine
 62
40
  6
CONTINUOUS
 10
6.0852270908
 20
5.1363979326
 11
6.0781958408
 21
5.1363979326
  0
LINE
  5
407
100
AcDbEntity
  8
03__ASM_ALL_CURVES
100
AcDbLine
 62
40
  6
CONTINUOUS
 10
5.1319614654
 20
5.1363979326
 11
5.1038364654
 21
5.1363979326
  0
LINE
  5
408
100
AcDbEntity
  8
03__ASM_ALL_CURVES
100
AcDbLine
 62
40
  6
CONTINUOUS
 10
4.7768833404
 20
5.1363979326
 11
4.7839145904
 21
5.1363979326
  0
LINE
  5
409
100
AcDbEntity
  8
03__ASM_ALL_CURVES
100
AcDbLine
 62
40
  6
CONTINUOUS
 10
4.8893833404
 20
5.1363979326
 11
4.8964145904
 21
5.1363979326
  0
LINE
  5
40A
100
AcDbEntity
  8
03__ASM_ALL_CURVES
100
AcDbLine
 62
40
  6
CONTINUOUS
 10
5.6281958408
 20
5.1363979326
 11
5.6352270908
 21
5.1363979326
  0
LINE
  5
40B
100
AcDbEntity
  8
03__ASM_ALL_CURVES
100
AcDbLine
 62
40
  6
CONTINUOUS
 10
5.6844458408
 20
5.1363979326
 11
5.6914770908
 21
5.1363979326
  0
LINE
  5
40C
100
AcDbEntity
  8
03__ASM_ALL_CURVES
100
AcDbLine
 62
40
  6
CONTINUOUS
 10
5.7828833408
 20
5.1363979326
 11
5.8180395908
 21
5.1363979326
  0
LINE
  5
40D
100
AcDbEntity
  8
03__ASM_ALL_CURVES
100
AcDbLine
 62
40
  6
CONTINUOUS
 10
5.9656958408
 20
5.1363979326
 11
5.9727270908
 21
5.1363979326
  0
LINE
  5
40E
100
AcDbEntity
  8
03__ASM_ALL_CURVES
100
AcDbLine
 62
40
  6
CONTINUOUS
 10
6.1906958408
 20
5.1363979326
 11
6.1977270908
 21
5.1363979326
  0
LINE
  5
40F
100
AcDbEntity
  8
03__ASM_ALL_CURVES
100
AcDbLine
 62
40
  6
CONTINUOUS
 10
6.3488989658
 20
5.1363979326
 11
6.3629614658
 21
5.1363979326
  0
LINE
  5
410
100
AcDbEntity
  8
03__ASM_ALL_CURVES
100
AcDbLine
 62
40
  6
CONTINUOUS
 10
6.4051489658
 20
5.1363979326
 11
6.4332739658
 21
5.1363979326
  0
LINE
  5
411
100
AcDbEntity
  8
03__ASM_ALL_CURVES
100
AcDbLine
 62
40
  6
CONTINUOUS
 10
6.4613989658
 20
5.1363979326
 11
6.4789770908
 21
5.1363979326
  0
LINE
  5
412
100
AcDbEntity
  8
03__ASM_ALL_CURVES
100
AcDbLine
 62
40
  6
CONTINUOUS
 10
6.0711645908
 20
5.1176479337
 11
6.0922583408
 21
5.103585432
  0
LINE
  5
413
100
AcDbEntity
  8
03__ASM_ALL_CURVES
100
AcDbLine
 62
40
  6
CONTINUOUS
 10
6.0922583408
 20
5.1317104337
 11
6.0852270908
 21
5.1363979326
  0
LINE
  5
414
100
AcDbEntity
  8
03__ASM_ALL_CURVES
100
AcDbLine
 62
40
  6
CONTINUOUS
 10
6.1906958408
 20
5.0801479326
 11
6.1836645908
 21
5.0848354327
  0
LINE
  5
415
100
AcDbEntity
  8
03__ASM_ALL_CURVES
100
AcDbLine
 62
40
  6
CONTINUOUS
 10
6.2469458408
 20
5.0801479326
 11
6.2399145908
 21
5.0848354327
  0
LINE
  5
416
100
AcDbEntity
  8
03__ASM_ALL_CURVES
100
AcDbLine
 62
40
  6
CONTINUOUS
 10
6.1977270908
 20
5.1363979326
 11
6.2047583408
 21
5.1317104337
  0
LINE
  5
417
100
AcDbEntity
  8
0
100
AcDbLine
 62
7
  6
CONTINUOUS
 10
6.8473989654
 20
4.4775619326
 11
6.8603989654
 21
4.4645619326
  0
LINE
  5
418
100
AcDbEntity
  8
03__ASM_ALL_CURVES
100
AcDbLine
 62
40
  6
CONTINUOUS
 10
6.2399145908
 20
5.0848354327
 11
6.2363989658
 21
5.0895229329
  0
LINE
  5
419
100
AcDbEntity
  8
03__ASM_ALL_CURVES
100
AcDbLine
 62
40
  6
CONTINUOUS
 10
6.2047583408
 20
5.1317104337
 11
6.2117895908
 21
5.1223354326
  0
LINE
  5
41A
100
AcDbEntity
  8
03__ASM_ALL_CURVES
100
AcDbLine
 62
40
  6
CONTINUOUS
 10
6.4789770908
 20
5.1082729326
 11
6.4895239658
 21
5.0801479326
  0
LINE
  5
41B
100
AcDbEntity
  8
0
100
AcDbLine
 62
7
  6
CONTINUOUS
 10
6.7723989654
 20
4.4580619326
 11
6.7723989654
 21
3.8120619326
  0
LINE
  5
41C
100
AcDbEntity
  8
0
100
AcDbLine
 62
7
  6
CONTINUOUS
 10
6.7933989654
 20
4.4775579195
 11
6.7933989654
 21
3.7925659457
  0
LINE
  5
41D
100
AcDbEntity
  8
0
100
AcDbLine
 62
7
  6
CONTINUOUS
 10
6.8473989654
 20
3.7925619326
 11
6.8473989654
 21
4.4775619326
  0
LINE
  5
41E
100
AcDbEntity
  8
03__ASM_ALL_CURVES
100
AcDbLine
 62
40
  6
CONTINUOUS
 10
6.3454321624
 20
3.4484838076
 11
6.3401587249
 21
3.4414525577
  0
LINE
  5
41F
100
AcDbEntity
  8
03__ASM_ALL_CURVES
100
AcDbLine
 62
40
  6
CONTINUOUS
 10
6.407395047
 20
3.5094213076
 11
6.4021216095
 21
3.5023900577
  0
LINE
  5
420
100
AcDbEntity
  8
03__ASM_ALL_CURVES
100
AcDbLine
 62
40
  6
CONTINUOUS
 10
6.3849829437
 20
3.4449681828
 11
6.3823462249
 21
3.4414525577
  0
LINE
  5
421
100
AcDbEntity
  8
03__ASM_ALL_CURVES
100
AcDbLine
 62
40
  6
CONTINUOUS
 10
6.4469458283
 20
3.5269994334
 11
6.4443091095
 21
3.5234838068
  0
LINE
  5
422
100
AcDbEntity
  8
03__ASM_ALL_CURVES
100
AcDbLine
 62
40
  6
CONTINUOUS
 10
6.5102270783
 20
3.5340306818
 11
6.512863797
 21
3.5375463084
  0
LINE
  5
423
100
AcDbEntity
  8
03__ASM_ALL_CURVES
100
AcDbLine
 62
40
  6
CONTINUOUS
 10
6.5181372345
 20
3.5164525572
 11
6.512863797
 21
3.5094213076
  0
LINE
  5
424
100
AcDbEntity
  8
03__ASM_ALL_CURVES
100
AcDbLine
 62
40
  6
CONTINUOUS
 10
6.5313208283
 20
3.5269994334
 11
6.5286841095
 21
3.5234838068
  0
LINE
  5
425
100
AcDbEntity
  8
03__ASM_ALL_CURVES
100
AcDbLine
 62
40
  6
CONTINUOUS
 10
6.3599341095
 20
3.5234838068
 11
6.354660672
 21
3.5199681826
  0
LINE
  5
426
100
AcDbEntity
  8
03__ASM_ALL_CURVES
100
AcDbLine
 62
40
  6
CONTINUOUS
 10
6.386301297
 20
3.5375463084
 11
6.3915747345
 21
3.5410619326
  0
LINE
  5
427
100
AcDbEntity
  8
03__ASM_ALL_CURVES
100
AcDbLine
 62
40
  6
CONTINUOUS
 10
6.3243384124
 20
3.4766088084
 11
6.3296118499
 21
3.4801244326
  0
LINE
  5
428
100
AcDbEntity
  8
03__ASM_ALL_CURVES
100
AcDbLine
 62
40
  6
CONTINUOUS
 10
6.4021216095
 20
3.5023900577
 11
6.396848172
 21
3.4988744326
  0
LINE
  5
429
100
AcDbEntity
  8
03__ASM_ALL_CURVES
100
AcDbLine
 62
40
  6
CONTINUOUS
 10
6.4443091095
 20
3.5234838068
 11
6.439035672
 21
3.5199681826
  0
LINE
  5
42A
100
AcDbEntity
  8
03__ASM_ALL_CURVES
100
AcDbLine
 62
40
  6
CONTINUOUS
 10
6.3401587249
 20
3.4414525577
 11
6.3348852874
 21
3.4379369326
  0
LINE
  5
42B
100
AcDbEntity
  8
03__ASM_ALL_CURVES
100
AcDbLine
 62
40
  6
CONTINUOUS
 10
6.512863797
 20
3.5375463084
 11
6.5181372345
 21
3.5410619326
  0
LINE
  5
42C
100
AcDbEntity
  8
03__ASM_ALL_CURVES
100
AcDbLine
 62
40
  6
CONTINUOUS
 10
6.3823462249
 20
3.4414525577
 11
6.3770727874
 21
3.4379369326
  0
LINE
  5
42D
100
AcDbEntity
  8
03__ASM_ALL_CURVES
100
AcDbLine
 62
40
  6
CONTINUOUS
 10
6.5286841095
 20
3.5234838068
 11
6.5181372345
 21
3.5164525572
  0
LINE
  5
42E
100
AcDbEntity
  8
03__ASM_ALL_CURVES
100
AcDbLine
 62
40
  6
CONTINUOUS
 10
4.2993989654
 20
5.0613979326
 11
4.3556489654
 21
5.0707729326
  0
LINE
  5
42F
100
AcDbEntity
  8
03__ASM_ALL_CURVES
100
AcDbLine
 62
40
  6
CONTINUOUS
 10
4.3556489654
 20
5.0692104326
 11
4.2993989654
 21
5.0613979326
  0
LINE
  5
430
100
AcDbEntity
  8
03__ASM_ALL_CURVES
100
AcDbLine
 62
40
  6
CONTINUOUS
 10
6.3629614658
 20
5.1363979326
 11
6.3699927158
 21
5.1317104337
  0
LINE
  5
431
100
AcDbEntity
  8
03__ASM_ALL_CURVES
100
AcDbLine
 62
40
  6
CONTINUOUS
 10
6.3699927158
 20
5.1317104337
 11
6.3770239658
 21
5.1223354326
  0
LINE
  5
432
100
AcDbEntity
  8
03__ASM_ALL_CURVES
100
AcDbLine
 62
40
  6
CONTINUOUS
 10
7.1662231839
 20
4.1479525577
 11
7.1609497464
 21
4.1549838076
  0
LINE
  5
433
100
AcDbEntity
  8
03__ASM_ALL_CURVES
100
AcDbLine
 62
40
  6
CONTINUOUS
 10
7.1398559964
 20
4.1831088084
 11
7.1424927152
 21
4.1795931818
  0
LINE
  5
434
100
AcDbEntity
  8
03__ASM_ALL_CURVES
100
AcDbLine
 62
40
  6
CONTINUOUS
 10
7.1820434964
 20
4.1831088084
 11
7.1873169339
 21
4.1760775576
  0
LINE
  5
435
100
AcDbEntity
  8
0
100
AcDbLine
 62
7
  6
CONTINUOUS
 10
6.8603989654
 20
3.8055619326
 11
6.8603989654
 21
4.4645619326
  0
LINE
  5
436
100
AcDbEntity
  8
03__ASM_ALL_CURVES
100
AcDbLine
 62
40
  6
CONTINUOUS
 10
7.1424927152
 20
4.1725619334
 11
7.1398559964
 21
4.1690463068
  0
LINE
  5
437
100
AcDbEntity
  8
03__ASM_ALL_CURVES
100
AcDbLine
 62
40
  6
CONTINUOUS
 10
7.1609497464
 20
4.1760775576
 11
7.1662231839
 21
4.1831088084
  0
LINE
  5
438
100
AcDbEntity
  8
0
100
AcDbLine
 62
7
  6
CONTINUOUS
 10
6.8473989654
 20
3.7925619326
 11
6.8603989654
 21
3.8055619326
  0
LINE
  5
439
100
AcDbEntity
  8
03__ASM_ALL_CURVES
100
AcDbLine
 62
40
  6
CONTINUOUS
 10
6.4789770908
 20
5.1363979326
 11
6.4860083408
 21
5.1317104337
  0
LINE
  5
43A
100
AcDbEntity
  8
03__ASM_ALL_CURVES
100
AcDbLine
 62
40
  6
CONTINUOUS
 10
6.4860083408
 20
5.1317104337
 11
6.4895239658
 21
5.1270229315
  0
LINE
  5
43B
100
AcDbEntity
  8
03__ASM_ALL_CURVES
100
AcDbLine
 62
40
  6
CONTINUOUS
 10
7.2242309964
 20
4.1831088084
 11
7.2268677152
 21
4.1795931818
  0
LINE
  5
43C
100
AcDbEntity
  8
03__ASM_ALL_CURVES
100
AcDbLine
 62
40
  6
CONTINUOUS
 10
7.15303959
 20
4.1256869326
 11
7.17413334
 21
4.0834994326
  0
LINE
  5
43D
100
AcDbEntity
  8
03__ASM_ALL_CURVES
100
AcDbLine
 62
40
  6
CONTINUOUS
 10
7.1873169339
 20
4.1549838076
 11
7.1820434964
 21
4.1479525577
  0
LINE
  5
43E
100
AcDbEntity
  8
03__ASM_ALL_CURVES
100
AcDbLine
 62
40
  6
CONTINUOUS
 10
7.2268677152
 20
4.1725619334
 11
7.2242309964
 21
4.1690463068
  0
LINE
  5
43F
100
AcDbEntity
  8
03__ASM_ALL_CURVES
100
AcDbLine
 62
40
  6
CONTINUOUS
 10
7.121398965
 20
4.1256869326
 11
7.121398965
 21
4.0834994326
  0
LINE
  5
440
100
AcDbEntity
  8
03__ASM_ALL_CURVES
100
AcDbLine
 62
40
  6
CONTINUOUS
 10
7.1213989652
 20
4.1444369326
 11
7.1213989652
 21
4.1866244326
  0
LINE
  5
441
100
AcDbEntity
  8
03__ASM_ALL_CURVES
100
AcDbLine
 62
40
  6
CONTINUOUS
 10
7.1424927152
 20
4.1795931818
 11
7.1424927152
 21
4.1725619334
  0
LINE
  5
442
100
AcDbEntity
  8
03__ASM_ALL_CURVES
100
AcDbLine
 62
40
  6
CONTINUOUS
 10
7.15303959
 20
4.0834994326
 11
7.15303959
 21
4.1256869326
  0
LINE
  5
443
100
AcDbEntity
  8
03__ASM_ALL_CURVES
100
AcDbLine
 62
40
  6
CONTINUOUS
 10
7.17413334
 20
4.0834994326
 11
7.17413334
 21
4.1256869326
  0
LINE
  5
444
100
AcDbEntity
  8
03__ASM_ALL_CURVES
100
AcDbLine
 62
40
  6
CONTINUOUS
 10
7.19522709
 20
4.1256869326
 11
7.19522709
 21
4.0834994326
  0
LINE
  5
445
100
AcDbEntity
  8
03__ASM_ALL_CURVES
100
AcDbLine
 62
40
  6
CONTINUOUS
 10
7.1583130277
 20
4.1655306826
 11
7.1609497464
 21
4.1760775576
  0
LINE
  5
446
100
AcDbEntity
  8
03__ASM_ALL_CURVES
100
AcDbLine
 62
40
  6
CONTINUOUS
 10
7.1899536527
 20
4.1655306826
 11
7.1873169339
 21
4.1549838076
  0
LINE
  5
447
100
AcDbEntity
  8
03__ASM_ALL_CURVES
100
AcDbLine
 62
40
  6
CONTINUOUS
 10
7.2189575589
 20
4.1655306826
 11
7.2268677152
 21
4.1444369326
  0
LINE
  5
448
100
AcDbEntity
  8
03__ASM_ALL_CURVES
100
AcDbLine
 62
40
  6
CONTINUOUS
 10
7.1609497464
 20
4.1549838076
 11
7.1583130277
 21
4.1655306826
  0
LINE
  5
449
100
AcDbEntity
  8
03__ASM_ALL_CURVES
100
AcDbLine
 62
40
  6
CONTINUOUS
 10
7.1873169339
 20
4.1760775576
 11
7.1899536527
 21
4.1655306826
  0
LINE
  5
44A
100
AcDbEntity
  8
03__ASM_ALL_CURVES
100
AcDbLine
 62
40
  6
CONTINUOUS
 10
7.2057739652
 20
4.1444369326
 11
7.2057739652
 21
4.1866244326
  0
LINE
  5
44B
100
AcDbEntity
  8
03__ASM_ALL_CURVES
100
AcDbLine
 62
40
  6
CONTINUOUS
 10
7.2268677152
 20
4.1795931818
 11
7.2268677152
 21
4.1725619334
  0
LINE
  5
44C
100
AcDbEntity
  8
03__ASM_ALL_CURVES
100
AcDbLine
 62
40
  6
CONTINUOUS
 10
7.23741459
 20
4.0834994326
 11
7.23741459
 21
4.1256869326
  0
LINE
  5
44D
100
AcDbEntity
  8
03__ASM_ALL_CURVES
100
AcDbLine
 62
40
  6
CONTINUOUS
 10
7.2585083402
 20
4.1866244326
 11
7.2585083402
 21
4.1444369326
  0
LINE
  5
44E
100
AcDbEntity
  8
03__ASM_ALL_CURVES
100
AcDbLine
 62
40
  6
CONTINUOUS
 10
7.290148965
 20
4.1256869326
 11
7.290148965
 21
4.0834994326
  0
LINE
  5
44F
100
AcDbEntity
  8
03__ASM_ALL_CURVES
100
AcDbLine
 62
40
  6
CONTINUOUS
 10
7.3006958402
 20
4.1866244326
 11
7.3006958402
 21
4.1444369326
  0
ARC
  5
450
100
AcDbEntity
  8
0
100
AcDbCircle
 62
7
  6
CONTINUOUS
 10
6.4042359399
 20
4.1350619326
 40
0.219
100
AcDbArc
 50
50.0615654435
 51
52.0705394972
  0
ARC
  5
451
100
AcDbEntity
  8
0
100
AcDbCircle
 62
7
  6
CONTINUOUS
 10
6.4042359399
 20
4.1350619326
 40
0.219
100
AcDbArc
 50
307.9294319867
 51
309.9385855772
  0
CIRCLE
  5
452
100
AcDbEntity
  8
0
100
AcDbCircle
 62
7
  6
CONTINUOUS
 10
6.5083989654
 20
4.1350619326
 40
0.0545
  0
ARC
  5
453
100
AcDbEntity
  8
0
100
AcDbCircle
 62
7
  6
CONTINUOUS
 10
5.0203989654
 20
3.7480619326
 40
0.013
100
AcDbArc
 50
0.0000000011
 51
90.0
  0
ARC
  5
454
100
AcDbEntity
  8
0
100
AcDbCircle
 62
7
  6
CONTINUOUS
 10
5.0203989654
 20
4.5220619326
 40
0.013
100
AcDbArc
 50
270.0
 51
359.9999999969
  0
ARC
  5
455
100
AcDbEntity
  8
0
100
AcDbCircle
 62
7
  6
CONTINUOUS
 10
5.6658934119
 20
3.7715619326
 40
0.013
100
AcDbArc
 50
29.9999999892
 51
90.0
  0
ARC
  5
456
100
AcDbEntity
  8
0
100
AcDbCircle
 62
7
  6
CONTINUOUS
 10
5.6658934119
 20
4.4985619326
 40
0.013
100
AcDbArc
 50
270.0
 51
330.0000000002
  0
SPLINE
  5
457
100
AcDbEntity
  8
0
100
AcDbSpline
 62
7
  6
CONTINUOUS
 70
0
 71
3
 72
15
 73
11
 74
9
 42
0.0000001
 43
0.0000001
 44
0.0000000001
 12
0.0
 22
0.1099409465
 32
0.0
 13
0.0
 23
-0.1099409465
 33
0.0
 40
0.0
 40
0.0
 40
0.0
 40
0.0
 40
0.125
 40
0.25
 40
0.375
 40
0.5
 40
0.625
 40
0.75
 40
0.875
 40
1.0
 40
1.0
 40
1.0
 40
1.0
 10
6.7723989654
 20
4.4580619326
 30
0.0
 10
6.7723989654
 20
4.4626428054
 30
0.0
 10
6.7705765809
 20
4.4718045509
 30
0.0
 10
6.7627920129
 20
4.4834549802
 30
0.0
 10
6.7511415837
 20
4.4912395481
 30
0.0
 10
6.7373989654
 20
4.4939731248
 30
0.0
 10
6.7236563471
 20
4.4912395481
 30
0.0
 10
6.7120059178
 20
4.4834549802
 30
0.0
 10
6.7042213499
 20
4.4718045509
 30
0.0
 10
6.7023989654
 20
4.4626428054
 30
0.0
 10
6.7023989654
 20
4.4580619326
 30
0.0
 11
6.7723989654
 21
4.4580619326
 31
0.0
 11
6.769734749
 21
4.4714558527
 31
0.0
 11
6.7621477027
 21
4.4828106699
 31
0.0
 11
6.7507928855
 21
4.4903977162
 31
0.0
 11
6.7373989654
 21
4.4930619326
 31
0.0
 11
6.7240050452
 21
4.4903977162
 31
0.0
 11
6.712650228
 21
4.4828106699
 31
0.0
 11
6.7050631817
 21
4.4714558527
 31
0.0
 11
6.7023989654
 21
4.4580619326
 31
0.0
  0
SPLINE
  5
458
100
AcDbEntity
  8
0
100
AcDbSpline
 62
7
  6
CONTINUOUS
 70
0
 71
3
 72
15
 73
11
 74
9
 42
0.0000001
 43
0.0000001
 44
0.0000000001
 12
0.0
 22
-0.1099409465
 32
0.0
 13
0.0
 23
0.1099409465
 33
0.0
 40
0.0
 40
0.0
 40
0.0
 40
0.0
 40
0.125
 40
0.25
 40
0.375
 40
0.5
 40
0.625
 40
0.75
 40
0.875
 40
1.0
 40
1.0
 40
1.0
 40
1.0
 10
6.7723989654
 20
3.8120619326
 30
0.0
 10
6.7723989654
 20
3.8074810598
 30
0.0
 10
6.7705765809
 20
3.7983193143
 30
0.0
 10
6.7627920129
 20
3.786668885
 30
0.0
 10
6.7511415837
 20
3.7788843171
 30
0.0
 10
6.7373989654
 20
3.7761507403
 30
0.0
 10
6.7236563471
 20
3.7788843171
 30
0.0
 10
6.7120059178
 20
3.786668885
 30
0.0
 10
6.7042213499
 20
3.7983193143
 30
0.0
 10
6.7023989654
 20
3.8074810598
 30
0.0
 10
6.7023989654
 20
3.8120619326
 30
0.0
 11
6.7723989654
 21
3.8120619326
 31
0.0
 11
6.769734749
 21
3.7986680125
 31
0.0
 11
6.7621477027
 21
3.7873131953
 31
0.0
 11
6.7507928855
 21
3.779726149
 31
0.0
 11
6.7373989654
 21
3.7770619326
 31
0.0
 11
6.7240050452
 21
3.779726149
 31
0.0
 11
6.712650228
 21
3.7873131953
 31
0.0
 11
6.7050631817
 21
3.7986680125
 31
0.0
 11
6.7023989654
 21
3.8120619326
 31
0.0
  0
SPLINE
  5
459
100
AcDbEntity
  8
0
100
AcDbSpline
 62
7
  6
CONTINUOUS
 70
0
 71
3
 72
15
 73
11
 74
9
 42
0.0000001
 43
0.0000001
 44
0.0000000001
 12
0.0
 22
0.1099409465
 32
0.0
 13
0.0
 23
-0.1099409465
 33
0.0
 40
0.0
 40
0.0
 40
0.0
 40
0.0
 40
0.125
 40
0.25
 40
0.375
 40
0.5
 40
0.625
 40
0.75
 40
0.875
 40
1.0
 40
1.0
 40
1.0
 40
1.0
 10
5.0123989654
 20
4.5440619326
 30
0.0
 10
5.0123989654
 20
4.5486428054
 30
0.0
 10
5.0105765809
 20
4.5578045509
 30
0.0
 10
5.0027920129
 20
4.5694549802
 30
0.0
 10
4.9911415837
 20
4.5772395481
 30
0.0
 10
4.9773989654
 20
4.5799731248
 30
0.0
 10
4.9636563471
 20
4.5772395481
 30
0.0
 10
4.9520059178
 20
4.5694549802
 30
0.0
 10
4.9442213499
 20
4.5578045509
 30
0.0
 10
4.9423989654
 20
4.5486428054
 30
0.0
 10
4.9423989654
 20
4.5440619326
 30
0.0
 11
5.0123989654
 21
4.5440619326
 31
0.0
 11
5.009734749
 21
4.5574558527
 31
0.0
 11
5.0021477027
 21
4.5688106699
 31
0.0
 11
4.9907928855
 21
4.5763977162
 31
0.0
 11
4.9773989654
 21
4.5790619326
 31
0.0
 11
4.9640050452
 21
4.5763977162
 31
0.0
 11
4.952650228
 21
4.5688106699
 31
0.0
 11
4.9450631817
 21
4.5574558527
 31
0.0
 11
4.9423989654
 21
4.5440619326
 31
0.0
  0
SPLINE
  5
45A
100
AcDbEntity
  8
0
100
AcDbSpline
 62
7
  6
CONTINUOUS
 70
0
 71
3
 72
15
 73
11
 74
9
 42
0.0000001
 43
0.0000001
 44
0.0000000001
 12
0.0
 22
-0.1099409465
 32
0.0
 13
0.0
 23
0.1099409465
 33
0.0
 40
0.0
 40
0.0
 40
0.0
 40
0.0
 40
0.125
 40
0.25
 40
0.375
 40
0.5
 40
0.625
 40
0.75
 40
0.875
 40
1.0
 40
1.0
 40
1.0
 40
1.0
 10
5.0123989654
 20
3.7260619326
 30
0.0
 10
5.0123989654
 20
3.7214810598
 30
0.0
 10
5.0105765809
 20
3.7123193143
 30
0.0
 10
5.0027920129
 20
3.700668885
 30
0.0
 10
4.9911415837
 20
3.6928843171
 30
0.0
 10
4.9773989654
 20
3.6901507403
 30
0.0
 10
4.9636563471
 20
3.6928843171
 30
0.0
 10
4.9520059178
 20
3.700668885
 30
0.0
 10
4.9442213499
 20
3.7123193143
 30
0.0
 10
4.9423989654
 20
3.7214810598
 30
0.0
 10
4.9423989654
 20
3.7260619326
 30
0.0
 11
5.0123989654
 21
3.7260619326
 31
0.0
 11
5.009734749
 21
3.7126680125
 31
0.0
 11
5.0021477027
 21
3.7013131953
 31
0.0
 11
4.9907928855
 21
3.693726149
 31
0.0
 11
4.9773989654
 21
3.6910619326
 31
0.0
 11
4.9640050452
 21
3.693726149
 31
0.0
 11
4.952650228
 21
3.7013131953
 31
0.0
 11
4.9450631817
 21
3.7126680125
 31
0.0
 11
4.9423989654
 21
3.7260619326
 31
0.0
  0
SPLINE
  5
45B
100
AcDbEntity
  8
0
100
AcDbSpline
 62
7
  6
CONTINUOUS
 70
0
 71
3
 72
15
 73
11
 74
9
 42
0.0000001
 43
0.0000001
 44
0.0000000001
 12
0.0
 22
0.1099409465
 32
0.0
 13
0.0
 23
-0.1099409465
 33
0.0
 40
0.0
 40
0.0
 40
0.0
 40
0.0
 40
0.125
 40
0.25
 40
0.375
 40
0.5
 40
0.625
 40
0.75
 40
0.875
 40
1.0
 40
1.0
 40
1.0
 40
1.0
 10
5.6033989654
 20
4.5440619326
 30
0.0
 10
5.6033989654
 20
4.5486428054
 30
0.0
 10
5.6015765809
 20
4.5578045509
 30
0.0
 10
5.5937920129
 20
4.5694549802
 30
0.0
 10
5.5821415837
 20
4.5772395481
 30
0.0
 10
5.5683989654
 20
4.5799731248
 30
0.0
 10
5.5546563471
 20
4.5772395481
 30
0.0
 10
5.5430059178
 20
4.5694549802
 30
0.0
 10
5.5352213499
 20
4.5578045509
 30
0.0
 10
5.5333989654
 20
4.5486428054
 30
0.0
 10
5.5333989654
 20
4.5440619326
 30
0.0
 11
5.6033989654
 21
4.5440619326
 31
0.0
 11
5.600734749
 21
4.5574558527
 31
0.0
 11
5.5931477027
 21
4.5688106699
 31
0.0
 11
5.5817928855
 21
4.5763977162
 31
0.0
 11
5.5683989654
 21
4.5790619326
 31
0.0
 11
5.5550050452
 21
4.5763977162
 31
0.0
 11
5.543650228
 21
4.5688106699
 31
0.0
 11
5.5360631817
 21
4.5574558527
 31
0.0
 11
5.5333989654
 21
4.5440619326
 31
0.0
  0
SPLINE
  5
45C
100
AcDbEntity
  8
0
100
AcDbSpline
 62
7
  6
CONTINUOUS
 70
0
 71
3
 72
15
 73
11
 74
9
 42
0.0000001
 43
0.0000001
 44
0.0000000001
 12
0.0
 22
-0.1099409465
 32
0.0
 13
0.0
 23
0.1099409465
 33
0.0
 40
0.0
 40
0.0
 40
0.0
 40
0.0
 40
0.125
 40
0.25
 40
0.375
 40
0.5
 40
0.625
 40
0.75
 40
0.875
 40
1.0
 40
1.0
 40
1.0
 40
1.0
 10
5.6033989654
 20
3.7260619326
 30
0.0
 10
5.6033989654
 20
3.7214810598
 30
0.0
 10
5.6015765809
 20
3.7123193143
 30
0.0
 10
5.5937920129
 20
3.700668885
 30
0.0
 10
5.5821415837
 20
3.6928843171
 30
0.0
 10
5.5683989654
 20
3.6901507403
 30
0.0
 10
5.5546563471
 20
3.6928843171
 30
0.0
 10
5.5430059178
 20
3.700668885
 30
0.0
 10
5.5352213499
 20
3.7123193143
 30
0.0
 10
5.5333989654
 20
3.7214810598
 30
0.0
 10
5.5333989654
 20
3.7260619326
 30
0.0
 11
5.6033989654
 21
3.7260619326
 31
0.0
 11
5.600734749
 21
3.7126680125
 31
0.0
 11
5.5931477027
 21
3.7013131953
 31
0.0
 11
5.5817928855
 21
3.693726149
 31
0.0
 11
5.5683989654
 21
3.6910619326
 31
0.0
 11
5.5550050452
 21
3.693726149
 31
0.0
 11
5.543650228
 21
3.7013131953
 31
0.0
 11
5.5360631817
 21
3.7126680125
 31
0.0
 11
5.5333989654
 21
3.7260619326
 31
0.0
  0
SPLINE
  5
45D
100
AcDbEntity
  8
0
100
AcDbSpline
 62
7
  6
CONTINUOUS
 70
0
 71
3
 72
17
 73
13
 74
11
 42
0.0000001
 43
0.0000001
 44
0.0000000001
 12
0.0757283284
 22
0.0
 32
0.0
 13
-0.0000298617
 23
-0.0759724546
 33
0.0
 40
0.0
 40
0.0
 40
0.0
 40
0.0
 40
0.1134748756
 40
0.2296907681
 40
0.3429433689
 40
0.4487986757
 40
0.5513646818
 40
0.6653395907
 40
0.7817398301
 40
0.8910524796
 40
0.9937143237
 40
1.0
 40
1.0
 40
1.0
 40
1.0
 10
6.5083989654
 20
3.9790356379
 30
0.0
 10
6.5112633863
 20
3.9790356379
 30
0.0
 10
6.5170687866
 20
3.9786475373
 30
0.0
 10
6.5255745565
 20
3.9769005135
 30
0.0
 10
6.5335795896
 20
3.9740672655
 30
0.0
 10
6.540819732
 20
3.9703379876
 30
0.0
 10
6.5475057454
 20
3.9656544013
 30
0.0
 10
6.5536096423
 20
3.9598192349
 30
0.0
 10
6.5586575854
 20
3.9528157931
 30
0.0
 10
6.5619841552
 20
3.9451428787
 30
0.0
 10
6.5628755287
 20
3.9396402471
 30
0.0
 10
6.5628988162
 20
3.9368814581
 30
0.0
 10
6.5628987536
 20
3.9367222787
 30
0.0
 11
6.5083989654
 21
3.9790356379
 31
0.0
 11
6.516973014
 21
3.978461309
 31
0.0
 11
6.5255933315
 21
3.9766879431
 31
0.0
 11
6.5336762868
 21
3.9738207165
 31
0.0
 11
6.5407986486
 21
3.9701421091
 31
0.0
 11
6.5471522929
 21
3.9656744634
 31
0.0
 11
6.5533693599
 21
3.9596874382
 31
0.0
 11
6.5584789722
 21
3.9525046474
 31
0.0
 11
6.5617106871
 21
3.9448834686
 31
0.0
 11
6.5628947255
 21
3.937199752
 31
0.0
 11
6.5628987536
 21
3.9367222787
 31
0.0
  0
SPLINE
  5
45E
100
AcDbEntity
  8
0
100
AcDbSpline
 62
7
  6
CONTINUOUS
 70
0
 71
3
 72
13
 73
9
 74
7
 42
0.0000001
 43
0.0000001
 44
0.0000000001
 12
0.0459044343
 22
0.0
 32
0.0
 13
-0.0000074609
 23
-0.046070983
 33
0.0
 40
0.0
 40
0.0
 40
0.0
 40
0.0
 40
0.1750151593
 40
0.3495459655
 40
0.5204622028
 40
0.6861000275
 40
0.8457058113
 40
1.0
 40
1.0
 40
1.0
 40
1.0
 10
6.2033989654
 20
4.0225178578
 30
0.0
 10
6.206076956
 20
4.0225178578
 30
0.0
 10
6.2114476985
 20
4.0218739856
 30
0.0
 10
6.2189701273
 20
4.0190374506
 30
0.0
 10
6.2254657224
 20
4.0145366774
 30
0.0
 10
6.2304745252
 20
4.008717135
 30
0.0
 10
6.2336531224
 20
4.0019983013
 30
0.0
 10
6.2343993501
 20
3.9971813562
 30
0.0
 10
6.2343989664
 20
3.9948118613
 30
0.0
 11
6.2033989654
 21
4.0225178578
 31
0.0
 11
6.2113752626
 21
4.021556928
 31
0.0
 11
6.2188685923
 21
4.0187217991
 31
0.0
 11
6.2253058921
 21
4.0142364948
 31
0.0
 11
6.2302429882
 21
4.0084538953
 31
0.0
 11
6.2333433328
 21
4.001815588
 31
0.0
 11
6.2343989664
 21
3.9948118613
 31
0.0
  0
SPLINE
  5
45F
100
AcDbEntity
  8
0
100
AcDbSpline
 62
7
  6
CONTINUOUS
 70
0
 71
3
 72
17
 73
13
 74
11
 42
0.0000001
 43
0.0000001
 44
0.0000000001
 12
-0.0757272126
 22
0.0
 32
0.0
 13
0.0000299482
 23
0.075977252
 33
0.0
 40
0.0
 40
0.0
 40
0.0
 40
0.0
 40
0.1128273099
 40
0.2282803953
 40
0.3408097489
 40
0.4460988183
 40
0.5482958963
 40
0.661901209
 40
0.7784114467
 40
0.8880453297
 40
0.991103023
 40
1.0
 40
1.0
 40
1.0
 40
1.0
 10
6.5083989654
 20
4.2910882273
 30
0.0
 10
6.5055509328
 20
4.2910882273
 30
0.0
 10
6.4997813442
 20
4.2914717235
 30
0.0
 10
6.491326849
 20
4.2931974287
 30
0.0
 10
6.4833652316
 20
4.2959960433
 30
0.0
 10
6.4761515148
 20
4.2996838911
 30
0.0
 10
6.4694748479
 20
4.3043224571
 30
0.0
 10
6.4633550267
 20
4.3101167382
 30
0.0
 10
6.4582655946
 20
4.3170912377
 30
0.0
 10
6.4548792491
 20
4.3247603136
 30
0.0
 10
6.4539334478
 20
4.3303398627
 30
0.0
 10
6.4538992009
 20
4.3331749129
 30
0.0
 10
6.4538992897
 20
4.3334002356
 30
0.0
 11
6.5083989654
 21
4.2910882273
 31
0.0
 11
6.4998737533
 21
4.2916559985
 31
0.0
 11
6.4913079805
 21
4.2934071533
 31
0.0
 11
6.4832706038
 21
4.2962386054
 31
0.0
 11
6.4761752158
 21
4.2998756577
 31
0.0
 11
6.4698271461
 21
4.3043023582
 31
0.0
 11
6.4636012277
 21
4.3102395111
 31
0.0
 11
6.4584443168
 21
4.3173985278
 31
0.0
 11
6.4551517055
 21
4.3250199693
 31
0.0
 11
6.4539074456
 21
4.3327244145
 31
0.0
 11
6.4538992897
 21
4.3334002356
 31
0.0
  0
SPLINE
  5
460
100
AcDbEntity
  8
0
100
AcDbSpline
 62
7
  6
CONTINUOUS
 70
0
 71
3
 72
11
 73
7
 74
5
 42
0.0000001
 43
0.0000001
 44
0.0000000001
 12
-0.0392352439
 22
0.0
 32
0.0
 13
-0.034387224
 23
-0.0190033947
 33
0.0
 40
0.0
 40
0.0
 40
0.0
 40
0.0
 40
0.2734455198
 40
0.5393590625
 40
0.7900275691
 40
1.0
 40
1.0
 40
1.0
 40
1.0
 10
6.5083989654
 20
4.3122390733
 30
0.0
 10
6.5048227315
 20
4.3122390733
 30
0.0
 10
6.4977632491
 20
4.311887976
 30
0.0
 10
6.4875337646
 20
4.3102952124
 30
0.0
 10
6.4783624683
 20
4.3077041943
 30
0.0
 10
6.472833018
 20
4.3052516124
 30
0.0
 10
6.4704262284
 20
4.3039215494
 30
0.0
 11
6.5083989654
 21
4.3122390733
 31
0.0
 11
6.497684128
 21
4.3116938218
 31
0.0
 11
6.4873808902
 21
4.3100523005
 31
0.0
 11
6.4779332224
 21
4.3073192464
 31
0.0
 11
6.4704262284
 21
4.3039215494
 31
0.0
  0
SPLINE
  5
461
100
AcDbEntity
  8
0
100
AcDbSpline
 62
7
  6
CONTINUOUS
 70
0
 71
3
 72
11
 73
7
 74
5
 42
0.0000001
 43
0.0000001
 44
0.0000000001
 12
0.0392200789
 22
0.0
 32
0.0
 13
0.034379849
 23
0.0189849164
 33
0.0
 40
0.0
 40
0.0
 40
0.0
 40
0.0
 40
0.2736165691
 40
0.5396973624
 40
0.7905170383
 40
1.0
 40
1.0
 40
1.0
 40
1.0
 10
6.5083989654
 20
3.9578847919
 30
0.0
 10
6.5119760532
 20
3.9578847919
 30
0.0
 10
6.5190372359
 20
3.9582360559
 30
0.0
 10
6.5292690512
 20
3.9598295963
 30
0.0
 10
6.538434456
 20
3.9624197495
 30
0.0
 10
6.5439577593
 20
3.964869306
 30
0.0
 10
6.5463584235
 20
3.9661949781
 30
0.0
 11
6.5083989654
 21
3.9578847919
 31
0.0
 11
6.5191163544
 21
3.9584303068
 31
0.0
 11
6.5294220184
 21
3.9600726609
 31
0.0
 11
6.5388714951
 21
3.9628071177
 31
0.0
 11
6.5463584235
 21
3.9661949781
 31
0.0
  0
SPLINE
  5
462
100
AcDbEntity
  8
0
100
AcDbSpline
 62
7
  6
CONTINUOUS
 70
0
 71
3
 72
10
 73
6
 74
4
 42
0.0000001
 43
0.0000001
 44
0.0000000001
 12
0.0228512954
 22
0.0
 32
0.0
 13
0.0181095152
 23
0.0140359854
 33
0.0
 40
0.0
 40
0.0
 40
0.0
 40
0.0
 40
0.3550134993
 40
0.7136163256
 40
1.0
 40
1.0
 40
1.0
 40
1.0
 10
6.2033989654
 20
4.0076526645
 30
0.0
 10
6.2061031382
 20
4.0076526645
 30
0.0
 10
6.211556016
 20
4.0082129942
 30
0.0
 10
6.2188508649
 20
4.010622482
 30
0.0
 10
6.2230933612
 20
4.0131860158
 30
0.0
 10
6.2248221177
 20
4.0145259082
 30
0.0
 11
6.2033989654
 21
4.0076526645
 31
0.0
 11
6.2114674206
 21
4.0084970482
 31
0.0
 11
6.2192346994
 21
4.0111085326
 31
0.0
 11
6.2248221177
 21
4.0145259082
 31
0.0
  0
SPLINE
  5
463
100
AcDbEntity
  8
0
100
AcDbSpline
 62
7
  6
CONTINUOUS
 70
0
 71
3
 72
10
 73
6
 74
4
 42
0.0000001
 43
0.0000001
 44
0.0000000001
 12
0.0181105463
 22
-0.0140399311
 32
0.0
 13
0.0228544212
 23
0.0
 33
0.0
 40
0.0
 40
0.0
 40
0.0
 40
0.0
 40
0.2891670656
 40
0.6468096572
 40
1.0
 40
1.0
 40
1.0
 40
1.0
 10
6.1819735565
 20
4.0145276593
 30
0.0
 10
6.1837192143
 20
4.0131743641
 30
0.0
 10
6.1879773512
 20
4.01060744
 30
0.0
 10
6.1952761597
 20
4.0082081062
 30
0.0
 10
6.2007083118
 20
4.0076526645
 30
0.0
 10
6.2033989654
 20
4.0076526645
 30
0.0
 11
6.1819735565
 21
4.0145276593
 31
0.0
 11
6.1876190566
 21
4.0110820605
 31
0.0
 11
6.1953704017
 21
4.0084885577
 31
0.0
 11
6.2033989654
 21
4.0076526645
 31
0.0
  0
SPLINE
  5
464
100
AcDbEntity
  8
0
100
AcDbSpline
 62
7
  6
CONTINUOUS
 70
0
 71
3
 72
12
 73
8
 74
6
 42
0.0000001
 43
0.0000001
 44
0.0000000001
 12
0.013723063
 22
0.0340484069
 32
0.0
 13
0.0365955553
 23
-0.0
 33
0.0
 40
0.0
 40
0.0
 40
0.0
 40
0.0
 40
0.1396998915
 40
0.3473889313
 40
0.5616956984
 40
0.7805615328
 40
1.0
 40
1.0
 40
1.0
 40
1.0
 10
6.1741979663
 20
4.0039207666
 30
0.0
 10
6.1748370031
 20
4.0055062861
 30
0.0
 10
6.1768167699
 20
4.009291917
 30
0.0
 10
6.1813390837
 20
4.0145424624
 30
0.0
 10
6.1878333352
 20
4.0190400871
 30
0.0
 10
6.1953533353
 20
4.0218745012
 30
0.0
 10
6.2007221412
 20
4.0225178578
 30
0.0
 10
6.2033989654
 20
4.0225178578
 30
0.0
 11
6.1741979663
 21
4.0039207666
 31
0.0
 11
6.1765614446
 21
4.0084639512
 31
0.0
 11
6.1814986624
 21
4.0142424818
 31
0.0
 11
6.1879344386
 21
4.0187244833
 31
0.0
 11
6.1954260917
 21
4.0215577662
 31
0.0
 11
6.2033989654
 21
4.0225178578
 31
0.0
  0
SPLINE
  5
465
100
AcDbEntity
  8
0
100
AcDbSpline
 62
7
  6
CONTINUOUS
 70
0
 71
3
 72
18
 73
14
 74
12
 42
0.0000001
 43
0.0000001
 44
0.0000000001
 12
-0.0597502953
 22
-0.0066034298
 32
0.0
 13
-0.0597951292
 23
0.0061868236
 33
0.0
 40
0.0
 40
0.0
 40
0.0
 40
0.0
 40
0.0174670401
 40
0.0691676561
 40
0.1515016135
 40
0.2586834073
 40
0.3832873981
 40
0.5168460013
 40
0.6503829469
 40
0.774928235
 40
0.8820439609
 40
0.9643260454
 40
1.0
 40
1.0
 40
1.0
 40
1.0
 10
6.2343989654
 20
4.4155619326
 30
0.0
 10
6.2340510784
 20
4.4155234851
 30
0.0
 10
6.2326732044
 20
4.4153737384
 30
0.0
 10
6.2296528357
 20
4.415067492
 30
0.0
 10
6.2248373661
 20
4.4146475379
 30
0.0
 10
6.218556566
 20
4.414226561
 30
0.0
 10
6.2112414086
 20
4.4139179888
 30
0.0
 10
6.2033922378
 20
4.4138051044
 30
0.0
 10
6.1955442491
 20
4.4139183567
 30
0.0
 10
6.1882320369
 20
4.4142270988
 30
0.0
 10
6.1819547807
 20
4.4146480055
 30
0.0
 10
6.1774616159
 20
4.4150399143
 30
0.0
 10
6.1751096393
 20
4.415274416
 30
0.0
 10
6.1743985964
 20
4.4153479855
 30
0.0
 11
6.2343989654
 21
4.4155619326
 31
0.0
 11
6.233355096
 21
4.4154484868
 31
0.0
 11
6.2302630088
 21
4.4151350067
 31
0.0
 11
6.2253322785
 21
4.4147051342
 31
0.0
 11
6.218903548
 21
4.4142744719
 31
0.0
 11
6.2114197341
 21
4.4139590153
 31
0.0
 11
6.2033918048
 21
4.4138436573
 31
0.0
 11
6.1953651829
 21
4.4139593898
 31
0.0
 11
6.1878849074
 21
4.4142749982
 31
0.0
 11
6.1814601511
 21
4.4147055658
 31
0.0
 11
6.1765325332
 21
4.4151352358
 31
0.0
 11
6.1743985964
 21
4.4153479855
 31
0.0
  0
SPLINE
  5
466
100
AcDbEntity
  8
0
100
AcDbSpline
 62
7
  6
CONTINUOUS
 70
0
 71
3
 72
11
 73
7
 74
5
 42
0.0000001
 43
0.0000001
 44
0.0000000001
 12
0.0343192501
 22
-0.0188333643
 32
0.0
 13
0.0390954445
 23
0.0
 33
0.0
 40
0.0
 40
0.0
 40
0.0
 40
0.0
 40
0.2067639559
 40
0.4584166446
 40
0.7254047084
 40
1.0
 40
1.0
 40
1.0
 40
1.0
 10
6.470548833
 20
3.9661347941
 30
0.0
 10
6.4729141609
 20
3.9648367738
 30
0.0
 10
6.4783990945
 20
3.962410118
 30
0.0
 10
6.4875228401
 20
3.9598308057
 30
0.0
 10
6.4977571443
 20
3.9582362967
 30
0.0
 10
6.5048204904
 20
3.9578847919
 30
0.0
 10
6.5083989654
 20
3.9578847919
 30
0.0
 11
6.470548833
 21
3.9661347941
 31
0.0
 11
6.4779191242
 21
3.9628098109
 31
0.0
 11
6.4873695847
 21
3.9600740549
 31
0.0
 11
6.4976774312
 21
3.9584307347
 31
0.0
 11
6.5083989654
 21
3.9578847919
 31
0.0
  0
SPLINE
  5
467
100
AcDbEntity
  8
0
100
AcDbSpline
 62
7
  6
CONTINUOUS
 70
0
 71
3
 72
16
 73
12
 74
10
 42
0.0000001
 43
0.0000001
 44
0.0000000001
 12
0.0000139659
 22
0.0759992494
 32
0.0
 13
0.0757127255
 23
0.0
 33
0.0
 40
0.0
 40
0.0
 40
0.0
 40
0.0
 40
0.0476675084
 40
0.1589855637
 40
0.2789963605
 40
0.403834128
 40
0.5182455422
 40
0.6304000143
 40
0.7512112517
 40
0.8769139322
 40
1.0
 40
1.0
 40
1.0
 40
1.0
 10
6.4539004195
 20
3.9367228666
 30
0.0
 10
6.4539006414
 20
3.9379304315
 30
0.0
 10
6.4541665295
 20
3.9419588293
 30
0.0
 10
6.4560996089
 20
3.9488151992
 30
0.0
 10
6.4606131808
 20
3.9566793614
 30
0.0
 10
6.4667126956
 20
3.9634672428
 30
0.0
 10
6.4737275816
 20
3.9689523527
 30
0.0
 10
6.4813904323
 20
3.9732726681
 30
0.0
 10
6.4898678077
 20
3.9765404712
 30
0.0
 10
6.4990043537
 20
3.9785796716
 30
0.0
 10
6.5052925715
 20
3.9790356379
 30
0.0
 10
6.5083989654
 20
3.9790356379
 30
0.0
 11
6.4539004195
 21
3.9367228666
 31
0.0
 11
6.4541352019
 21
3.9403351383
 31
0.0
 11
6.4563470687
 21
3.948467917
 31
0.0
 11
6.4608052619
 21
3.9563853768
 31
0.0
 11
6.4670841202
 21
3.9634502622
 31
0.0
 11
6.4738937735
 21
3.9688043069
 31
0.0
 11
6.4812845932
 21
3.9729854204
 31
0.0
 11
6.4898163992
 21
3.9762831384
 31
0.0
 11
6.499104301
 21
3.9783600924
 31
0.0
 11
6.5083989654
 21
3.9790356379
 31
0.0
  0
SPLINE
  5
468
100
AcDbEntity
  8
0
100
AcDbSpline
 62
7
  6
CONTINUOUS
 70
0
 71
3
 72
11
 73
7
 74
5
 42
0.0000001
 43
0.0000001
 44
0.0000000001
 12
-0.0343202775
 22
0.0188357756
 32
0.0
 13
-0.0390974466
 23
0.0
 33
0.0
 40
0.0
 40
0.0
 40
0.0
 40
0.0
 40
0.2069865195
 40
0.4585719748
 40
0.7254829715
 40
1.0
 40
1.0
 40
1.0
 40
1.0
 10
6.5462508419
 20
4.3039881117
 30
0.0
 10
6.5438828969
 20
4.3052876956
 30
0.0
 10
6.5383956706
 20
4.3077149947
 30
0.0
 10
6.5292702892
 20
4.3102939866
 30
0.0
 10
6.5190382828
 20
4.311887732
 30
0.0
 10
6.5119766037
 20
4.3122390733
 30
0.0
 10
6.5083989654
 20
4.3122390733
 30
0.0
 11
6.5462508419
 21
4.3039881117
 31
0.0
 11
6.5388721167
 21
4.3073165186
 31
0.0
 11
6.5294234661
 21
4.3100508854
 31
0.0
 11
6.5191179994
 21
4.3116933886
 31
0.0
 11
6.5083989654
 21
4.3122390733
 31
0.0
  0
SPLINE
  5
469
100
AcDbEntity
  8
0
100
AcDbSpline
 62
7
  6
CONTINUOUS
 70
0
 71
3
 72
16
 73
12
 74
10
 42
0.0000001
 43
0.0000001
 44
0.0000000001
 12
-0.0000204394
 22
-0.075997623
 32
0.0
 13
-0.075712571
 23
0.0
 33
0.0
 40
0.0
 40
0.0
 40
0.0
 40
0.0
 40
0.0503359856
 40
0.1620458259
 40
0.2823563257
 40
0.4070599677
 40
0.5210516964
 40
0.6326727146
 40
0.7527374537
 40
0.8776167489
 40
1.0
 40
1.0
 40
1.0
 40
1.0
 10
6.562897545
 20
4.3334006335
 30
0.0
 10
6.562897202
 20
4.3321254951
 30
0.0
 10
6.5626106528
 20
4.328019479
 30
0.0
 10
6.5606070477
 20
4.3210944134
 30
0.0
 10
6.5560385717
 20
4.3132462119
 30
0.0
 10
6.5499089007
 20
4.3064951877
 30
0.0
 10
6.5428933938
 20
4.3010564837
 30
0.0
 10
6.5352544479
 20
4.2967822683
 30
0.0
 10
6.526819725
 20
4.2935533178
 30
0.0
 10
6.5177371437
 20
4.2915387947
 30
0.0
 10
6.5114876156
 20
4.2910882273
 30
0.0
 10
6.5083989654
 20
4.2910882273
 30
0.0
 11
6.562897545
 21
4.3334006335
 31
0.0
 11
6.5626358789
 21
4.3295873133
 31
0.0
 11
6.5603609292
 21
4.3214411702
 31
0.0
 11
6.5558427381
 21
4.313531673
 31
0.0
 11
6.5495336703
 21
4.306507422
 31
0.0
 11
6.5427265653
 21
4.301201699
 31
0.0
 11
6.5353573102
 21
4.2970646213
 31
0.0
 11
6.5268706064
 21
4.2938071048
 31
0.0
 11
6.5176408172
 21
4.2917560711
 31
0.0
 11
6.5083989654
 21
4.2910882273
 31
0.0
  0
SPLINE
  5
46A
100
AcDbEntity
  8
0
100
AcDbSpline
 62
7
  6
CONTINUOUS
 70
0
 71
3
 72
22
 73
18
 74
16
 42
0.0000001
 43
0.0000001
 44
0.0000000001
 12
-0.1076738041
 22
-0.0209205978
 32
0.0
 13
-0.1076738041
 23
0.0209205978
 33
0.0
 40
0.0
 40
0.0
 40
0.0
 40
0.0
 40
0.0110483624
 40
0.0436802716
 40
0.0963399339
 40
0.1662801092
 40
0.2508908116
 40
0.3458883784
 40
0.4480912632
 40
0.5520689454
 40
0.6542879736
 40
0.7493163605
 40
0.8338983884
 40
0.9038037311
 40
0.9563885737
 40
0.9889766636
 40
1.0
 40
1.0
 40
1.0
 40
1.0
 10
6.5628989654
 20
4.4155619326
 30
0.0
 10
6.5625024256
 20
4.4154848865
 30
0.0
 10
6.560934084
 20
4.4151833632
 30
0.0
 10
6.5574698365
 20
4.4145453566
 30
0.0
 10
6.5518724798
 20
4.4136037142
 30
0.0
 10
6.5443739022
 20
4.412516422
 30
0.0
 10
6.5353081884
 20
4.4114716623
 30
0.0
 10
6.5250350151
 20
4.4106486046
 30
0.0
 10
6.5140294321
 20
4.4101965796
 30
0.0
 10
6.5027503338
 20
4.4101969402
 30
0.0
 10
6.4917430641
 20
4.4106497715
 30
0.0
 10
6.4814692843
 20
4.4114736546
 30
0.0
 10
6.4724048366
 20
4.4125189468
 30
0.0
 10
6.4649113311
 20
4.4136059644
 30
0.0
 10
6.4593195458
 20
4.4145468925
 30
0.0
 10
6.4558604753
 20
4.415184006
 30
0.0
 10
6.4542946069
 20
4.415485061
 30
0.0
 10
6.4538989654
 20
4.4155619326
 30
0.0
 11
6.5628989654
 21
4.4155619326
 31
0.0
 11
6.5617088923
 21
4.4153331375
 31
0.0
 11
6.5581887641
 21
4.414684936
 31
0.0
 11
6.5524926381
 21
4.4137270578
 31
0.0
 11
6.5449003627
 21
4.4126269736
 31
0.0
 11
6.5356805198
 21
4.4115656093
 31
0.0
 11
6.5252936665
 21
4.4107346206
 31
0.0
 11
6.5140927043
 21
4.4102753383
 31
0.0
 11
6.5026876569
 21
4.4102757023
 31
0.0
 11
6.4914849562
 21
4.4107358046
 31
0.0
 11
6.4810947954
 21
4.4115678416
 31
0.0
 11
6.4718781555
 21
4.4126295272
 31
0.0
 11
6.4642897276
 21
4.4137295211
 31
0.0
 11
6.4586017321
 21
4.4146862599
 31
0.0
 11
6.4550863417
 21
4.4153336505
 31
0.0
 11
6.4538989654
 21
4.4155619326
 31
0.0
  0
SPLINE
  5
46B
100
AcDbEntity
  8
0
100
AcDbSpline
 62
7
  6
CONTINUOUS
 70
0
 71
3
 72
22
 73
18
 74
16
 42
0.0000001
 43
0.0000001
 44
0.0000000001
 12
0.1076738041
 22
0.0209205978
 32
0.0
 13
0.1076738041
 23
-0.0209205978
 33
0.0
 40
0.0
 40
0.0
 40
0.0
 40
0.0
 40
0.0110483624
 40
0.0436802716
 40
0.0963399339
 40
0.1662801092
 40
0.2508908116
 40
0.3458883784
 40
0.4480912632
 40
0.5520689454
 40
0.6542879736
 40
0.7493163605
 40
0.8338983884
 40
0.9038037311
 40
0.9563885737
 40
0.9889766636
 40
1.0
 40
1.0
 40
1.0
 40
1.0
 10
6.4538989654
 20
3.8545619326
 30
0.0
 10
6.4542955051
 20
3.8546389787
 30
0.0
 10
6.4558638468
 20
3.854940502
 30
0.0
 10
6.4593280942
 20
3.8555785086
 30
0.0
 10
6.464925451
 20
3.856520151
 30
0.0
 10
6.4724240285
 20
3.8576074431
 30
0.0
 10
6.4814897424
 20
3.8586522029
 30
0.0
 10
6.4917629157
 20
3.8594752605
 30
0.0
 10
6.5027684987
 20
3.8599272856
 30
0.0
 10
6.514047597
 20
3.859926925
 30
0.0
 10
6.5250548667
 20
3.8594740937
 30
0.0
 10
6.5353286465
 20
3.8586502106
 30
0.0
 10
6.5443930942
 20
3.8576049183
 30
0.0
 10
6.5518865997
 20
3.8565179008
 30
0.0
 10
6.5574783849
 20
3.8555769727
 30
0.0
 10
6.5609374554
 20
3.8549398592
 30
0.0
 10
6.5625033239
 20
3.8546388042
 30
0.0
 10
6.5628989654
 20
3.8545619326
 30
0.0
 11
6.4538989654
 21
3.8545619326
 31
0.0
 11
6.4550890384
 21
3.8547907277
 31
0.0
 11
6.4586091667
 21
3.8554389291
 31
0.0
 11
6.4643052926
 21
3.8563968074
 31
0.0
 11
6.471897568
 21
3.8574968916
 31
0.0
 11
6.481117411
 21
3.8585582559
 31
0.0
 11
6.4915042643
 21
3.8593892446
 31
0.0
 11
6.5027052264
 21
3.8598485269
 31
0.0
 11
6.5141102738
 21
3.8598481629
 31
0.0
 11
6.5253129746
 21
3.8593880606
 31
0.0
 11
6.5357031353
 21
3.8585560236
 31
0.0
 11
6.5449197753
 21
3.857494338
 31
0.0
 11
6.5525082032
 21
3.8563943441
 31
0.0
 11
6.5581961987
 21
3.8554376052
 31
0.0
 11
6.561711589
 21
3.8547902147
 31
0.0
 11
6.5628989654
 21
3.8545619326
 31
0.0
  0
SPLINE
  5
46C
100
AcDbEntity
  8
0
100
AcDbSpline
 62
7
  6
CONTINUOUS
 70
0
 71
3
 72
13
 73
9
 74
7
 42
0.0000001
 43
0.0000001
 44
0.0000000001
 12
-0.0000072862
 22
-0.0449918515
 32
0.0
 13
-0.0448292039
 23
-0.0
 33
0.0
 40
0.0
 40
0.0
 40
0.0
 40
0.0
 40
0.1557305928
 40
0.3127934441
 40
0.4752520575
 40
0.6452745283
 40
0.8213774322
 40
1.0
 40
1.0
 40
1.0
 40
1.0
 10
6.2343989664
 20
3.9948118613
 30
0.0
 10
6.2343985882
 20
3.9924763254
 30
0.0
 10
6.2336812087
 20
3.9877817768
 30
0.0
 10
6.2304792311
 20
3.9813213258
 30
0.0
 10
6.2254171782
 20
3.9759097967
 30
0.0
 10
6.2188904251
 20
3.9718632708
 30
0.0
 10
6.2113863557
 20
3.9693792243
 30
0.0
 10
6.2060681346
 20
3.9688242828
 30
0.0
 10
6.2033989654
 20
3.9688242828
 30
0.0
 11
6.2343989664
 21
3.9948118613
 31
0.0
 11
6.233339707
 21
3.9879114608
 31
0.0
 11
6.2302374208
 21
3.9815907379
 31
0.0
 11
6.2252975059
 21
3.9762393145
 31
0.0
 11
6.2188459237
 21
3.9721807995
 31
0.0
 11
6.2113618743
 21
3.9696682367
 31
0.0
 11
6.2033989654
 21
3.9688242828
 31
0.0
  0
SPLINE
  5
46D
100
AcDbEntity
  8
0
100
AcDbSpline
 62
7
  6
CONTINUOUS
 70
0
 71
3
 72
15
 73
11
 74
9
 42
0.0000001
 43
0.0000001
 44
0.0000000001
 12
0.0714065844
 22
0.0
 32
0.0
 13
-0.000019277
 23
-0.0716754247
 33
0.0
 40
0.0
 40
0.0
 40
0.0
 40
0.0
 40
0.1583204444
 40
0.3122202719
 40
0.4577088347
 40
0.591873334
 40
0.715518254
 40
0.8302009617
 40
0.9415002283
 40
1.0
 40
1.0
 40
1.0
 40
1.0
 10
6.5083989654
 20
4.3681628664
 30
0.0
 10
6.5121673394
 20
4.3681628664
 30
0.0
 10
6.5196068047
 20
4.3677292174
 30
0.0
 10
6.5303531665
 20
4.3657715455
 30
0.0
 10
6.5401904729
 20
4.3625251222
 30
0.0
 10
6.5487264675
 20
4.3580150961
 30
0.0
 10
6.5555981634
 20
4.3522855059
 30
0.0
 10
6.5604702814
 20
4.3454020045
 30
0.0
 10
6.5625898143
 20
4.3388540395
 30
0.0
 10
6.5628979209
 20
4.3347982988
 30
0.0
 10
6.562897545
 20
4.3334006335
 30
0.0
 11
6.5083989654
 21
4.3681628664
 31
0.0
 11
6.5196841178
 21
4.3674912106
 31
0.0
 11
6.5304882622
 21
4.3654815542
 31
0.0
 11
6.5403320262
 21
4.3621606606
 31
0.0
 11
6.5487593793
 21
4.3576042913
 31
0.0
 11
6.5554740198
 21
4.35187141
 31
0.0
 11
6.5601400224
 21
4.3451416413
 31
0.0
 11
6.5625720305
 21
4.3375753939
 31
0.0
 11
6.562897545
 21
4.3334006335
 31
0.0
  0
SPLINE
  5
46E
100
AcDbEntity
  8
0
100
AcDbSpline
 62
7
  6
CONTINUOUS
 70
0
 71
3
 72
15
 73
11
 74
9
 42
0.0000001
 43
0.0000001
 44
0.0000000001
 12
-0.0000281619
 22
-0.0716480845
 32
0.0
 13
-0.071417854
 23
-0.0
 33
0.0
 40
0.0
 40
0.0
 40
0.0
 40
0.0
 40
0.098605897
 40
0.2047378912
 40
0.315660454
 40
0.4350553427
 40
0.564402092
 40
0.7033995378
 40
0.8498846531
 40
1.0
 40
1.0
 40
1.0
 40
1.0
 10
6.5628987536
 20
3.9367222787
 30
0.0
 10
6.562897828
 20
3.9343673041
 30
0.0
 10
6.56225688
 20
3.9294719878
 30
0.0
 10
6.559167351
 20
3.9225053171
 30
0.0
 10
6.5539875235
 20
3.9162816521
 30
0.0
 10
6.5470847763
 20
3.9111100805
 30
0.0
 10
6.5387488093
 20
3.9070443931
 30
0.0
 10
6.5292834145
 20
3.9041164937
 30
0.0
 10
6.5190401869
 20
3.9023520386
 30
0.0
 10
6.511972604
 20
3.9019609987
 30
0.0
 10
6.5083989654
 20
3.9019609987
 30
0.0
 11
6.5628987536
 21
3.9367222787
 31
0.0
 11
6.5619642995
 21
3.9297393218
 31
0.0
 11
6.55892321
 21
3.9227964176
 31
0.0
 11
6.5539151389
 21
3.9166584249
 31
0.0
 11
6.5471435792
 21
3.9114762962
 31
0.0
 11
6.5388740738
 21
3.9073592854
 31
0.0
 11
6.5294070431
 21
3.9043728729
 31
0.0
 11
6.5191028867
 21
3.9025644107
 31
0.0
 11
6.5083989654
 21
3.9019609987
 31
0.0
  0
SPLINE
  5
46F
100
AcDbEntity
  8
0
100
AcDbSpline
 62
7
  6
CONTINUOUS
 70
0
 71
3
 72
15
 73
11
 74
9
 42
0.0000001
 43
0.0000001
 44
0.0000000001
 12
0.0000282442
 22
0.0716542344
 32
0.0
 13
0.0714184219
 23
0.0
 33
0.0
 40
0.0
 40
0.0
 40
0.0
 40
0.0
 40
0.0961703534
 40
0.2026250671
 40
0.3137779361
 40
0.433434125
 40
0.5630741986
 40
0.7024650788
 40
0.8493996714
 40
1.0
 40
1.0
 40
1.0
 40
1.0
 10
6.4538992897
 20
4.3334002356
 30
0.0
 10
6.4539001951
 20
4.3356972399
 30
0.0
 10
6.4545174694
 20
4.3405418618
 30
0.0
 10
6.4575455722
 20
4.3474871932
 30
0.0
 10
6.4627099517
 20
4.3537506507
 30
0.0
 10
6.4696126305
 20
4.3589551478
 30
0.0
 10
6.4779616945
 20
4.3630469402
 30
0.0
 10
6.4874501024
 20
4.3659935692
 30
0.0
 10
6.4977238
 20
4.3677693391
 30
0.0
 10
6.5048137528
 20
4.3681628664
 30
0.0
 10
6.5083989654
 20
4.3681628664
 30
0.0
 11
6.4538992897
 21
4.3334002356
 31
0.0
 11
6.4547875797
 21
4.3402149624
 31
0.0
 11
6.4577951056
 21
4.3471976392
 31
0.0
 11
6.4627851683
 21
4.3533715256
 31
0.0
 11
6.4695552508
 21
4.3585863336
 31
0.0
 11
6.4778353564
 21
4.3627291808
 31
0.0
 11
6.4873257335
 21
4.3657352237
 31
0.0
 11
6.4976604899
 21
4.3675555035
 31
0.0
 11
6.5083989654
 21
4.3681628664
 31
0.0
  0
SPLINE
  5
470
100
AcDbEntity
  8
0
100
AcDbSpline
 62
7
  6
CONTINUOUS
 70
0
 71
3
 72
15
 73
11
 74
9
 42
0.0000001
 43
0.0000001
 44
0.0000000001
 12
-0.0714069838
 22
0.0
 32
0.0
 13
0.0000131716
 23
0.0716772132
 33
0.0
 40
0.0
 40
0.0
 40
0.0
 40
0.0
 40
0.1578317394
 40
0.3112850682
 40
0.4563881409
 40
0.5902671798
 40
0.7136634978
 40
0.8280911631
 40
0.9390574287
 40
1.0
 40
1.0
 40
1.0
 40
1.0
 10
6.5083989654
 20
3.9019609987
 30
0.0
 10
6.5046422026
 20
3.9019609987
 30
0.0
 10
6.4972250317
 20
3.9023920401
 30
0.0
 10
6.4865086938
 20
3.9043378502
 30
0.0
 10
6.4766933495
 20
3.907564636
 30
0.0
 10
6.468168403
 20
3.9120472791
 30
0.0
 10
6.4612937054
 20
3.9177421022
 30
0.0
 10
6.4564007949
 20
3.924584464
 30
0.0
 10
6.454225437
 20
3.9311604744
 30
0.0
 10
6.453900152
 20
3.935266802
 30
0.0
 10
6.4539004195
 20
3.9367228666
 30
0.0
 11
6.5083989654
 21
3.9019609987
 31
0.0
 11
6.49714846
 21
3.90262848
 31
0.0
 11
6.4863743751
 21
3.904625717
 31
0.0
 11
6.476552657
 21
3.9079260047
 31
0.0
 11
6.4681338036
 21
3.9124553053
 31
0.0
 11
6.4614138219
 21
3.9181545939
 31
0.0
 11
6.4567258317
 21
3.9248468968
 31
0.0
 11
6.4542540361
 21
3.9323752631
 31
0.0
 11
6.4539004195
 21
3.9367228666
 31
0.0
  0
SPLINE
  5
471
100
AcDbEntity
  8
0
100
AcDbSpline
 62
7
  6
CONTINUOUS
 70
0
 71
3
 72
12
 73
8
 74
6
 42
0.0000001
 43
0.0000001
 44
0.0000000001
 12
-0.0357228633
 22
0.0
 32
0.0
 13
-0.0138916097
 23
0.0330533606
 33
0.0
 40
0.0
 40
0.0
 40
0.0
 40
0.0
 40
0.2239740571
 40
0.4445160395
 40
0.6586391456
 40
0.86275051
 40
1.0
 40
1.0
 40
1.0
 40
1.0
 10
6.2033989654
 20
3.9688242828
 30
0.0
 10
6.2007319672
 20
3.9688242828
 30
0.0
 10
6.1954213197
 20
3.9693780017
 30
0.0
 10
6.1879152225
 20
3.9718593366
 30
0.0
 10
6.1813809897
 20
3.9759074803
 30
0.0
 10
6.1768053233
 20
3.980802249
 30
0.0
 10
6.1748283114
 20
3.9843980008
 30
0.0
 10
6.1741927726
 20
3.9859101864
 30
0.0
 11
6.2033989654
 21
3.9688242828
 31
0.0
 11
6.1954424594
 21
3.9696668549
 31
0.0
 11
6.1879726659
 21
3.9721710974
 31
0.0
 11
6.1814969522
 21
3.9762421804
 31
0.0
 11
6.1765530506
 21
3.9816015619
 31
0.0
 11
6.1741927726
 21
3.9859101864
 31
0.0
  0
SPLINE
  5
472
100
AcDbEntity
  8
126-300_HEX_FEATURES
100
AcDbSpline
 62
7
  6
CONTINUOUS
 70
0
 71
3
 72
8
 73
4
 74
2
 42
0.0000001
 43
0.0000001
 44
0.0000000001
 12
0.0009251295
 22
0.0000414967
 32
0.0
 13
0.000925238
 23
0.0000390295
 33
0.0
 40
0.0
 40
0.0
 40
0.0
 40
0.0
 40
1.0
 40
1.0
 40
1.0
 40
1.0
 10
5.1063086213
 20
3.7920619326
 30
0.0
 10
5.1066169978
 20
3.7920757648
 30
0.0
 10
5.106925393
 20
3.7920891857
 30
0.0
 10
5.1072338056
 20
3.7921021956
 30
0.0
 11
5.1063086213
 21
3.7920619326
 31
0.0
 11
5.1072338056
 21
3.7921021956
 31
0.0
  0
SPLINE
  5
473
100
AcDbEntity
  8
126-300_HEX_FEATURES
100
AcDbSpline
 62
7
  6
CONTINUOUS
 70
0
 71
3
 72
14
 73
10
 74
8
 42
0.0000001
 43
0.0000001
 44
0.0000000001
 12
0.0296040321
 22
0.0012487936
 32
0.0
 13
0.0296047678
 23
-0.0012311914
 33
0.0
 40
0.0
 40
0.0
 40
0.0
 40
0.0
 40
0.091389364
 40
0.2315951995
 40
0.4052330971
 40
0.5914826282
 40
0.7659012467
 40
0.9078145124
 40
1.0
 40
1.0
 40
1.0
 40
1.0
 10
5.1072338056
 20
3.7921021956
 30
0.0
 10
5.1081356369
 20
3.7921402377
 30
0.0
 10
5.1104214005
 20
3.7922277357
 30
0.0
 10
5.1144222784
 20
3.7923414167
 30
0.0
 10
5.1193612038
 20
3.7924160392
 30
0.0
 10
5.1246386431
 20
3.7924158028
 30
0.0
 10
5.1296021372
 20
3.792340822
 30
0.0
 10
5.1336354615
 20
3.7922270711
 30
0.0
 10
5.135945973
 20
3.7921396865
 30
0.0
 10
5.136855683
 20
3.7921018538
 30
0.0
 11
5.1072338056
 21
3.7921021956
 31
0.0
 11
5.1099397208
 21
3.7922057846
 31
0.0
 11
5.1140923894
 21
3.7923238129
 31
0.0
 11
5.1192367497
 21
3.7924016194
 31
0.0
 11
5.1247553853
 21
3.792401491
 31
0.0
 11
5.1299228791
 21
3.7923235418
 31
0.0
 11
5.134126147
 21
3.7922050661
 31
0.0
 11
5.136855683
 21
3.7921018538
 31
0.0
  0
SPLINE
  5
474
100
AcDbEntity
  8
126-300_HEX_FEATURES
100
AcDbSpline
 62
7
  6
CONTINUOUS
 70
0
 71
3
 72
8
 73
4
 74
2
 42
0.0000001
 43
0.0000001
 44
0.0000000001
 12
0.0009312145
 22
-0.000038727
 32
0.0
 13
0.0009311111
 23
-0.0000411146
 33
0.0
 40
0.0
 40
0.0
 40
0.0
 40
0.0
 40
1.0
 40
1.0
 40
1.0
 40
1.0
 10
5.136855683
 20
3.7921018538
 30
0.0
 10
5.1371660878
 20
3.7920889448
 30
0.0
 10
5.1374764759
 20
3.7920756375
 30
0.0
 10
5.1377868463
 20
3.7920619326
 30
0.0
 11
5.136855683
 21
3.7921018538
 31
0.0
 11
5.1377868463
 21
3.7920619326
 31
0.0
  0
SPLINE
  5
475
100
AcDbEntity
  8
0
100
AcDbSpline
 62
7
  6
CONTINUOUS
 70
0
 71
3
 72
14
 73
10
 74
8
 42
0.0000001
 43
0.0000001
 44
0.0000000001
 12
-0.1046826132
 22
0.2029792199
 32
0.0
 13
0.1046826132
 23
0.2029792199
 33
0.0
 40
0.0
 40
0.0
 40
0.0
 40
0.0
 40
0.1530438599
 40
0.2956043717
 40
0.4324922324
 40
0.5675957362
 40
0.7044780411
 40
0.8469906498
 40
1.0
 40
1.0
 40
1.0
 40
1.0
 10
4.3334626313
 20
3.6469594601
 30
0.0
 10
4.3281222875
 20
3.6573143679
 30
0.0
 10
4.3187172941
 20
3.6778140962
 30
0.0
 10
4.308675676
 20
3.7092696205
 30
0.0
 10
4.3035319659
 20
3.7405372893
 30
0.0
 10
4.303533659
 20
3.7718063135
 30
0.0
 10
4.3086797395
 20
3.8030694185
 30
0.0
 10
4.3187209219
 20
3.8345179335
 30
0.0
 10
4.3281234917
 20
3.8550118322
 30
0.0
 10
4.3334626313
 20
3.8653644051
 30
0.0
 11
4.3334626313
 21
3.6469594601
 31
0.0
 11
4.3190650325
 21
3.678809101
 31
0.0
 11
4.3093301603
 21
3.7098781522
 31
0.0
 11
4.3043649265
 21
3.740744266
 31
0.0
 11
4.3043665573
 21
3.7715996741
 31
0.0
 11
4.3093345462
 21
3.8024640594
 31
0.0
 11
4.3190678686
 21
3.8335221315
 31
0.0
 11
4.3334626313
 21
3.8653644051
 31
0.0
  0
SPLINE
  5
476
100
AcDbEntity
  8
0
100
AcDbSpline
 62
7
  6
CONTINUOUS
 70
0
 71
3
 72
15
 73
11
 74
9
 42
0.0000001
 43
0.0000001
 44
0.0000000001
 12
0.1643031241
 22
0.1839340856
 32
0.0
 13
-0.1643031241
 23
0.1839340856
 33
0.0
 40
0.0
 40
0.0
 40
0.0
 40
0.0
 40
0.1498215377
 40
0.2783315905
 40
0.3927788038
 40
0.5000592815
 40
0.6073304266
 40
0.7217569014
 40
0.8502022558
 40
1.0
 40
1.0
 40
1.0
 40
1.0
 10
4.7068989654
 20
3.6469594601
 30
0.0
 10
4.7151043476
 20
3.6561452226
 30
0.0
 10
4.7295361271
 20
3.6739881812
 30
0.0
 10
4.7461338559
 20
3.7018465953
 30
0.0
 10
4.7561189628
 20
3.7290736693
 30
0.0
 10
4.7594799859
 20
3.756176025
 30
0.0
 10
4.7561122122
 20
3.7832756888
 30
0.0
 10
4.746125095
 20
3.8104934654
 30
0.0
 10
4.7295303654
 20
3.8383429258
 30
0.0
 10
4.7151030445
 20
3.8561801014
 30
0.0
 10
4.7068989654
 20
3.8653644051
 30
0.0
 11
4.7068989654
 21
3.6469594601
 31
0.0
 11
4.7298674392
 21
3.6759043731
 31
0.0
 11
4.745793624
 21
3.7033070881
 31
0.0
 11
4.7552426214
 21
3.7299048695
 31
0.0
 11
4.7583829304
 21
3.7561766334
 31
0.0
 11
4.7552363422
 21
3.7824453279
 31
0.0
 11
4.74578431
 21
3.8090366027
 31
0.0
 11
4.7298641025
 21
3.8364243357
 31
0.0
 11
4.7068989654
 21
3.8653644051
 31
0.0
  0
SPLINE
  5
477
100
AcDbEntity
  8
0
100
AcDbSpline
 62
7
  6
CONTINUOUS
 70
0
 71
3
 72
14
 73
10
 74
8
 42
0.0000001
 43
0.0000001
 44
0.0000000001
 12
-0.1103507163
 22
0.4279393037
 32
0.0
 13
0.1103507163
 23
0.4279393037
 33
0.0
 40
0.0
 40
0.0
 40
0.0
 40
0.0
 40
0.1477720816
 40
0.2900907235
 40
0.430227046
 40
0.569863817
 40
0.7099928421
 40
0.8522618536
 40
1.0
 40
1.0
 40
1.0
 40
1.0
 10
4.3334626313
 20
3.9166569876
 30
0.0
 10
4.3280270462
 20
3.9377361482
 30
0.0
 10
4.3185116941
 20
3.9794301871
 30
0.0
 10
4.3085846108
 20
4.0420788261
 30
0.0
 10
4.3035300679
 20
4.104118261
 30
0.0
 10
4.3035317266
 20
4.166044722
 30
0.0
 10
4.3085886445
 20
4.2280755284
 30
0.0
 10
4.31851542
 20
4.2907106038
 30
0.0
 10
4.3280282945
 20
4.3323925578
 30
0.0
 10
4.3334626313
 20
4.3534668776
 30
0.0
 11
4.3334626313
 21
3.9166569876
 31
0.0
 11
4.3190650325
 21
3.9803562694
 31
0.0
 11
4.3093301603
 21
4.0424943718
 31
0.0
 11
4.3043649265
 21
4.1042265995
 31
0.0
 11
4.3043665573
 21
4.1659374157
 31
0.0
 11
4.3093345462
 21
4.2276661863
 31
0.0
 11
4.3190678686
 21
4.2897823303
 31
0.0
 11
4.3334626313
 21
4.3534668776
 31
0.0
  0
SPLINE
  5
478
100
AcDbEntity
  8
0
100
AcDbSpline
 62
7
  6
CONTINUOUS
 70
0
 71
3
 72
15
 73
11
 74
9
 42
0.0000001
 43
0.0000001
 44
0.0000000001
 12
0.1843202379
 22
0.4126856942
 32
0.0
 13
-0.1843202379
 23
0.4126856942
 33
0.0
 40
0.0
 40
0.0
 40
0.0
 40
0.0
 40
0.1377942686
 40
0.2640673782
 40
0.3836049145
 40
0.5000649493
 40
0.6165122554
 40
0.736022619
 40
0.8622283762
 40
1.0
 40
1.0
 40
1.0
 40
1.0
 10
4.7068989654
 20
3.9166569876
 30
0.0
 10
4.7153650562
 20
3.9356122287
 30
0.0
 10
4.7301965989
 20
3.9725931676
 30
0.0
 10
4.7465337142
 20
4.0281294487
 30
0.0
 10
4.7562268836
 20
4.081960188
 30
0.0
 10
4.7594485401
 20
4.1350894909
 30
0.0
 10
4.75622035
 20
4.1882142415
 30
0.0
 10
4.7465248284
 20
4.2420280241
 30
0.0
 10
4.730190379
 20
4.2975465193
 30
0.0
 10
4.7153636649
 20
4.3345147515
 30
0.0
 10
4.7068989654
 20
4.3534668776
 30
0.0
 11
4.7068989654
 21
3.9166569876
 31
0.0
 11
4.7298674392
 21
3.9745468136
 31
0.0
 11
4.745793624
 21
4.0293522437
 31
0.0
 11
4.7552426214
 21
4.0825478063
 31
0.0
 11
4.7583829304
 21
4.1350913343
 31
0.0
 11
4.7552363422
 21
4.1876287232
 31
0.0
 11
4.74578431
 21
4.2408112729
 31
0.0
 11
4.7298641025
 21
4.2955867389
 31
0.0
 11
4.7068989654
 21
4.3534668776
 31
0.0
  0
SPLINE
  5
479
100
AcDbEntity
  8
0
100
AcDbSpline
 62
7
  6
CONTINUOUS
 70
0
 71
3
 72
14
 73
10
 74
8
 42
0.0000001
 43
0.0000001
 44
0.0000000001
 12
-0.1046826132
 22
0.2029792199
 32
0.0
 13
0.1046826132
 23
0.2029792199
 33
0.0
 40
0.0
 40
0.0
 40
0.0
 40
0.0
 40
0.1530438599
 40
0.2956043717
 40
0.4324922324
 40
0.5675957362
 40
0.7044780411
 40
0.8469906498
 40
1.0
 40
1.0
 40
1.0
 40
1.0
 10
4.3334626313
 20
4.4047594601
 30
0.0
 10
4.3281222875
 20
4.4151143679
 30
0.0
 10
4.3187172941
 20
4.4356140962
 30
0.0
 10
4.308675676
 20
4.4670696205
 30
0.0
 10
4.3035319659
 20
4.4983372893
 30
0.0
 10
4.303533659
 20
4.5296063135
 30
0.0
 10
4.3086797395
 20
4.5608694185
 30
0.0
 10
4.3187209219
 20
4.5923179335
 30
0.0
 10
4.3281234917
 20
4.6128118322
 30
0.0
 10
4.3334626313
 20
4.6231644051
 30
0.0
 11
4.3334626313
 21
4.4047594601
 31
0.0
 11
4.3190650325
 21
4.436609101
 31
0.0
 11
4.3093301603
 21
4.4676781522
 31
0.0
 11
4.3043649265
 21
4.498544266
 31
0.0
 11
4.3043665573
 21
4.5293996741
 31
0.0
 11
4.3093345462
 21
4.5602640594
 31
0.0
 11
4.3190678686
 21
4.5913221315
 31
0.0
 11
4.3334626313
 21
4.6231644051
 31
0.0
  0
SPLINE
  5
47A
100
AcDbEntity
  8
0
100
AcDbSpline
 62
7
  6
CONTINUOUS
 70
0
 71
3
 72
15
 73
11
 74
9
 42
0.0000001
 43
0.0000001
 44
0.0000000001
 12
0.1643031241
 22
0.1839340856
 32
0.0
 13
-0.1643031241
 23
0.1839340856
 33
0.0
 40
0.0
 40
0.0
 40
0.0
 40
0.0
 40
0.1498215377
 40
0.2783315905
 40
0.3927788038
 40
0.5000592815
 40
0.6073304266
 40
0.7217569014
 40
0.8502022558
 40
1.0
 40
1.0
 40
1.0
 40
1.0
 10
4.7068989654
 20
4.4047594601
 30
0.0
 10
4.7151043476
 20
4.4139452226
 30
0.0
 10
4.7295361271
 20
4.4317881812
 30
0.0
 10
4.7461338559
 20
4.4596465953
 30
0.0
 10
4.7561189628
 20
4.4868736693
 30
0.0
 10
4.7594799859
 20
4.513976025
 30
0.0
 10
4.7561122122
 20
4.5410756888
 30
0.0
 10
4.746125095
 20
4.5682934654
 30
0.0
 10
4.7295303654
 20
4.5961429258
 30
0.0
 10
4.7151030445
 20
4.6139801014
 30
0.0
 10
4.7068989654
 20
4.6231644051
 30
0.0
 11
4.7068989654
 21
4.4047594601
 31
0.0
 11
4.7298674392
 21
4.4337043731
 31
0.0
 11
4.745793624
 21
4.4611070881
 31
0.0
 11
4.7552426214
 21
4.4877048695
 31
0.0
 11
4.7583829304
 21
4.5139766334
 31
0.0
 11
4.7552363422
 21
4.5402453279
 31
0.0
 11
4.74578431
 21
4.5668366027
 31
0.0
 11
4.7298641025
 21
4.5942243357
 31
0.0
 11
4.7068989654
 21
4.6231644051
 31
0.0
  0
ENDSEC
  0
SECTION
  2
OBJECTS
  0
DICTIONARY
  5
C
100
AcDbDictionary
280
0
281
1
  3
ACAD_GROUP
350
D
  3
ACAD_MLINESTYLE
350
17
  3
ACAD_LAYOUT
350
1A
  3
ACAD_PLOTSETTINGS
350
19
  3
ACAD_PLOTSTYLENAME
350
E
  0
DICTIONARY
  5
D
102
{ACAD_REACTORS
330
C
102
}
100
AcDbDictionary
280
0
281
1
  0
ACDBDICTIONARYWDFLT
  5
E
102
{ACAD_REACTORS
330
C
102
}
100
AcDbDictionary
281
1
  3
Normal
350
F
100
AcDbDictionaryWithDefault
340
F
  0
DICTIONARY
  5
17
102
{ACAD_REACTORS
330
C
102
}
100
AcDbDictionary
280
0
281
1
  3
Standard
350
18
  0
DICTIONARY
  5
19
102
{ACAD_REACTORS
330
C
102
}
100
AcDbDictionary
281
1
  0
DICTIONARY
  5
1A
102
{ACAD_REACTORS
330
C
102
}
100
AcDbDictionary
281
1
  3
Layout1
350
1E
  3
Model
350
22
  0
ACDBPLACEHOLDER
  5
F
102
{ACAD_REACTORS
330
E
102
}
  0
MLINESTYLE
  5
18
102
{ACAD_REACTORS
330
17
102
}
100
AcDbMlineStyle
  2
STANDARD
 70
0
  3

 62
256
 51
90.0
 52
90.0
 71
2
 49
0.5
 62
256
  6
BYLAYER
 49
-0.5
 62
256
  6
BYLAYER
  0
LAYOUT
  5
1E
102
{ACAD_REACTORS
330
1A
102
}
100
AcDbPlotSettings
  1

  2

  4

  6

 40
0.0
 41
0.0
 42
0.0
 43
0.0
 44
0.0
 45
0.0
 46
0.0
 47
0.0
 48
0.0
 49
0.0
140
0.0
141
0.0
142
1.0
143
1.0
 70
0
 72
0
 73
0
 74
0
  7

 75
0
147
1.0
148
0.0
149
0.0
100
AcDbLayout
  1
Layout1
 70
0
 71
0
 10
0.0
 20
0.0
 11
0.0
 21
0.0
 12
0.0
 22
0.0
 32
0.0
 14
0.0
 24
0.0
 34
0.0
 15
0.0
 25
0.0
 35
0.0
146
0.0
 13
0.0
 23
0.0
 33
0.0
 16
0.0
 26
0.0
 36
0.0
 17
0.0
 27
0.0
 37
0.0
 76
0
330
1B
331
0
345
0
346
0
  0
LAYOUT
  5
22
102
{ACAD_REACTORS
330
1A
102
}
100
AcDbPlotSettings
  1

  2

  4

  6

 40
0.0
 41
0.0
 42
0.0
 43
0.0
 44
0.0
 45
0.0
 46
0.0
 47
0.0
 48
0.0
 49
0.0
140
0.0
141
0.0
142
1.0
143
1.0
 70
0
 72
0
 73
0
 74
0
  7

 75
0
147
1.0
148
0.0
149
0.0
100
AcDbLayout
  1
Model
 70
0
 71
0
 10
0.0
 20
0.0
 11
0.0
 21
0.0
 12
0.0
 22
0.0
 32
0.0
 14
0.0
 24
0.0
 34
0.0
 15
0.0
 25
0.0
 35
0.0
146
0.0
 13
0.0
 23
0.0
 33
0.0
 16
0.0
 26
0.0
 36
0.0
 17
0.0
 27
0.0
 37
0.0
 76
0
330
1F
331
0
345
0
346
0
  0
ENDSEC
  0
EOF
