999
DXF file: CKIE-VCN.dxf
999
Pro/ENGINEER 2006240 by Parametric Technology Corporation
  0
SECTION
  2
HEADER
  9
$ACADVER
  1
AC1015
  9
$DWGCODEPAGE
  3
ANSI_1252
  9
$EXTMAX
 10
11.0
 20
8.5
 30
0.0
  9
$EXTMIN
 10
0.0
 20
-0.0
 30
0.0
  9
$LIMMIN
 10
0.0
 20
-0.0
  9
$LIMMAX
 10
11.0
 20
8.5
  9
$VIEWCTR
 10
5.5
 20
4.25
  9
$VIEWSIZE
 40
8.5
  9
$CLAYER
  8
0
  9
$LTSCALE
 40
0.605
  9
$CELTYPE
  6
BYLAYER
  9
$DIMSCALE
 40
1.0
  9
$DIMASZ
 40
0.1875
  9
$DIMEXO
 40
0.06875
  9
$DIMDLI
 40
0.418
  9
$DIMEXE
 40
0.198
  9
$DIMCEN
 40
0.099
  9
$DIMLFAC
 40
1.0
  9
$DIMBLK
  1
_CLOSED
  9
$DIMTXT
 40
0.15625
  9
$DIMTOL
 70
0
  9
$DIMLIM
 70
0
  9
$DIMTFAC
 40
1.0
  9
$PDMODE
 70
3
  9
$PDSIZE
 40
0.3125
  9
$HANDSEED
  5
423
  9
$MEASUREMENT
 70
0
  9
$INSUNITS
 70
1
  0
ENDSEC
  0
SECTION
  2
CLASSES
  0
CLASS
  1
ACDBDICTIONARYWDFLT
  2
AcDbDictionaryWithDefault
  3
AutoCAD 2000
 90
0
280
0
281
0
  0
CLASS
  1
ACDBPLACEHOLDER
  2
AcDbPlaceHolder
  3
AutoCAD 2000
 90
0
280
0
281
0
  0
CLASS
  1
LAYOUT
  2
AcDbLayout
  3
AutoCAD 2000
 90
0
280
0
281
0
  0
ENDSEC
  0
SECTION
  2
TABLES
  0
TABLE
  2
VPORT
  5
8
100
AcDbSymbolTable
 70
2
  0
VPORT
  5
1F4
100
AcDbSymbolTableRecord
100
AcDbViewportTableRecord
  2
*ACTIVE
 70
0
 10
0.0
 20
0.0
 11
1.0
 21
1.0
 12
5.5
 22
4.25
 13
0.0
 23
0.0
 14
1.0
 24
1.0
 15
0.0
 25
0.0
 16
0.0
 26
0.0
 36
1.0
 17
0.0
 27
0.0
 37
0.0
 40
8.5
 41
1.2941176471
 42
50.0
 43
0.0
 44
0.0
 50
0.0
 51
0.0
 71
0
 72
100
 73
1
 74
1
 75
0
 76
0
 77
0
 78
0
  0
ENDTAB
  0
TABLE
  2
LTYPE
  5
5
100
AcDbSymbolTable
 70
6
  0
LTYPE
  5
14
100
AcDbSymbolTableRecord
100
AcDbLinetypeTableRecord
  2
BYBLOCK
 70
0
  3

 72
65
 73
0
 40
0.0
  0
LTYPE
  5
15
100
AcDbSymbolTableRecord
100
AcDbLinetypeTableRecord
  2
BYLAYER
 70
0
  3

 72
65
 73
0
 40
0.0
  0
LTYPE
  5
16
100
AcDbSymbolTableRecord
100
AcDbLinetypeTableRecord
  2
CONTINUOUS
 70
64
  3
Solid line
 72
65
 73
0
 40
0.0
  0
LTYPE
  5
1F5
100
AcDbSymbolTableRecord
100
AcDbLinetypeTableRecord
  2
CENTER
 70
64
  3
____ _ ____ _ ____ _ ____ _ ____ _ ____ _ ____
 72
65
 73
4
 40
0.6
 49
0.375
 74
0
 49
-0.075
 74
0
 49
0.075
 74
0
 49
-0.075
 74
0
  0
LTYPE
  5
1F6
100
AcDbSymbolTableRecord
100
AcDbLinetypeTableRecord
  2
HIDDEN
 70
64
  3
- - - - - - - - - - - - - - - - - - - -
 72
65
 73
2
 40
0.2
 49
0.1
 74
0
 49
-0.1
 74
0
  0
LTYPE
  5
1F7
100
AcDbSymbolTableRecord
100
AcDbLinetypeTableRecord
  2
PHANTOM
 70
64
  3
_____ _ _ _____ _ _ _____ _ _ _____
 72
65
 73
6
 40
0.8
 49
0.45
 74
0
 49
-0.05
 74
0
 49
0.1
 74
0
 49
-0.05
 74
0
 49
0.1
 74
0
 49
-0.05
 74
0
  0
LTYPE
  5
1F8
100
AcDbSymbolTableRecord
100
AcDbLinetypeTableRecord
  2
DOT
 70
64
  3
. . . . . . . . . . . . . . . . . . . .
 72
65
 73
2
 40
0.2
 49
0.1
 74
0
 49
-0.1
 74
0
  0
LTYPE
  5
1F9
100
AcDbSymbolTableRecord
100
AcDbLinetypeTableRecord
  2
DASHED
 70
64
  3
- - - - - - - - - - - - - - - - - - - -
 72
65
 73
2
 40
0.2
 49
0.1
 74
0
 49
-0.1
 74
0
  0
ENDTAB
  0
TABLE
  2
LAYER
  5
2
100
AcDbSymbolTable
 70
36
  0
LAYER
  5
10
100
AcDbSymbolTableRecord
100
AcDbLayerTableRecord
  2
0
 70
0
 62
7
  6
CONTINUOUS
370
-3
390
F
  0
LAYER
  5
1FA
100
AcDbSymbolTableRecord
100
AcDbLayerTableRecord
  2
DEFAULT_1
 70
0
 62
7
  6
CENTER
370
-3
390
F
  0
LAYER
  5
1FB
100
AcDbSymbolTableRecord
100
AcDbLayerTableRecord
  2
DEFAULT_2
 70
0
 62
8
  6
HIDDEN
370
-3
390
F
  0
LAYER
  5
1FC
100
AcDbSymbolTableRecord
100
AcDbLayerTableRecord
  2
DEFAULT_3
 70
0
 62
7
  6
PHANTOM
370
-3
390
F
  0
LAYER
  5
1FD
100
AcDbSymbolTableRecord
100
AcDbLayerTableRecord
  2
_BLACK_HOLE
 70
0
 62
7
  6
CONTINUOUS
370
-3
390
F
  0
LAYER
  5
1FE
100
AcDbSymbolTableRecord
100
AcDbLayerTableRecord
  2
01_ALL_DTM_PLN
 70
0
 62
7
  6
CONTINUOUS
370
-3
390
F
  0
LAYER
  5
1FF
100
AcDbSymbolTableRecord
100
AcDbLayerTableRecord
  2
01__ASM_ALL_DTM_PLN
 70
0
 62
7
  6
CONTINUOUS
370
-3
390
F
  0
LAYER
  5
200
100
AcDbSymbolTableRecord
100
AcDbLayerTableRecord
  2
01__ASM_DEF_DTM_PLN
 70
0
 62
7
  6
CONTINUOUS
370
-3
390
F
  0
LAYER
  5
201
100
AcDbSymbolTableRecord
100
AcDbLayerTableRecord
  2
01___PRT_ALL_DTM_PLN
 70
0
 62
7
  6
CONTINUOUS
370
-3
390
F
  0
LAYER
  5
202
100
AcDbSymbolTableRecord
100
AcDbLayerTableRecord
  2
01___PRT_DEF_DTM_PLN
 70
0
 62
7
  6
CONTINUOUS
370
-3
390
F
  0
LAYER
  5
203
100
AcDbSymbolTableRecord
100
AcDbLayerTableRecord
  2
02_ALL_AXES
 70
0
 62
7
  6
CONTINUOUS
370
-3
390
F
  0
LAYER
  5
204
100
AcDbSymbolTableRecord
100
AcDbLayerTableRecord
  2
02__ASM_ALL_AXES
 70
0
 62
7
  6
CONTINUOUS
370
-3
390
F
  0
LAYER
  5
205
100
AcDbSymbolTableRecord
100
AcDbLayerTableRecord
  2
02___PRT_ALL_AXES
 70
0
 62
7
  6
CONTINUOUS
370
-3
390
F
  0
LAYER
  5
206
100
AcDbSymbolTableRecord
100
AcDbLayerTableRecord
  2
03_ALL_CURVES
 70
0
 62
7
  6
CONTINUOUS
370
-3
390
F
  0
LAYER
  5
207
100
AcDbSymbolTableRecord
100
AcDbLayerTableRecord
  2
03__ASM_ALL_CURVES
 70
0
 62
7
  6
CONTINUOUS
370
-3
390
F
  0
LAYER
  5
208
100
AcDbSymbolTableRecord
100
AcDbLayerTableRecord
  2
03___PRT_ALL_CURVES
 70
0
 62
7
  6
CONTINUOUS
370
-3
390
F
  0
LAYER
  5
209
100
AcDbSymbolTableRecord
100
AcDbLayerTableRecord
  2
04_ALL_DTM_PNT
 70
0
 62
7
  6
CONTINUOUS
370
-3
390
F
  0
LAYER
  5
20A
100
AcDbSymbolTableRecord
100
AcDbLayerTableRecord
  2
04__ASM_ALL_DTM_PNT
 70
0
 62
7
  6
CONTINUOUS
370
-3
390
F
  0
LAYER
  5
20B
100
AcDbSymbolTableRecord
100
AcDbLayerTableRecord
  2
04___PRT_ALL_DTM_PNT
 70
0
 62
7
  6
CONTINUOUS
370
-3
390
F
  0
LAYER
  5
20C
100
AcDbSymbolTableRecord
100
AcDbLayerTableRecord
  2
05_ALL_DTM_CSYS
 70
0
 62
7
  6
CONTINUOUS
370
-3
390
F
  0
LAYER
  5
20D
100
AcDbSymbolTableRecord
100
AcDbLayerTableRecord
  2
05__ASM_ALL_DTM_CSYS
 70
0
 62
7
  6
CONTINUOUS
370
-3
390
F
  0
LAYER
  5
20E
100
AcDbSymbolTableRecord
100
AcDbLayerTableRecord
  2
05__ASM_DEF_DTM_CSYS
 70
0
 62
7
  6
CONTINUOUS
370
-3
390
F
  0
LAYER
  5
20F
100
AcDbSymbolTableRecord
100
AcDbLayerTableRecord
  2
05___PRT_ALL_DTM_CSYS
 70
0
 62
7
  6
CONTINUOUS
370
-3
390
F
  0
LAYER
  5
210
100
AcDbSymbolTableRecord
100
AcDbLayerTableRecord
  2
05___PRT_DEF_DTM_CSYS
 70
0
 62
7
  6
CONTINUOUS
370
-3
390
F
  0
LAYER
  5
211
100
AcDbSymbolTableRecord
100
AcDbLayerTableRecord
  2
06_ALL_SURFS
 70
0
 62
7
  6
CONTINUOUS
370
-3
390
F
  0
LAYER
  5
212
100
AcDbSymbolTableRecord
100
AcDbLayerTableRecord
  2
06__ASM_ALL_SURFS
 70
0
 62
7
  6
CONTINUOUS
370
-3
390
F
  0
LAYER
  5
213
100
AcDbSymbolTableRecord
100
AcDbLayerTableRecord
  2
06___PRT_ALL_SURFS
 70
0
 62
7
  6
CONTINUOUS
370
-3
390
F
  0
LAYER
  5
214
100
AcDbSymbolTableRecord
100
AcDbLayerTableRecord
  2
07__ASM_ALL_SKELETONS
 70
0
 62
7
  6
CONTINUOUS
370
-3
390
F
  0
LAYER
  5
215
100
AcDbSymbolTableRecord
100
AcDbLayerTableRecord
  2
129-300_FEATURES
 70
0
 62
7
  6
CONTINUOUS
370
-3
390
F
  0
LAYER
  5
216
100
AcDbSymbolTableRecord
100
AcDbLayerTableRecord
  2
129-300_REF_GEOMETRY
 70
0
 62
7
  6
CONTINUOUS
370
-3
390
F
  0
LAYER
  5
217
100
AcDbSymbolTableRecord
100
AcDbLayerTableRecord
  2
129-301_FEATURES
 70
0
 62
7
  6
CONTINUOUS
370
-3
390
F
  0
LAYER
  5
218
100
AcDbSymbolTableRecord
100
AcDbLayerTableRecord
  2
129-301_REF_GEOMETRY
 70
0
 62
7
  6
CONTINUOUS
370
-3
390
F
  0
LAYER
  5
219
100
AcDbSymbolTableRecord
100
AcDbLayerTableRecord
  2
129-302_FEATURES
 70
0
 62
7
  6
CONTINUOUS
370
-3
390
F
  0
LAYER
  5
21A
100
AcDbSymbolTableRecord
100
AcDbLayerTableRecord
  2
129-302_REF_GEOMETRY
 70
0
 62
7
  6
CONTINUOUS
370
-3
390
F
  0
LAYER
  5
21B
100
AcDbSymbolTableRecord
100
AcDbLayerTableRecord
  2
COPY_GEO_FET
 70
0
 62
7
  6
CONTINUOUS
370
-3
390
F
  0
LAYER
  5
21C
100
AcDbSymbolTableRecord
100
AcDbLayerTableRecord
  2
COSMETIC
 70
0
 62
7
  6
CONTINUOUS
370
-3
390
F
  0
LAYER
  5
21D
100
AcDbSymbolTableRecord
100
AcDbLayerTableRecord
  2
CURVES
 70
0
 62
7
  6
CONTINUOUS
370
-3
390
F
  0
LAYER
  5
21E
100
AcDbSymbolTableRecord
100
AcDbLayerTableRecord
  2
CUT_REF_SURF
 70
0
 62
7
  6
CONTINUOUS
370
-3
390
F
  0
LAYER
  5
21F
100
AcDbSymbolTableRecord
100
AcDbLayerTableRecord
  2
DATUM
 70
0
 62
7
  6
CONTINUOUS
370
-3
390
F
  0
LAYER
  5
220
100
AcDbSymbolTableRecord
100
AcDbLayerTableRecord
  2
DATUMCURVES
 70
0
 62
7
  6
CONTINUOUS
370
-3
390
F
  0
LAYER
  5
221
100
AcDbSymbolTableRecord
100
AcDbLayerTableRecord
  2
DIMENSIONS
 70
0
 62
7
  6
CONTINUOUS
370
-3
390
F
  0
LAYER
  5
222
100
AcDbSymbolTableRecord
100
AcDbLayerTableRecord
  2
DRAWINGNOTES
 70
0
 62
7
  6
CONTINUOUS
370
-3
390
F
  0
LAYER
  5
223
100
AcDbSymbolTableRecord
100
AcDbLayerTableRecord
  2
DTM
 70
0
 62
7
  6
CONTINUOUS
370
-3
390
F
  0
LAYER
  5
224
100
AcDbSymbolTableRecord
100
AcDbLayerTableRecord
  2
DTM230
 70
0
 62
7
  6
CONTINUOUS
370
-3
390
F
  0
LAYER
  5
225
100
AcDbSymbolTableRecord
100
AcDbLayerTableRecord
  2
DTM_500001
 70
0
 62
7
  6
CONTINUOUS
370
-3
390
F
  0
LAYER
  5
226
100
AcDbSymbolTableRecord
100
AcDbLayerTableRecord
  2
DTM_500002
 70
0
 62
7
  6
CONTINUOUS
370
-3
390
F
  0
LAYER
  5
227
100
AcDbSymbolTableRecord
100
AcDbLayerTableRecord
  2
DTM_515002
 70
0
 62
7
  6
CONTINUOUS
370
-3
390
F
  0
LAYER
  5
228
100
AcDbSymbolTableRecord
100
AcDbLayerTableRecord
  2
DTM_530-102
 70
0
 62
7
  6
CONTINUOUS
370
-3
390
F
  0
LAYER
  5
229
100
AcDbSymbolTableRecord
100
AcDbLayerTableRecord
  2
DTM_SPRING_LH
 70
0
 62
7
  6
CONTINUOUS
370
-3
390
F
  0
LAYER
  5
22A
100
AcDbSymbolTableRecord
100
AcDbLayerTableRecord
  2
DTM_SPRING_RH
 70
0
 62
7
  6
CONTINUOUS
370
-3
390
F
  0
LAYER
  5
22B
100
AcDbSymbolTableRecord
100
AcDbLayerTableRecord
  2
DTM_SP_LH_CONSTR
 70
0
 62
7
  6
CONTINUOUS
370
-3
390
F
  0
LAYER
  5
22C
100
AcDbSymbolTableRecord
100
AcDbLayerTableRecord
  2
DTM_SP_RH_CONSTR
 70
0
 62
7
  6
CONTINUOUS
370
-3
390
F
  0
LAYER
  5
22D
100
AcDbSymbolTableRecord
100
AcDbLayerTableRecord
  2
GEOMETRICTOLERANCES
 70
0
 62
7
  6
CONTINUOUS
370
-3
390
F
  0
LAYER
  5
22E
100
AcDbSymbolTableRecord
100
AcDbLayerTableRecord
  2
PARAMETERDIMENSIONS
 70
0
 62
7
  6
CONTINUOUS
370
-3
390
F
  0
LAYER
  5
22F
100
AcDbSymbolTableRecord
100
AcDbLayerTableRecord
  2
PART
 70
0
 62
7
  6
CONTINUOUS
370
-3
390
F
  0
LAYER
  5
230
100
AcDbSymbolTableRecord
100
AcDbLayerTableRecord
  2
PLANE
 70
0
 62
7
  6
CONTINUOUS
370
-3
390
F
  0
LAYER
  5
231
100
AcDbSymbolTableRecord
100
AcDbLayerTableRecord
  2
S-164_NPTF_PORT
 70
0
 62
7
  6
CONTINUOUS
370
-3
390
F
  0
LAYER
  5
232
100
AcDbSymbolTableRecord
100
AcDbLayerTableRecord
  2
SUN_STD_SAE-4_PORT
 70
0
 62
7
  6
CONTINUOUS
370
-3
390
F
  0
LAYER
  5
233
100
AcDbSymbolTableRecord
100
AcDbLayerTableRecord
  2
T-8A_CAVITY
 70
0
 62
7
  6
CONTINUOUS
370
-3
390
F
  0
LAYER
  5
234
100
AcDbSymbolTableRecord
100
AcDbLayerTableRecord
  2
TEXT
 70
0
 62
7
  6
CONTINUOUS
370
-3
390
F
  0
LAYER
  5
235
100
AcDbSymbolTableRecord
100
AcDbLayerTableRecord
  2
THREAD
 70
0
 62
7
  6
CONTINUOUS
370
-3
390
F
  0
LAYER
  5
236
100
AcDbSymbolTableRecord
100
AcDbLayerTableRecord
  2
XSEC_DATUMS
 70
0
 62
7
  6
CONTINUOUS
370
-3
390
F
  0
ENDTAB
  0
TABLE
  2
STYLE
  5
3
100
AcDbSymbolTable
 70
1
  0
STYLE
  5
11
100
AcDbSymbolTableRecord
100
AcDbTextStyleTableRecord
  2
STANDARD
 70
0
 40
0.0
 41
0.8
 50
0.0
 71
0
 42
0.2
  3
txt
  4

  0
ENDTAB
  0
TABLE
  2
VIEW
  5
6
100
AcDbSymbolTable
 70
0
  0
ENDTAB
  0
TABLE
  2
UCS
  5
7
100
AcDbSymbolTable
 70
0
  0
ENDTAB
  0
TABLE
  2
APPID
  5
9
100
AcDbSymbolTable
 70
1
  0
APPID
  5
237
100
AcDbSymbolTableRecord
100
AcDbRegAppTableRecord
  2
ACAD
 70
0
  0
ENDTAB
  0
TABLE
  2
BLOCK_RECORD
  5
1
100
AcDbSymbolTable
 70
0
  0
BLOCK_RECORD
  5
1F
100
AcDbSymbolTableRecord
100
AcDbBlockTableRecord
  2
*MODEL_SPACE
  0
BLOCK_RECORD
  5
1B
100
AcDbSymbolTableRecord
100
AcDbBlockTableRecord
  2
*PAPER_SPACE
  0
ENDTAB
  0
TABLE
  2
DIMSTYLE
  5
A
100
AcDbSymbolTable
 70
1
100
AcDbDimStyleTable
 71
0
  0
DIMSTYLE
105
238
100
AcDbSymbolTableRecord
100
AcDbDimStyleTableRecord
  2
STANDARD
 70
0
  3

  4

 40
1.0
 41
0.1875
 42
0.0625
 43
0.38
 44
0.18
 45
0.0
 46
0.0
 47
0.01
 48
0.01
140
0.15625
141
0.09
142
0.0
143
25.4
144
1.0
145
0.0
146
1.0
147
0.09
 71
0.0
 72
0.0
 73
1
 74
1
 75
0
 76
0
 77
0
 78
4
170
0
171
2
172
0
173
0
174
0
175
0
176
0
177
0
178
0
270
2
271
2
272
2
273
2
274
2
275
0
280
0
281
0
282
0
283
1
284
4
285
0
286
0
287
3
288
0
340
11
  0
ENDTAB
  0
ENDSEC
  0
SECTION
  2
BLOCKS
  0
BLOCK
  5
20
100
AcDbEntity
  8
0
100
AcDbBlockBegin
  2
*MODEL_SPACE
 70
0
 10
0.0
 20
0.0
 30
0.0
  3
*MODEL_SPACE
  1

  0
ENDBLK
  5
21
100
AcDbEntity
  8
0
100
AcDbBlockEnd
  0
BLOCK
  5
1C
100
AcDbEntity
  8
0
100
AcDbBlockBegin
  2
*PAPER_SPACE
 70
0
 10
0.0
 20
0.0
 30
0.0
  3
*PAPER_SPACE
  1

  0
ENDBLK
  5
1D
100
AcDbEntity
  8
0
100
AcDbBlockEnd
  0
ENDSEC
  0
SECTION
  2
ENTITIES
  0
LINE
  5
239
100
AcDbEntity
  8
0
100
AcDbLine
 62
7
  6
CONTINUOUS
 10
3.0741774809
 20
3.6122000576
 11
3.0741774809
 21
5.2262000576
  0
LINE
  5
23A
100
AcDbEntity
  8
03__ASM_ALL_CURVES
100
AcDbLine
 62
40
  6
CONTINUOUS
 10
3.0741774809
 20
5.2262000576
 11
3.0741774809
 21
5.7250660576
  0
LINE
  5
23B
100
AcDbEntity
  8
0
100
AcDbLine
 62
7
  6
CONTINUOUS
 10
3.1411501121
 20
5.3422000576
 11
3.0741774809
 21
5.2262000576
  0
LINE
  5
23C
100
AcDbEntity
  8
0
100
AcDbLine
 62
7
  6
CONTINUOUS
 10
3.1411501121
 20
3.4962000576
 11
3.0741774809
 21
3.6122000576
  0
LINE
  5
23D
100
AcDbEntity
  8
0
100
AcDbLine
 62
7
  6
CONTINUOUS
 10
3.1411501121
 20
3.4962000576
 11
3.1411501121
 21
3.496595399
  0
LINE
  5
23E
100
AcDbEntity
  8
0
100
AcDbLine
 62
7
  6
CONTINUOUS
 10
3.1411501121
 20
3.9345047161
 11
3.1411501121
 21
3.9812907405
  0
LINE
  5
23F
100
AcDbEntity
  8
0
100
AcDbLine
 62
7
  6
CONTINUOUS
 10
3.1411501121
 20
4.8571093747
 11
3.1411501121
 21
4.903895399
  0
LINE
  5
240
100
AcDbEntity
  8
0
100
AcDbLine
 62
7
  6
CONTINUOUS
 10
3.1411501121
 20
5.3418047161
 11
3.1411501121
 21
5.3422000576
  0
LINE
  5
241
100
AcDbEntity
  8
03__ASM_ALL_CURVES
100
AcDbLine
 62
40
  6
CONTINUOUS
 10
3.2185074809
 20
5.7010110576
 11
3.2185074809
 21
5.6529010576
  0
LINE
  5
242
100
AcDbEntity
  8
03__ASM_ALL_CURVES
100
AcDbLine
 62
40
  6
CONTINUOUS
 10
3.6057509184
 20
5.7551348076
 11
3.5982337309
 21
5.7250660576
  0
LINE
  5
243
100
AcDbEntity
  8
03__ASM_ALL_CURVES
100
AcDbLine
 62
40
  6
CONTINUOUS
 10
3.5982337309
 20
5.8252952219
 11
3.6057509184
 21
5.8353181433
  0
LINE
  5
244
100
AcDbEntity
  8
03__ASM_ALL_CURVES
100
AcDbLine
 62
40
  6
CONTINUOUS
 10
3.6207852934
 20
5.7751806397
 11
3.6057509184
 21
5.7551348076
  0
LINE
  5
245
100
AcDbEntity
  8
03__ASM_ALL_CURVES
100
AcDbLine
 62
40
  6
CONTINUOUS
 10
3.6583712309
 20
5.8052493933
 11
3.6508540434
 21
5.7952264719
  0
LINE
  5
246
100
AcDbEntity
  8
03__ASM_ALL_CURVES
100
AcDbLine
 62
40
  6
CONTINUOUS
 10
3.6057509184
 20
5.8353181433
 11
3.6207852934
 21
5.8453410576
  0
LINE
  5
247
100
AcDbEntity
  8
03__ASM_ALL_CURVES
100
AcDbLine
 62
40
  6
CONTINUOUS
 10
3.8989212309
 20
5.8152723076
 11
3.8914040434
 21
5.8052493933
  0
LINE
  5
248
100
AcDbEntity
  8
03__ASM_ALL_CURVES
100
AcDbLine
 62
40
  6
CONTINUOUS
 10
3.9064384184
 20
5.7551348076
 11
3.8914040434
 21
5.7350889746
  0
LINE
  5
249
100
AcDbEntity
  8
03__ASM_ALL_CURVES
100
AcDbLine
 62
40
  6
CONTINUOUS
 10
4.1169196684
 20
5.8453410576
 11
4.1018852934
 21
5.8252952219
  0
LINE
  5
24A
100
AcDbEntity
  8
03__ASM_ALL_CURVES
100
AcDbLine
 62
40
  6
CONTINUOUS
 10
3.6508540434
 20
5.7952264719
 11
3.6207852934
 21
5.7751806397
  0
LINE
  5
24B
100
AcDbEntity
  8
03__ASM_ALL_CURVES
100
AcDbLine
 62
40
  6
CONTINUOUS
 10
3.8463009184
 20
5.8353181433
 11
3.8613352934
 21
5.8453410576
  0
LINE
  5
24C
100
AcDbEntity
  8
03__ASM_ALL_CURVES
100
AcDbLine
 62
40
  6
CONTINUOUS
 10
3.8914040434
 20
5.8052493933
 11
3.8763696684
 21
5.7952264719
  0
LINE
  5
24D
100
AcDbEntity
  8
03__ASM_ALL_CURVES
100
AcDbLine
 62
40
  6
CONTINUOUS
 10
3.6583712309
 20
5.8252952219
 11
3.6583712309
 21
5.8052493933
  0
LINE
  5
24E
100
AcDbEntity
  8
0
100
AcDbLine
 62
7
  6
CONTINUOUS
 10
4.0731774809
 20
5.4487000576
 11
4.0116896772
 21
5.3422000576
  0
LINE
  5
24F
100
AcDbEntity
  8
03__ASM_ALL_CURVES
100
AcDbLine
 62
40
  6
CONTINUOUS
 10
4.2597462309
 20
5.7451118915
 11
4.2522290434
 21
5.7350889746
  0
LINE
  5
250
100
AcDbEntity
  8
03__ASM_ALL_CURVES
100
AcDbLine
 62
40
  6
CONTINUOUS
 10
4.3198837309
 20
5.8252952219
 11
4.3274009184
 21
5.8353181433
  0
LINE
  5
251
100
AcDbEntity
  8
03__ASM_ALL_CURVES
100
AcDbLine
 62
40
  6
CONTINUOUS
 10
4.3123665434
 20
5.7651577255
 11
4.3274009184
 21
5.7852035576
  0
LINE
  5
252
100
AcDbEntity
  8
03__ASM_ALL_CURVES
100
AcDbLine
 62
40
  6
CONTINUOUS
 10
3.8914040434
 20
5.7350889746
 11
3.8763696684
 21
5.7250660576
  0
LINE
  5
253
100
AcDbEntity
  8
03__ASM_ALL_CURVES
100
AcDbLine
 62
40
  6
CONTINUOUS
 10
4.2071259184
 20
5.7952264719
 11
4.2221602934
 21
5.8052493933
  0
LINE
  5
254
100
AcDbEntity
  8
03__ASM_ALL_CURVES
100
AcDbLine
 62
40
  6
CONTINUOUS
 10
4.3274009184
 20
5.8353181433
 11
4.3424352934
 21
5.8453410576
  0
LINE
  5
255
100
AcDbEntity
  8
03__ASM_ALL_CURVES
100
AcDbLine
 62
40
  6
CONTINUOUS
 10
3.7410602934
 20
5.7250660576
 11
3.7410602934
 21
5.7350889746
  0
LINE
  5
256
100
AcDbEntity
  8
03__ASM_ALL_CURVES
100
AcDbLine
 62
40
  6
CONTINUOUS
 10
3.8989212309
 20
5.8252952219
 11
3.8989212309
 21
5.8152723076
  0
LINE
  5
257
100
AcDbEntity
  8
03__ASM_ALL_CURVES
100
AcDbLine
 62
40
  6
CONTINUOUS
 10
3.9064384184
 20
5.7651577255
 11
3.9064384184
 21
5.7551348076
  0
LINE
  5
258
100
AcDbEntity
  8
03__ASM_ALL_CURVES
100
AcDbLine
 62
40
  6
CONTINUOUS
 10
4.1018852934
 20
5.8252952219
 11
4.0943681059
 21
5.7952264719
  0
LINE
  5
259
100
AcDbEntity
  8
03__ASM_ALL_CURVES
100
AcDbLine
 62
40
  6
CONTINUOUS
 10
4.2672634184
 20
5.7651577255
 11
4.2597462309
 21
5.7451118915
  0
LINE
  5
25A
100
AcDbEntity
  8
03__ASM_ALL_CURVES
100
AcDbLine
 62
40
  6
CONTINUOUS
 10
4.3800212309
 20
5.8152723076
 11
4.3725040434
 21
5.8052493933
  0
LINE
  5
25B
100
AcDbEntity
  8
03__ASM_ALL_CURVES
100
AcDbLine
 62
40
  6
CONTINUOUS
 10
4.3875384184
 20
5.7551348076
 11
4.3725040434
 21
5.7350889746
  0
LINE
  5
25C
100
AcDbEntity
  8
03__ASM_ALL_CURVES
100
AcDbLine
 62
40
  6
CONTINUOUS
 10
4.5679509184
 20
5.8252952219
 11
4.5754681059
 21
5.8353181433
  0
LINE
  5
25D
100
AcDbEntity
  8
03__ASM_ALL_CURVES
100
AcDbLine
 62
40
  6
CONTINUOUS
 10
4.2522290434
 20
5.7350889746
 11
4.2371946684
 21
5.7250660576
  0
LINE
  5
25E
100
AcDbEntity
  8
03__ASM_ALL_CURVES
100
AcDbLine
 62
40
  6
CONTINUOUS
 10
4.3274009184
 20
5.7852035576
 11
4.3424352934
 21
5.7952264719
  0
LINE
  5
25F
100
AcDbEntity
  8
03__ASM_ALL_CURVES
100
AcDbLine
 62
40
  6
CONTINUOUS
 10
4.3725040434
 20
5.8052493933
 11
4.3574696684
 21
5.7952264719
  0
LINE
  5
260
100
AcDbEntity
  8
03__ASM_ALL_CURVES
100
AcDbLine
 62
40
  6
CONTINUOUS
 10
4.3725040434
 20
5.7350889746
 11
4.3574696684
 21
5.7250660576
  0
LINE
  5
261
100
AcDbEntity
  8
03__ASM_ALL_CURVES
100
AcDbLine
 62
40
  6
CONTINUOUS
 10
4.5754681059
 20
5.8353181433
 11
4.5905024809
 21
5.8453410576
  0
LINE
  5
262
100
AcDbEntity
  8
03__ASM_ALL_CURVES
100
AcDbLine
 62
40
  6
CONTINUOUS
 10
4.6055368559
 20
5.7350889746
 11
4.5905024809
 21
5.7250660576
  0
LINE
  5
263
100
AcDbEntity
  8
03__ASM_ALL_CURVES
100
AcDbLine
 62
40
  6
CONTINUOUS
 10
4.5679509184
 20
5.7852035576
 11
4.5905024809
 21
5.7952264719
  0
LINE
  5
264
100
AcDbEntity
  8
0
100
AcDbLine
 62
7
  6
CONTINUOUS
 10
4.0731774809
 20
3.3897000576
 11
4.0116896772
 21
3.4962000576
  0
LINE
  5
265
100
AcDbEntity
  8
03__ASM_ALL_CURVES
100
AcDbLine
 62
40
  6
CONTINUOUS
 10
3.9891274809
 20
5.8453410576
 11
3.9891274809
 21
5.7250660576
  0
LINE
  5
266
100
AcDbEntity
  8
0
100
AcDbLine
 62
7
  6
CONTINUOUS
 10
4.0116896772
 20
3.4962000576
 11
4.0116896772
 21
5.3422000576
  0
LINE
  5
267
100
AcDbEntity
  8
0
100
AcDbLine
 62
7
  6
CONTINUOUS
 10
4.0731774809
 20
3.3897000576
 11
4.0731774809
 21
5.4487000576
  0
LINE
  5
268
100
AcDbEntity
  8
03__ASM_ALL_CURVES
100
AcDbLine
 62
40
  6
CONTINUOUS
 10
4.0943681059
 20
5.7952264719
 11
4.0943681059
 21
5.7751806397
  0
LINE
  5
269
100
AcDbEntity
  8
03__ASM_ALL_CURVES
100
AcDbLine
 62
40
  6
CONTINUOUS
 10
4.2146431059
 20
5.8453410576
 11
4.2071259184
 21
5.7952264719
  0
LINE
  5
26A
100
AcDbEntity
  8
03__ASM_ALL_CURVES
100
AcDbLine
 62
40
  6
CONTINUOUS
 10
4.5604337309
 20
5.8052493933
 11
4.5679509184
 21
5.8252952219
  0
LINE
  5
26B
100
AcDbEntity
  8
03__ASM_ALL_CURVES
100
AcDbLine
 62
40
  6
CONTINUOUS
 10
4.5604337309
 20
5.7651577255
 11
4.5679509184
 21
5.7852035576
  0
LINE
  5
26C
100
AcDbEntity
  8
03__ASM_ALL_CURVES
100
AcDbLine
 62
40
  6
CONTINUOUS
 10
4.6130540434
 20
5.7451118915
 11
4.6055368559
 21
5.7350889746
  0
LINE
  5
26D
100
AcDbEntity
  8
03__ASM_ALL_CURVES
100
AcDbLine
 62
40
  6
CONTINUOUS
 10
5.0985143931
 20
2.7289938076
 11
5.0872386118
 21
2.7365109953
  0
LINE
  5
26E
100
AcDbEntity
  8
03__ASM_ALL_CURVES
100
AcDbLine
 62
40
  6
CONTINUOUS
 10
5.0195839243
 20
2.8192000576
 11
5.0308597056
 21
2.8116828719
  0
LINE
  5
26F
100
AcDbEntity
  8
03__ASM_ALL_CURVES
100
AcDbLine
 62
40
  6
CONTINUOUS
 10
4.3123665434
 20
5.7551348076
 11
4.3123665434
 21
5.7651577255
  0
LINE
  5
270
100
AcDbEntity
  8
03__ASM_ALL_CURVES
100
AcDbLine
 62
40
  6
CONTINUOUS
 10
4.3198837309
 20
5.8152723076
 11
4.3198837309
 21
5.8252952219
  0
LINE
  5
271
100
AcDbEntity
  8
0
100
AcDbLine
 62
7
  6
CONTINUOUS
 10
4.3231774809
 20
3.3897000576
 11
4.3231774809
 21
5.4487000576
  0
LINE
  5
272
100
AcDbEntity
  8
03__ASM_ALL_CURVES
100
AcDbLine
 62
40
  6
CONTINUOUS
 10
4.6205712309
 20
5.7651577255
 11
4.6130540434
 21
5.7451118915
  0
LINE
  5
273
100
AcDbEntity
  8
03__ASM_ALL_CURVES
100
AcDbLine
 62
40
  6
CONTINUOUS
 10
4.7258118559
 20
5.8052493933
 11
4.7408462309
 21
5.8453410576
  0
LINE
  5
274
100
AcDbEntity
  8
03__ASM_ALL_CURVES
100
AcDbLine
 62
40
  6
CONTINUOUS
 10
4.8385696684
 20
5.7451118915
 11
4.8235352934
 21
5.7250660576
  0
LINE
  5
275
100
AcDbEntity
  8
03__ASM_ALL_CURVES
100
AcDbLine
 62
40
  6
CONTINUOUS
 10
6.9256091164
 20
2.7289938076
 11
6.9143333352
 21
2.7289938076
  0
LINE
  5
276
100
AcDbEntity
  8
03__ASM_ALL_CURVES
100
AcDbLine
 62
40
  6
CONTINUOUS
 10
5.3804089243
 20
2.7289938076
 11
5.3691331431
 21
2.7289938076
  0
LINE
  5
277
100
AcDbEntity
  8
03__ASM_ALL_CURVES
100
AcDbLine
 62
40
  6
CONTINUOUS
 10
5.1097901743
 20
2.7289938076
 11
5.0985143931
 21
2.7289938076
  0
LINE
  5
278
100
AcDbEntity
  8
03__ASM_ALL_CURVES
100
AcDbLine
 62
40
  6
CONTINUOUS
 10
7.1680384133
 20
2.7289938076
 11
7.2131415383
 21
2.7289938076
  0
LINE
  5
279
100
AcDbEntity
  8
03__ASM_ALL_CURVES
100
AcDbLine
 62
40
  6
CONTINUOUS
 10
7.0158153664
 20
2.7740969326
 11
6.9876259133
 21
2.7740969326
  0
LINE
  5
27A
100
AcDbEntity
  8
03__ASM_ALL_CURVES
100
AcDbLine
 62
40
  6
CONTINUOUS
 10
6.8354028664
 20
2.7740969326
 11
6.8072134133
 21
2.7740969326
  0
LINE
  5
27B
100
AcDbEntity
  8
03__ASM_ALL_CURVES
100
AcDbLine
 62
40
  6
CONTINUOUS
 10
5.1999964243
 20
2.7740969326
 11
5.1718069712
 21
2.7740969326
  0
LINE
  5
27C
100
AcDbEntity
  8
03__ASM_ALL_CURVES
100
AcDbLine
 62
40
  6
CONTINUOUS
 10
5.0195839243
 20
2.7740969326
 11
4.9913944712
 21
2.7740969326
  0
LINE
  5
27D
100
AcDbEntity
  8
03__ASM_ALL_CURVES
100
AcDbLine
 62
40
  6
CONTINUOUS
 10
5.3691331431
 20
2.7816141183
 11
5.3804089243
 21
2.7816141183
  0
LINE
  5
27E
100
AcDbEntity
  8
03__ASM_ALL_CURVES
100
AcDbLine
 62
40
  6
CONTINUOUS
 10
4.9913944712
 20
2.8192000576
 11
5.0195839243
 21
2.8192000576
  0
LINE
  5
27F
100
AcDbEntity
  8
03__ASM_ALL_CURVES
100
AcDbLine
 62
40
  6
CONTINUOUS
 10
5.0985143931
 20
2.8192000576
 11
5.1097901743
 21
2.8192000576
  0
LINE
  5
280
100
AcDbEntity
  8
03__ASM_ALL_CURVES
100
AcDbLine
 62
40
  6
CONTINUOUS
 10
5.1718069712
 20
2.8192000576
 11
5.1999964243
 21
2.8192000576
  0
LINE
  5
281
100
AcDbEntity
  8
03__ASM_ALL_CURVES
100
AcDbLine
 62
40
  6
CONTINUOUS
 10
5.2563753306
 20
2.8192000576
 11
5.3127542368
 21
2.8192000576
  0
LINE
  5
282
100
AcDbEntity
  8
03__ASM_ALL_CURVES
100
AcDbLine
 62
40
  6
CONTINUOUS
 10
5.3691331431
 20
2.8192000576
 11
5.3804089243
 21
2.8192000576
  0
LINE
  5
283
100
AcDbEntity
  8
03__ASM_ALL_CURVES
100
AcDbLine
 62
40
  6
CONTINUOUS
 10
6.8072134133
 20
2.8192000576
 11
6.8354028664
 21
2.8192000576
  0
LINE
  5
284
100
AcDbEntity
  8
03__ASM_ALL_CURVES
100
AcDbLine
 62
40
  6
CONTINUOUS
 10
6.9143333352
 20
2.8192000576
 11
6.9256091164
 21
2.8192000576
  0
LINE
  5
285
100
AcDbEntity
  8
03__ASM_ALL_CURVES
100
AcDbLine
 62
40
  6
CONTINUOUS
 10
6.9876259133
 20
2.8192000576
 11
7.0158153664
 21
2.8192000576
  0
LINE
  5
286
100
AcDbEntity
  8
03__ASM_ALL_CURVES
100
AcDbLine
 62
40
  6
CONTINUOUS
 10
7.0721942727
 20
2.8192000576
 11
7.1285731789
 21
2.8192000576
  0
LINE
  5
287
100
AcDbEntity
  8
03__ASM_ALL_CURVES
100
AcDbLine
 62
40
  6
CONTINUOUS
 10
7.1849520852
 20
2.8192000576
 11
7.1962278664
 21
2.8192000576
  0
LINE
  5
288
100
AcDbEntity
  8
03__ASM_ALL_CURVES
100
AcDbLine
 62
40
  6
CONTINUOUS
 10
5.1097901743
 20
2.8192000576
 11
5.1210659556
 21
2.8116828719
  0
LINE
  5
289
100
AcDbEntity
  8
03__ASM_ALL_CURVES
100
AcDbLine
 62
40
  6
CONTINUOUS
 10
5.1999964243
 20
2.8192000576
 11
5.2112722056
 21
2.8116828719
  0
LINE
  5
28A
100
AcDbEntity
  8
03__ASM_ALL_CURVES
100
AcDbLine
 62
40
  6
CONTINUOUS
 10
5.3691331431
 20
2.7289938076
 11
5.3578573618
 21
2.7365109953
  0
LINE
  5
28B
100
AcDbEntity
  8
03__ASM_ALL_CURVES
100
AcDbLine
 62
40
  6
CONTINUOUS
 10
5.3804089243
 20
2.7816141183
 11
5.3916847056
 21
2.7740969326
  0
LINE
  5
28C
100
AcDbEntity
  8
03__ASM_ALL_CURVES
100
AcDbLine
 62
40
  6
CONTINUOUS
 10
5.3804089243
 20
2.8192000576
 11
5.3916847056
 21
2.8116828719
  0
LINE
  5
28D
100
AcDbEntity
  8
03__ASM_ALL_CURVES
100
AcDbLine
 62
40
  6
CONTINUOUS
 10
5.0872386118
 20
2.7365109953
 11
5.0759628306
 21
2.7515453701
  0
LINE
  5
28E
100
AcDbEntity
  8
03__ASM_ALL_CURVES
100
AcDbLine
 62
40
  6
CONTINUOUS
 10
5.0308597056
 20
2.8116828719
 11
5.0364975962
 21
2.8041656808
  0
LINE
  5
28F
100
AcDbEntity
  8
0
100
AcDbLine
 62
7
  6
CONTINUOUS
 10
4.3731774809
 20
3.3897000576
 11
4.3731774809
 21
5.4487000576
  0
LINE
  5
290
100
AcDbEntity
  8
03__ASM_ALL_CURVES
100
AcDbLine
 62
40
  6
CONTINUOUS
 10
4.3800212309
 20
5.8252952219
 11
4.3800212309
 21
5.8152723076
  0
LINE
  5
291
100
AcDbEntity
  8
03__ASM_ALL_CURVES
100
AcDbLine
 62
40
  6
CONTINUOUS
 10
4.3875384184
 20
5.7651577255
 11
4.3875384184
 21
5.7551348076
  0
LINE
  5
292
100
AcDbEntity
  8
03__ASM_ALL_CURVES
100
AcDbLine
 62
40
  6
CONTINUOUS
 10
4.4627102934
 20
5.7250660576
 11
4.4627102934
 21
5.7350889746
  0
LINE
  5
293
100
AcDbEntity
  8
0
100
AcDbLine
 62
7
  6
CONTINUOUS
 10
4.4761774809
 20
5.4122000576
 11
4.4761774809
 21
3.4262000576
  0
LINE
  5
294
100
AcDbEntity
  8
0
100
AcDbLine
 62
7
  6
CONTINUOUS
 10
4.4971774809
 20
3.3897000576
 11
4.4971774809
 21
5.4487000576
  0
LINE
  5
295
100
AcDbEntity
  8
03__ASM_ALL_CURVES
100
AcDbLine
 62
40
  6
CONTINUOUS
 10
4.5604337309
 20
5.7651577255
 11
4.5604337309
 21
5.8052493933
  0
LINE
  5
296
100
AcDbEntity
  8
03__ASM_ALL_CURVES
100
AcDbLine
 62
40
  6
CONTINUOUS
 10
4.7107774809
 20
5.7250660576
 11
4.7182946684
 21
5.7751806397
  0
LINE
  5
297
100
AcDbEntity
  8
03__ASM_ALL_CURVES
100
AcDbLine
 62
40
  6
CONTINUOUS
 10
4.7182946684
 20
5.7751806397
 11
4.7258118559
 21
5.8052493933
  0
LINE
  5
298
100
AcDbEntity
  8
03__ASM_ALL_CURVES
100
AcDbLine
 62
40
  6
CONTINUOUS
 10
4.8460868559
 20
5.7751806397
 11
4.8385696684
 21
5.7451118915
  0
LINE
  5
299
100
AcDbEntity
  8
03__ASM_ALL_CURVES
100
AcDbLine
 62
40
  6
CONTINUOUS
 10
5.7054096688
 20
5.8353181433
 11
5.7204440438
 21
5.8453410576
  0
LINE
  5
29A
100
AcDbEntity
  8
03__ASM_ALL_CURVES
100
AcDbLine
 62
40
  6
CONTINUOUS
 10
5.8256846688
 20
5.8353181433
 11
5.8407190438
 21
5.8453410576
  0
LINE
  5
29B
100
AcDbEntity
  8
03__ASM_ALL_CURVES
100
AcDbLine
 62
40
  6
CONTINUOUS
 10
5.7505127938
 20
5.7350889746
 11
5.7354784188
 21
5.7250660576
  0
LINE
  5
29C
100
AcDbEntity
  8
03__ASM_ALL_CURVES
100
AcDbLine
 62
40
  6
CONTINUOUS
 10
5.1210659556
 20
2.8116828719
 11
5.1323417368
 21
2.7966484951
  0
LINE
  5
29D
100
AcDbEntity
  8
03__ASM_ALL_CURVES
100
AcDbLine
 62
40
  6
CONTINUOUS
 10
5.2112722056
 20
2.8116828719
 11
5.2169100962
 21
2.8041656808
  0
LINE
  5
29E
100
AcDbEntity
  8
03__ASM_ALL_CURVES
100
AcDbLine
 62
40
  6
CONTINUOUS
 10
5.3578573618
 20
2.7365109953
 11
5.3522194712
 21
2.744028183
  0
LINE
  5
29F
100
AcDbEntity
  8
03__ASM_ALL_CURVES
100
AcDbLine
 62
40
  6
CONTINUOUS
 10
5.3916847056
 20
2.7740969326
 11
5.4029604868
 21
2.7590625585
  0
LINE
  5
2A0
100
AcDbEntity
  8
03__ASM_ALL_CURVES
100
AcDbLine
 62
40
  6
CONTINUOUS
 10
4.0943681059
 20
5.7751806397
 11
4.1018852934
 21
5.7451118915
  0
LINE
  5
2A1
100
AcDbEntity
  8
0
100
AcDbLine
 62
7
  6
CONTINUOUS
 10
4.5741774809
 20
3.3897000576
 11
4.5741774809
 21
5.4487000576
  0
LINE
  5
2A2
100
AcDbEntity
  8
0
100
AcDbLine
 62
7
  6
CONTINUOUS
 10
4.6454802391
 20
3.5132000576
 11
4.6454802391
 21
5.3252000576
  0
LINE
  5
2A3
100
AcDbEntity
  8
0
100
AcDbLine
 62
7
  6
CONTINUOUS
 10
5.2631774809
 20
5.4467000576
 11
5.1930294232
 21
5.3252000576
  0
LINE
  5
2A4
100
AcDbEntity
  8
03__ASM_ALL_CURVES
100
AcDbLine
 62
40
  6
CONTINUOUS
 10
5.8707877938
 20
5.7350889746
 11
5.8557534188
 21
5.7250660576
  0
LINE
  5
2A5
100
AcDbEntity
  8
03__ASM_ALL_CURVES
100
AcDbLine
 62
40
  6
CONTINUOUS
 10
5.3916847056
 20
2.8116828719
 11
5.3973225962
 21
2.8041656808
  0
LINE
  5
2A6
100
AcDbEntity
  8
03__ASM_ALL_CURVES
100
AcDbLine
 62
40
  6
CONTINUOUS
 10
5.1999964243
 20
2.7740969326
 11
5.2169100962
 21
2.7289938076
  0
LINE
  5
2A7
100
AcDbEntity
  8
03__ASM_ALL_CURVES
100
AcDbLine
 62
40
  6
CONTINUOUS
 10
5.0759628306
 20
2.7515453701
 11
5.07032494
 21
2.7740969326
  0
LINE
  5
2A8
100
AcDbEntity
  8
03__ASM_ALL_CURVES
100
AcDbLine
 62
40
  6
CONTINUOUS
 10
4.8460868559
 20
5.7952264719
 11
4.8460868559
 21
5.7751806397
  0
LINE
  5
2A9
100
AcDbEntity
  8
03__ASM_ALL_CURVES
100
AcDbLine
 62
40
  6
CONTINUOUS
 10
4.9913944712
 20
2.7289938076
 11
4.9913944712
 21
2.8192000576
  0
LINE
  5
2AA
100
AcDbEntity
  8
03__ASM_ALL_CURVES
100
AcDbLine
 62
40
  6
CONTINUOUS
 10
5.6903752938
 20
5.8152723076
 11
5.7054096688
 21
5.8353181433
  0
LINE
  5
2AB
100
AcDbEntity
  8
03__ASM_ALL_CURVES
100
AcDbLine
 62
40
  6
CONTINUOUS
 10
5.7655471688
 20
5.7551348076
 11
5.7505127938
 21
5.7350889746
  0
LINE
  5
2AC
100
AcDbEntity
  8
03__ASM_ALL_CURVES
100
AcDbLine
 62
40
  6
CONTINUOUS
 10
5.8106502938
 20
5.8152723076
 11
5.8256846688
 21
5.8353181433
  0
LINE
  5
2AD
100
AcDbEntity
  8
03__ASM_ALL_CURVES
100
AcDbLine
 62
40
  6
CONTINUOUS
 10
5.8783049813
 20
5.7451118915
 11
5.8707877938
 21
5.7350889746
  0
LINE
  5
2AE
100
AcDbEntity
  8
03__ASM_ALL_CURVES
100
AcDbLine
 62
40
  6
CONTINUOUS
 10
6.4270596688
 20
5.8353181433
 11
6.4420940438
 21
5.8453410576
  0
LINE
  5
2AF
100
AcDbEntity
  8
03__ASM_ALL_CURVES
100
AcDbLine
 62
40
  6
CONTINUOUS
 10
6.4721627938
 20
5.7350889746
 11
6.4571284188
 21
5.7250660576
  0
LINE
  5
2B0
100
AcDbEntity
  8
0
100
AcDbLine
 62
7
  6
CONTINUOUS
 10
4.5741774809
 20
3.3897000576
 11
4.4971774809
 21
3.3897000576
  0
LINE
  5
2B1
100
AcDbEntity
  8
0
100
AcDbLine
 62
7
  6
CONTINUOUS
 10
4.0731774809
 20
3.3897000576
 11
4.3731774809
 21
3.3897000576
  0
LINE
  5
2B2
100
AcDbEntity
  8
0
100
AcDbLine
 62
7
  6
CONTINUOUS
 10
5.3851774809
 20
3.3917000576
 11
5.2631774809
 21
3.3917000576
  0
LINE
  5
2B3
100
AcDbEntity
  8
0
100
AcDbLine
 62
7
  6
CONTINUOUS
 10
5.5351774809
 20
3.4652000576
 11
5.5851774809
 21
3.4652000576
  0
LINE
  5
2B4
100
AcDbEntity
  8
THREAD
100
AcDbLine
 62
7
  6
CONTINUOUS
 10
5.4321774809
 20
3.4657000576
 11
5.3851774809
 21
3.4657000576
  0
LINE
  5
2B5
100
AcDbEntity
  8
0
100
AcDbLine
 62
7
  6
CONTINUOUS
 10
5.2631774809
 20
3.3917000576
 11
5.2237064945
 21
3.4600658115
  0
LINE
  5
2B6
100
AcDbEntity
  8
03__ASM_ALL_CURVES
100
AcDbLine
 62
40
  6
CONTINUOUS
 10
4.2597462309
 20
5.7852035576
 11
4.2672634184
 21
5.7651577255
  0
LINE
  5
2B7
100
AcDbEntity
  8
03__ASM_ALL_CURVES
100
AcDbLine
 62
40
  6
CONTINUOUS
 10
5.1323417368
 20
2.7966484951
 11
5.1379796275
 21
2.7740969326
  0
LINE
  5
2B8
100
AcDbEntity
  8
03__ASM_ALL_CURVES
100
AcDbLine
 62
40
  6
CONTINUOUS
 10
5.0364975962
 20
2.8041656808
 11
5.0364975962
 21
2.7891313094
  0
LINE
  5
2B9
100
AcDbEntity
  8
03__ASM_ALL_CURVES
100
AcDbLine
 62
40
  6
CONTINUOUS
 10
5.1718069712
 20
2.7289938076
 11
5.1718069712
 21
2.8192000576
  0
LINE
  5
2BA
100
AcDbEntity
  8
129-300_FEATURES
100
AcDbLine
 62
7
  6
CONTINUOUS
 10
5.1930294232
 20
3.5144198776
 11
5.1930294232
 21
5.3252000576
  0
LINE
  5
2BB
100
AcDbEntity
  8
THREAD
100
AcDbLine
 62
7
  6
CONTINUOUS
 10
5.6361996949
 20
5.3607000576
 11
5.6061774809
 21
5.3087000576
  0
LINE
  5
2BC
100
AcDbEntity
  8
0
100
AcDbLine
 62
7
  6
CONTINUOUS
 10
4.6454802391
 20
3.5132000576
 11
4.5741774809
 21
3.3897000576
  0
LINE
  5
2BD
100
AcDbEntity
  8
03__ASM_ALL_CURVES
100
AcDbLine
 62
40
  6
CONTINUOUS
 10
6.6826440438
 20
5.8453410576
 11
6.6676096688
 21
5.8353181433
  0
LINE
  5
2BE
100
AcDbEntity
  8
03__ASM_ALL_CURVES
100
AcDbLine
 62
40
  6
CONTINUOUS
 10
6.7127127938
 20
5.7350889746
 11
6.6976784188
 21
5.7250660576
  0
LINE
  5
2BF
100
AcDbEntity
  8
03__ASM_ALL_CURVES
100
AcDbLine
 62
40
  6
CONTINUOUS
 10
6.9081596688
 20
5.8353181433
 11
6.9231940438
 21
5.8453410576
  0
LINE
  5
2C0
100
AcDbEntity
  8
THREAD
100
AcDbLine
 62
7
  6
CONTINUOUS
 10
6.1056774809
 20
3.4777000576
 11
5.6361996949
 21
3.4777000576
  0
LINE
  5
2C1
100
AcDbEntity
  8
0
100
AcDbLine
 62
7
  6
CONTINUOUS
 10
4.4971774809
 20
3.4777000576
 11
4.4761774809
 21
3.4777000576
  0
LINE
  5
2C2
100
AcDbEntity
  8
0
100
AcDbLine
 62
7
  6
CONTINUOUS
 10
4.0116896772
 20
3.4962000576
 11
3.1411501121
 21
3.4962000576
  0
LINE
  5
2C3
100
AcDbEntity
  8
0
100
AcDbLine
 62
7
  6
CONTINUOUS
 10
4.0116896772
 20
3.496595399
 11
3.1411501121
 21
3.496595399
  0
LINE
  5
2C4
100
AcDbEntity
  8
0
100
AcDbLine
 62
7
  6
CONTINUOUS
 10
5.1430130679
 20
3.5132000576
 11
4.6454802391
 21
3.5132000576
  0
LINE
  5
2C5
100
AcDbEntity
  8
THREAD
100
AcDbLine
 62
7
  6
CONTINUOUS
 10
6.3101774809
 20
3.5752000576
 11
6.2031774809
 21
3.5752000576
  0
LINE
  5
2C6
100
AcDbEntity
  8
0
100
AcDbLine
 62
7
  6
CONTINUOUS
 10
7.6361774809
 20
3.6077000576
 11
7.6861774809
 21
3.6077000576
  0
LINE
  5
2C7
100
AcDbEntity
  8
0
100
AcDbLine
 62
7
  6
CONTINUOUS
 10
7.7891774809
 20
3.6077000576
 11
7.8391774809
 21
3.6077000576
  0
LINE
  5
2C8
100
AcDbEntity
  8
0
100
AcDbLine
 62
7
  6
CONTINUOUS
 10
7.5421774809
 20
3.6082000576
 11
7.6361774809
 21
3.6082000576
  0
LINE
  5
2C9
100
AcDbEntity
  8
0
100
AcDbLine
 62
7
  6
CONTINUOUS
 10
7.8791774809
 20
3.6082000576
 11
7.9501774809
 21
3.6082000576
  0
LINE
  5
2CA
100
AcDbEntity
  8
03__ASM_ALL_CURVES
100
AcDbLine
 62
40
  6
CONTINUOUS
 10
6.9143333352
 20
2.7289938076
 11
6.9030575539
 21
2.7365109953
  0
LINE
  5
2CB
100
AcDbEntity
  8
03__ASM_ALL_CURVES
100
AcDbLine
 62
40
  6
CONTINUOUS
 10
6.8354028664
 20
2.8192000576
 11
6.8466786477
 21
2.8116828719
  0
LINE
  5
2CC
100
AcDbEntity
  8
03__ASM_ALL_CURVES
100
AcDbLine
 62
40
  6
CONTINUOUS
 10
3.6508540434
 20
5.8353181433
 11
3.6583712309
 21
5.8252952219
  0
LINE
  5
2CD
100
AcDbEntity
  8
03__ASM_ALL_CURVES
100
AcDbLine
 62
40
  6
CONTINUOUS
 10
3.7410602934
 20
5.7350889746
 11
3.7485774809
 21
5.7250660576
  0
LINE
  5
2CE
100
AcDbEntity
  8
03__ASM_ALL_CURVES
100
AcDbLine
 62
40
  6
CONTINUOUS
 10
3.8463009184
 20
5.7350889746
 11
3.8387837309
 21
5.7451118915
  0
LINE
  5
2CF
100
AcDbEntity
  8
03__ASM_ALL_CURVES
100
AcDbLine
 62
40
  6
CONTINUOUS
 10
3.8914040434
 20
5.7852035576
 11
3.9064384184
 21
5.7651577255
  0
LINE
  5
2D0
100
AcDbEntity
  8
03__ASM_ALL_CURVES
100
AcDbLine
 62
40
  6
CONTINUOUS
 10
4.5679509184
 20
5.7451118915
 11
4.5604337309
 21
5.7651577255
  0
LINE
  5
2D1
100
AcDbEntity
  8
03__ASM_ALL_CURVES
100
AcDbLine
 62
40
  6
CONTINUOUS
 10
5.2169100962
 20
2.8041656808
 11
5.2169100962
 21
2.7891313094
  0
LINE
  5
2D2
100
AcDbEntity
  8
03__ASM_ALL_CURVES
100
AcDbLine
 62
40
  6
CONTINUOUS
 10
5.2408474809
 20
5.7010110576
 11
5.2408474809
 21
5.6529010576
  0
LINE
  5
2D3
100
AcDbEntity
  8
0
100
AcDbLine
 62
7
  6
CONTINUOUS
 10
5.2631774809
 20
3.3917000576
 11
5.2631774809
 21
5.4467000576
  0
LINE
  5
2D4
100
AcDbEntity
  8
03__ASM_ALL_CURVES
100
AcDbLine
 62
40
  6
CONTINUOUS
 10
5.2845647837
 20
2.8192000576
 11
5.2845647837
 21
2.7289938076
  0
LINE
  5
2D5
100
AcDbEntity
  8
0
100
AcDbLine
 62
7
  6
CONTINUOUS
 10
5.3851774809
 20
3.3917000576
 11
5.3851774809
 21
5.4467000576
  0
LINE
  5
2D6
100
AcDbEntity
  8
03__ASM_ALL_CURVES
100
AcDbLine
 62
40
  6
CONTINUOUS
 10
5.3851774809
 20
5.4727550576
 11
5.3851774809
 21
5.7250660576
  0
LINE
  5
2D7
100
AcDbEntity
  8
03__ASM_ALL_CURVES
100
AcDbLine
 62
40
  6
CONTINUOUS
 10
5.3973225962
 20
2.8041656808
 11
5.3973225962
 21
2.7966484951
  0
LINE
  5
2D8
100
AcDbEntity
  8
03__ASM_ALL_CURVES
100
AcDbLine
 62
40
  6
CONTINUOUS
 10
5.4029604868
 20
2.7590625585
 11
5.4029604868
 21
2.7515453701
  0
LINE
  5
2D9
100
AcDbEntity
  8
03__ASM_ALL_CURVES
100
AcDbLine
 62
40
  6
CONTINUOUS
 10
5.6828581063
 20
5.7852035576
 11
5.6903752938
 21
5.8152723076
  0
LINE
  5
2DA
100
AcDbEntity
  8
03__ASM_ALL_CURVES
100
AcDbLine
 62
40
  6
CONTINUOUS
 10
5.7730643563
 20
5.7852035576
 11
5.7655471688
 21
5.7551348076
  0
LINE
  5
2DB
100
AcDbEntity
  8
03__ASM_ALL_CURVES
100
AcDbLine
 62
40
  6
CONTINUOUS
 10
6.4120252938
 20
5.8152723076
 11
6.4270596688
 21
5.8353181433
  0
LINE
  5
2DC
100
AcDbEntity
  8
03__ASM_ALL_CURVES
100
AcDbLine
 62
40
  6
CONTINUOUS
 10
6.9532627938
 20
5.7350889746
 11
6.9382284188
 21
5.7250660576
  0
LINE
  5
2DD
100
AcDbEntity
  8
03__ASM_ALL_CURVES
100
AcDbLine
 62
40
  6
CONTINUOUS
 10
7.0735377938
 20
5.7350889746
 11
7.0585034188
 21
5.7250660576
  0
LINE
  5
2DE
100
AcDbEntity
  8
0
100
AcDbLine
 62
7
  6
CONTINUOUS
 10
7.8791774809
 20
3.6957000576
 11
7.8391774809
 21
3.6957000576
  0
LINE
  5
2DF
100
AcDbEntity
  8
0
100
AcDbLine
 62
7
  6
CONTINUOUS
 10
7.5421774809
 20
3.7017000576
 11
6.8721774809
 21
3.7017000576
  0
LINE
  5
2E0
100
AcDbEntity
  8
0
100
AcDbLine
 62
7
  6
CONTINUOUS
 10
6.4341774809
 20
3.7017000576
 11
6.3545092851
 21
3.7017000576
  0
LINE
  5
2E1
100
AcDbEntity
  8
03__ASM_ALL_CURVES
100
AcDbLine
 62
40
  6
CONTINUOUS
 10
6.9256091164
 20
2.8192000576
 11
6.9368848977
 21
2.8116828719
  0
LINE
  5
2E2
100
AcDbEntity
  8
03__ASM_ALL_CURVES
100
AcDbLine
 62
40
  6
CONTINUOUS
 10
7.0158153664
 20
2.8192000576
 11
7.0270911477
 21
2.8116828719
  0
LINE
  5
2E3
100
AcDbEntity
  8
03__ASM_ALL_CURVES
100
AcDbLine
 62
40
  6
CONTINUOUS
 10
7.1962278664
 20
2.8192000576
 11
7.2075036477
 21
2.8116828719
  0
LINE
  5
2E4
100
AcDbEntity
  8
03__ASM_ALL_CURVES
100
AcDbLine
 62
40
  6
CONTINUOUS
 10
3.8914040434
 20
5.8353181433
 11
3.8989212309
 21
5.8252952219
  0
LINE
  5
2E5
100
AcDbEntity
  8
03__ASM_ALL_CURVES
100
AcDbLine
 62
40
  6
CONTINUOUS
 10
4.1018852934
 20
5.7451118915
 11
4.1169196684
 21
5.7250660576
  0
LINE
  5
2E6
100
AcDbEntity
  8
03__ASM_ALL_CURVES
100
AcDbLine
 62
40
  6
CONTINUOUS
 10
4.2071259184
 20
5.7350889746
 11
4.1996087309
 21
5.7451118915
  0
LINE
  5
2E7
100
AcDbEntity
  8
THREAD
100
AcDbLine
 62
7
  6
CONTINUOUS
 10
5.6361996949
 20
3.4777000576
 11
5.6061774809
 21
3.5297000576
  0
LINE
  5
2E8
100
AcDbEntity
  8
0
100
AcDbLine
 62
7
  6
CONTINUOUS
 10
4.6454802391
 20
5.3252000576
 11
4.5741774809
 21
5.4487000576
  0
LINE
  5
2E9
100
AcDbEntity
  8
03__ASM_ALL_CURVES
100
AcDbLine
 62
40
  6
CONTINUOUS
 10
4.6130540434
 20
5.7852035576
 11
4.6205712309
 21
5.7651577255
  0
LINE
  5
2EA
100
AcDbEntity
  8
03__ASM_ALL_CURVES
100
AcDbLine
 62
40
  6
CONTINUOUS
 10
4.8385696684
 20
5.8252952219
 11
4.8460868559
 21
5.7952264719
  0
LINE
  5
2EB
100
AcDbEntity
  8
THREAD
100
AcDbLine
 62
7
  6
CONTINUOUS
 10
5.4321774809
 20
3.4657000576
 11
5.4321774809
 21
5.3727000576
  0
LINE
  5
2EC
100
AcDbEntity
  8
03__ASM_ALL_CURVES
100
AcDbLine
 62
40
  6
CONTINUOUS
 10
5.5295074809
 20
5.7010110576
 11
5.5295074809
 21
5.6529010576
  0
LINE
  5
2ED
100
AcDbEntity
  8
0
100
AcDbLine
 62
7
  6
CONTINUOUS
 10
5.5351774809
 20
3.4652000576
 11
5.5351774809
 21
5.3732000576
  0
LINE
  5
2EE
100
AcDbEntity
  8
03__ASM_ALL_CURVES
100
AcDbLine
 62
40
  6
CONTINUOUS
 10
5.5776174813
 20
5.8453410576
 11
5.5776174813
 21
5.7250660576
  0
LINE
  5
2EF
100
AcDbEntity
  8
0
100
AcDbLine
 62
7
  6
CONTINUOUS
 10
5.5851774809
 20
3.4652000576
 11
5.5851774809
 21
5.3732000576
  0
LINE
  5
2F0
100
AcDbEntity
  8
0
100
AcDbLine
 62
7
  6
CONTINUOUS
 10
5.6061774809
 20
3.5297000576
 11
5.6061774809
 21
5.3087000576
  0
LINE
  5
2F1
100
AcDbEntity
  8
03__ASM_ALL_CURVES
100
AcDbLine
 62
40
  6
CONTINUOUS
 10
5.8031331063
 20
5.7852035576
 11
5.8106502938
 21
5.8152723076
  0
LINE
  5
2F2
100
AcDbEntity
  8
03__ASM_ALL_CURVES
100
AcDbLine
 62
40
  6
CONTINUOUS
 10
5.07032494
 20
2.7740969326
 11
5.0759628306
 21
2.7966484951
  0
LINE
  5
2F3
100
AcDbEntity
  8
03__ASM_ALL_CURVES
100
AcDbLine
 62
40
  6
CONTINUOUS
 10
5.1379796275
 20
2.7740969326
 11
5.1323417368
 21
2.7515453701
  0
LINE
  5
2F4
100
AcDbEntity
  8
03__ASM_ALL_CURVES
100
AcDbLine
 62
40
  6
CONTINUOUS
 10
5.9309252938
 20
5.7250660576
 11
5.9685112313
 21
5.8453410576
  0
LINE
  5
2F5
100
AcDbEntity
  8
03__ASM_ALL_CURVES
100
AcDbLine
 62
40
  6
CONTINUOUS
 10
6.4796799813
 20
5.7451118915
 11
6.4721627938
 21
5.7350889746
  0
LINE
  5
2F6
100
AcDbEntity
  8
03__ASM_ALL_CURVES
100
AcDbLine
 62
40
  6
CONTINUOUS
 10
6.6676096688
 20
5.8353181433
 11
6.6600924813
 21
5.8252952219
  0
LINE
  5
2F7
100
AcDbEntity
  8
03__ASM_ALL_CURVES
100
AcDbLine
 62
40
  6
CONTINUOUS
 10
7.3065706063
 20
5.7350889746
 11
7.2915362313
 21
5.7250660576
  0
LINE
  5
2F8
100
AcDbEntity
  8
03__ASM_ALL_CURVES
100
AcDbLine
 62
40
  6
CONTINUOUS
 10
7.5546377938
 20
5.7952264719
 11
7.5396034188
 21
5.7852035576
  0
LINE
  5
2F9
100
AcDbEntity
  8
0
100
AcDbLine
 62
7
  6
CONTINUOUS
 10
4.0116896772
 20
3.9345047161
 11
3.1411501121
 21
3.9345047161
  0
LINE
  5
2FA
100
AcDbEntity
  8
0
100
AcDbLine
 62
7
  6
CONTINUOUS
 10
4.0116896772
 20
3.9812907405
 11
3.1411501121
 21
3.9812907405
  0
LINE
  5
2FB
100
AcDbEntity
  8
03__ASM_ALL_CURVES
100
AcDbLine
 62
40
  6
CONTINUOUS
 10
4.2522290434
 20
5.7952264719
 11
4.2597462309
 21
5.7852035576
  0
LINE
  5
2FC
100
AcDbEntity
  8
03__ASM_ALL_CURVES
100
AcDbLine
 62
40
  6
CONTINUOUS
 10
4.3274009184
 20
5.7350889746
 11
4.3123665434
 21
5.7551348076
  0
LINE
  5
2FD
100
AcDbEntity
  8
03__ASM_ALL_CURVES
100
AcDbLine
 62
40
  6
CONTINUOUS
 10
4.3274009184
 20
5.8052493933
 11
4.3198837309
 21
5.8152723076
  0
LINE
  5
2FE
100
AcDbEntity
  8
03__ASM_ALL_CURVES
100
AcDbLine
 62
40
  6
CONTINUOUS
 10
4.3725040434
 20
5.7852035576
 11
4.3875384184
 21
5.7651577255
  0
LINE
  5
2FF
100
AcDbEntity
  8
03__ASM_ALL_CURVES
100
AcDbLine
 62
40
  6
CONTINUOUS
 10
4.3725040434
 20
5.8353181433
 11
4.3800212309
 21
5.8252952219
  0
LINE
  5
300
100
AcDbEntity
  8
03__ASM_ALL_CURVES
100
AcDbLine
 62
40
  6
CONTINUOUS
 10
4.4627102934
 20
5.7350889746
 11
4.4702274809
 21
5.7250660576
  0
LINE
  5
301
100
AcDbEntity
  8
THREAD
100
AcDbLine
 62
7
  6
CONTINUOUS
 10
5.6361996949
 20
3.4777000576
 11
5.6361996949
 21
5.3607000576
  0
LINE
  5
302
100
AcDbEntity
  8
03__ASM_ALL_CURVES
100
AcDbLine
 62
40
  6
CONTINUOUS
 10
6.7202299813
 20
5.7451118915
 11
6.7127127938
 21
5.7350889746
  0
LINE
  5
303
100
AcDbEntity
  8
03__ASM_ALL_CURVES
100
AcDbLine
 62
40
  6
CONTINUOUS
 10
6.8931252938
 20
5.8152723076
 11
6.9081596688
 21
5.8353181433
  0
LINE
  5
304
100
AcDbEntity
  8
0
100
AcDbLine
 62
7
  6
CONTINUOUS
 10
6.8118122131
 20
4.2687000576
 11
6.5413872494
 21
4.2687000576
  0
LINE
  5
305
100
AcDbEntity
  8
0
100
AcDbLine
 62
7
  6
CONTINUOUS
 10
6.5413872494
 20
4.2707500576
 11
6.4924120231
 21
4.2707500576
  0
LINE
  5
306
100
AcDbEntity
  8
03__ASM_ALL_CURVES
100
AcDbLine
 62
40
  6
CONTINUOUS
 10
4.5754681059
 20
5.7350889746
 11
4.5679509184
 21
5.7451118915
  0
LINE
  5
307
100
AcDbEntity
  8
03__ASM_ALL_CURVES
100
AcDbLine
 62
40
  6
CONTINUOUS
 10
6.9030575539
 20
2.7365109953
 11
6.8917817727
 21
2.7515453701
  0
LINE
  5
308
100
AcDbEntity
  8
03__ASM_ALL_CURVES
100
AcDbLine
 62
40
  6
CONTINUOUS
 10
6.8466786477
 20
2.8116828719
 11
6.8523165383
 21
2.8041656808
  0
LINE
  5
309
100
AcDbEntity
  8
03__ASM_ALL_CURVES
100
AcDbLine
 62
40
  6
CONTINUOUS
 10
4.6055368559
 20
5.8353181433
 11
4.6130540434
 21
5.8252952219
  0
LINE
  5
30A
100
AcDbEntity
  8
03__ASM_ALL_CURVES
100
AcDbLine
 62
40
  6
CONTINUOUS
 10
6.9368848977
 20
2.8116828719
 11
6.9481606789
 21
2.7966484951
  0
LINE
  5
30B
100
AcDbEntity
  8
03__ASM_ALL_CURVES
100
AcDbLine
 62
40
  6
CONTINUOUS
 10
6.4045081063
 20
5.7852035576
 11
6.4120252938
 21
5.8152723076
  0
LINE
  5
30C
100
AcDbEntity
  8
03__ASM_ALL_CURVES
100
AcDbLine
 62
40
  6
CONTINUOUS
 10
6.9682971688
 20
5.7551348076
 11
6.9532627938
 21
5.7350889746
  0
LINE
  5
30D
100
AcDbEntity
  8
03__ASM_ALL_CURVES
100
AcDbLine
 62
40
  6
CONTINUOUS
 10
7.0810549813
 20
5.7451118915
 11
7.0735377938
 21
5.7350889746
  0
LINE
  5
30E
100
AcDbEntity
  8
03__ASM_ALL_CURVES
100
AcDbLine
 62
40
  6
CONTINUOUS
 10
8.2635731839
 20
4.4432550576
 11
8.2522974026
 21
4.4432550576
  0
LINE
  5
30F
100
AcDbEntity
  8
03__ASM_ALL_CURVES
100
AcDbLine
 62
40
  6
CONTINUOUS
 10
8.3537794339
 20
4.4883581826
 11
8.3255899807
 21
4.4883581826
  0
LINE
  5
310
100
AcDbEntity
  8
03__ASM_ALL_CURVES
100
AcDbLine
 62
40
  6
CONTINUOUS
 10
8.1733669339
 20
4.4883581826
 11
8.1451774807
 21
4.4883581826
  0
LINE
  5
311
100
AcDbEntity
  8
03__ASM_ALL_CURVES
100
AcDbLine
 62
40
  6
CONTINUOUS
 10
3.6358196684
 20
5.8453410576
 11
3.6508540434
 21
5.8353181433
  0
LINE
  5
312
100
AcDbEntity
  8
03__ASM_ALL_CURVES
100
AcDbLine
 62
40
  6
CONTINUOUS
 10
3.8613352934
 20
5.7250660576
 11
3.8463009184
 21
5.7350889746
  0
LINE
  5
313
100
AcDbEntity
  8
03__ASM_ALL_CURVES
100
AcDbLine
 62
40
  6
CONTINUOUS
 10
3.8763696684
 20
5.7952264719
 11
3.8914040434
 21
5.7852035576
  0
LINE
  5
314
100
AcDbEntity
  8
03__ASM_ALL_CURVES
100
AcDbLine
 62
40
  6
CONTINUOUS
 10
3.8763696684
 20
5.8453410576
 11
3.8914040434
 21
5.8353181433
  0
LINE
  5
315
100
AcDbEntity
  8
03__ASM_ALL_CURVES
100
AcDbLine
 62
40
  6
CONTINUOUS
 10
7.0270911477
 20
2.8116828719
 11
7.0327290383
 21
2.8041656808
  0
LINE
  5
316
100
AcDbEntity
  8
03__ASM_ALL_CURVES
100
AcDbLine
 62
40
  6
CONTINUOUS
 10
4.8235352934
 20
5.8453410576
 11
4.8385696684
 21
5.8252952219
  0
LINE
  5
317
100
AcDbEntity
  8
03__ASM_ALL_CURVES
100
AcDbLine
 62
40
  6
CONTINUOUS
 10
6.0887862313
 20
5.8453410576
 11
6.0887862313
 21
5.7250660576
  0
LINE
  5
318
100
AcDbEntity
  8
THREAD
100
AcDbLine
 62
7
  6
CONTINUOUS
 10
6.1056774809
 20
3.4777000576
 11
6.1056774809
 21
5.3607000576
  0
LINE
  5
319
100
AcDbEntity
  8
THREAD
100
AcDbLine
 62
7
  6
CONTINUOUS
 10
6.2031774809
 20
3.5752000576
 11
6.2031774809
 21
5.2632000576
  0
LINE
  5
31A
100
AcDbEntity
  8
03__ASM_ALL_CURVES
100
AcDbLine
 62
40
  6
CONTINUOUS
 10
6.2090612313
 20
5.8453410576
 11
6.2090612313
 21
5.7250660576
  0
LINE
  5
31B
100
AcDbEntity
  8
03__ASM_ALL_CURVES
100
AcDbLine
 62
40
  6
CONTINUOUS
 10
5.0364975962
 20
2.7891313094
 11
5.0308597056
 21
2.7816141183
  0
LINE
  5
31C
100
AcDbEntity
  8
03__ASM_ALL_CURVES
100
AcDbLine
 62
40
  6
CONTINUOUS
 10
5.0759628306
 20
2.7966484951
 11
5.0872386118
 21
2.8116828719
  0
LINE
  5
31D
100
AcDbEntity
  8
03__ASM_ALL_CURVES
100
AcDbLine
 62
40
  6
CONTINUOUS
 10
7.3216049813
 20
5.7551348076
 11
7.3065706063
 21
5.7350889746
  0
LINE
  5
31E
100
AcDbEntity
  8
03__ASM_ALL_CURVES
100
AcDbLine
 62
40
  6
CONTINUOUS
 10
5.1323417368
 20
2.7515453701
 11
5.1210659556
 21
2.7365109953
  0
LINE
  5
31F
100
AcDbEntity
  8
03__ASM_ALL_CURVES
100
AcDbLine
 62
40
  6
CONTINUOUS
 10
5.2169100962
 20
2.7891313094
 11
5.2112722056
 21
2.7816141183
  0
LINE
  5
320
100
AcDbEntity
  8
03__ASM_ALL_CURVES
100
AcDbLine
 62
40
  6
CONTINUOUS
 10
8.1451774807
 20
4.5334613076
 11
8.1733669339
 21
4.5334613076
  0
LINE
  5
321
100
AcDbEntity
  8
03__ASM_ALL_CURVES
100
AcDbLine
 62
40
  6
CONTINUOUS
 10
8.2522974026
 20
4.5334613076
 11
8.2635731839
 21
4.5334613076
  0
LINE
  5
322
100
AcDbEntity
  8
03__ASM_ALL_CURVES
100
AcDbLine
 62
40
  6
CONTINUOUS
 10
8.3255899807
 20
4.5334613076
 11
8.3537794339
 21
4.5334613076
  0
LINE
  5
323
100
AcDbEntity
  8
03__ASM_ALL_CURVES
100
AcDbLine
 62
40
  6
CONTINUOUS
 10
8.4101583401
 20
4.5334613076
 11
8.4665372464
 21
4.5334613076
  0
LINE
  5
324
100
AcDbEntity
  8
0
100
AcDbLine
 62
7
  6
CONTINUOUS
 10
6.5413872494
 20
4.5676500576
 11
6.4922975845
 21
4.5676500576
  0
LINE
  5
325
100
AcDbEntity
  8
0
100
AcDbLine
 62
7
  6
CONTINUOUS
 10
6.8117224106
 20
4.5697000576
 11
6.5413872494
 21
4.5697000576
  0
LINE
  5
326
100
AcDbEntity
  8
03__ASM_ALL_CURVES
100
AcDbLine
 62
40
  6
CONTINUOUS
 10
4.2221602934
 20
5.7250660576
 11
4.2071259184
 21
5.7350889746
  0
LINE
  5
327
100
AcDbEntity
  8
03__ASM_ALL_CURVES
100
AcDbLine
 62
40
  6
CONTINUOUS
 10
4.3424352934
 20
5.7250660576
 11
4.3274009184
 21
5.7350889746
  0
LINE
  5
328
100
AcDbEntity
  8
03__ASM_ALL_CURVES
100
AcDbLine
 62
40
  6
CONTINUOUS
 10
4.2371946684
 20
5.8052493933
 11
4.2522290434
 21
5.7952264719
  0
LINE
  5
329
100
AcDbEntity
  8
03__ASM_ALL_CURVES
100
AcDbLine
 62
40
  6
CONTINUOUS
 10
4.3424352934
 20
5.7952264719
 11
4.3274009184
 21
5.8052493933
  0
LINE
  5
32A
100
AcDbEntity
  8
03__ASM_ALL_CURVES
100
AcDbLine
 62
40
  6
CONTINUOUS
 10
7.2075036477
 20
2.8116828719
 11
7.2131415383
 21
2.8041656808
  0
LINE
  5
32B
100
AcDbEntity
  8
03__ASM_ALL_CURVES
100
AcDbLine
 62
40
  6
CONTINUOUS
 10
5.6903752938
 20
5.7551348076
 11
5.6828581063
 21
5.7852035576
  0
LINE
  5
32C
100
AcDbEntity
  8
03__ASM_ALL_CURVES
100
AcDbLine
 62
40
  6
CONTINUOUS
 10
5.7655471688
 20
5.8152723076
 11
5.7730643563
 21
5.7852035576
  0
LINE
  5
32D
100
AcDbEntity
  8
03__ASM_ALL_CURVES
100
AcDbLine
 62
40
  6
CONTINUOUS
 10
5.8106502938
 20
5.7551348076
 11
5.8031331063
 21
5.7852035576
  0
LINE
  5
32E
100
AcDbEntity
  8
03__ASM_ALL_CURVES
100
AcDbLine
 62
40
  6
CONTINUOUS
 10
6.2992674813
 20
5.7250660576
 11
6.2992674813
 21
5.8453410576
  0
LINE
  5
32F
100
AcDbEntity
  8
0
100
AcDbLine
 62
7
  6
CONTINUOUS
 10
6.3101774809
 20
3.5752000576
 11
6.3101774809
 21
5.2632000576
  0
LINE
  5
330
100
AcDbEntity
  8
0
100
AcDbLine
 62
7
  6
CONTINUOUS
 10
6.3231774809
 20
3.5882000576
 11
6.3231774809
 21
5.2502000576
  0
LINE
  5
331
100
AcDbEntity
  8
0
100
AcDbLine
 62
7
  6
CONTINUOUS
 10
6.3545092851
 20
3.7017000576
 11
6.3545092851
 21
5.1367000576
  0
LINE
  5
332
100
AcDbEntity
  8
03__ASM_ALL_CURVES
100
AcDbLine
 62
40
  6
CONTINUOUS
 10
6.3594049813
 20
5.7250660576
 11
6.3594049813
 21
5.8453410576
  0
LINE
  5
333
100
AcDbEntity
  8
03__ASM_ALL_CURVES
100
AcDbLine
 62
40
  6
CONTINUOUS
 10
7.5621549813
 20
5.8052493933
 11
7.5546377938
 21
5.7952264719
  0
LINE
  5
334
100
AcDbEntity
  8
03__ASM_ALL_CURVES
100
AcDbLine
 62
40
  6
CONTINUOUS
 10
5.3973225962
 20
2.7966484951
 11
5.3916847056
 21
2.7891313094
  0
LINE
  5
335
100
AcDbEntity
  8
03__ASM_ALL_CURVES
100
AcDbLine
 62
40
  6
CONTINUOUS
 10
5.4029604868
 20
2.7515453701
 11
5.3916847056
 21
2.7365109953
  0
LINE
  5
336
100
AcDbEntity
  8
0
100
AcDbLine
 62
7
  6
CONTINUOUS
 10
4.0116896772
 20
4.8571093747
 11
3.1411501121
 21
4.8571093747
  0
LINE
  5
337
100
AcDbEntity
  8
0
100
AcDbLine
 62
7
  6
CONTINUOUS
 10
4.0116896772
 20
4.903895399
 11
3.1411501121
 21
4.903895399
  0
LINE
  5
338
100
AcDbEntity
  8
03__ASM_ALL_CURVES
100
AcDbLine
 62
40
  6
CONTINUOUS
 10
4.3574696684
 20
5.7952264719
 11
4.3725040434
 21
5.7852035576
  0
LINE
  5
339
100
AcDbEntity
  8
03__ASM_ALL_CURVES
100
AcDbLine
 62
40
  6
CONTINUOUS
 10
4.3574696684
 20
5.8453410576
 11
4.3725040434
 21
5.8353181433
  0
LINE
  5
33A
100
AcDbEntity
  8
03__ASM_ALL_CURVES
100
AcDbLine
 62
40
  6
CONTINUOUS
 10
4.5905024809
 20
5.7250660576
 11
4.5754681059
 21
5.7350889746
  0
LINE
  5
33B
100
AcDbEntity
  8
03__ASM_ALL_CURVES
100
AcDbLine
 62
40
  6
CONTINUOUS
 10
4.5905024809
 20
5.8453410576
 11
4.6055368559
 21
5.8353181433
  0
LINE
  5
33C
100
AcDbEntity
  8
03__ASM_ALL_CURVES
100
AcDbLine
 62
40
  6
CONTINUOUS
 10
7.0158153664
 20
2.7740969326
 11
7.0327290383
 21
2.7289938076
  0
LINE
  5
33D
100
AcDbEntity
  8
03__ASM_ALL_CURVES
100
AcDbLine
 62
40
  6
CONTINUOUS
 10
5.9685112313
 20
5.8453410576
 11
6.0060971688
 21
5.7250660576
  0
LINE
  5
33E
100
AcDbEntity
  8
03__ASM_ALL_CURVES
100
AcDbLine
 62
40
  6
CONTINUOUS
 10
6.4796799813
 20
5.7852035576
 11
6.4796799813
 21
5.7451118915
  0
LINE
  5
33F
100
AcDbEntity
  8
0
100
AcDbLine
 62
7
  6
CONTINUOUS
 10
6.5413872494
 20
4.2687000576
 11
6.5413872494
 21
4.5697000576
  0
LINE
  5
340
100
AcDbEntity
  8
03__ASM_ALL_CURVES
100
AcDbLine
 62
40
  6
CONTINUOUS
 10
6.6600924813
 20
5.8252952219
 11
6.6600924813
 21
5.8152723076
  0
LINE
  5
341
100
AcDbEntity
  8
03__ASM_ALL_CURVES
100
AcDbLine
 62
40
  6
CONTINUOUS
 10
6.8856081063
 20
5.7852035576
 11
6.8931252938
 21
5.8152723076
  0
LINE
  5
342
100
AcDbEntity
  8
03__ASM_ALL_CURVES
100
AcDbLine
 62
40
  6
CONTINUOUS
 10
6.9758143563
 20
5.7852035576
 11
6.9682971688
 21
5.7551348076
  0
LINE
  5
343
100
AcDbEntity
  8
THREAD
100
AcDbLine
 62
7
  6
CONTINUOUS
 10
6.2031774809
 20
3.5752000576
 11
6.1056774809
 21
3.4777000576
  0
LINE
  5
344
100
AcDbEntity
  8
0
100
AcDbLine
 62
7
  6
CONTINUOUS
 10
6.3231774809
 20
3.5882000576
 11
6.3101774809
 21
3.5752000576
  0
LINE
  5
345
100
AcDbEntity
  8
03__ASM_ALL_CURVES
100
AcDbLine
 62
40
  6
CONTINUOUS
 10
5.0308597056
 20
2.7816141183
 11
5.0195839243
 21
2.7740969326
  0
LINE
  5
346
100
AcDbEntity
  8
03__ASM_ALL_CURVES
100
AcDbLine
 62
40
  6
CONTINUOUS
 10
5.0872386118
 20
2.8116828719
 11
5.0985143931
 21
2.8192000576
  0
LINE
  5
347
100
AcDbEntity
  8
0
100
AcDbLine
 62
7
  6
CONTINUOUS
 10
7.5421774809
 20
5.1367000576
 11
6.8721774809
 21
5.1367000576
  0
LINE
  5
348
100
AcDbEntity
  8
0
100
AcDbLine
 62
7
  6
CONTINUOUS
 10
6.4341774809
 20
5.1367000576
 11
6.3545092851
 21
5.1367000576
  0
LINE
  5
349
100
AcDbEntity
  8
0
100
AcDbLine
 62
7
  6
CONTINUOUS
 10
7.8791774809
 20
5.1427000576
 11
7.8391774809
 21
5.1427000576
  0
LINE
  5
34A
100
AcDbEntity
  8
03__ASM_ALL_CURVES
100
AcDbLine
 62
40
  6
CONTINUOUS
 10
5.7054096688
 20
5.7350889746
 11
5.6903752938
 21
5.7551348076
  0
LINE
  5
34B
100
AcDbEntity
  8
03__ASM_ALL_CURVES
100
AcDbLine
 62
40
  6
CONTINUOUS
 10
6.8917817727
 20
2.7515453701
 11
6.886143882
 21
2.7740969326
  0
LINE
  5
34C
100
AcDbEntity
  8
03__ASM_ALL_CURVES
100
AcDbLine
 62
40
  6
CONTINUOUS
 10
6.9481606789
 20
2.7966484951
 11
6.9537985695
 21
2.7740969326
  0
LINE
  5
34D
100
AcDbEntity
  8
03__ASM_ALL_CURVES
100
AcDbLine
 62
40
  6
CONTINUOUS
 10
6.7202299813
 20
5.7651577255
 11
6.7202299813
 21
5.7451118915
  0
LINE
  5
34E
100
AcDbEntity
  8
03__ASM_ALL_CURVES
100
AcDbLine
 62
40
  6
CONTINUOUS
 10
6.7803674813
 20
5.8453410576
 11
6.7803674813
 21
5.7250660576
  0
LINE
  5
34F
100
AcDbEntity
  8
03__ASM_ALL_CURVES
100
AcDbLine
 62
40
  6
CONTINUOUS
 10
6.8072134133
 20
2.7289938076
 11
6.8072134133
 21
2.8192000576
  0
LINE
  5
350
100
AcDbEntity
  8
03__ASM_ALL_CURVES
100
AcDbLine
 62
40
  6
CONTINUOUS
 10
6.8405049813
 20
5.8453410576
 11
6.8405049813
 21
5.7250660576
  0
LINE
  5
351
100
AcDbEntity
  8
03__ASM_ALL_CURVES
100
AcDbLine
 62
40
  6
CONTINUOUS
 10
6.8523165383
 20
2.8041656808
 11
6.8523165383
 21
2.7891313094
  0
LINE
  5
352
100
AcDbEntity
  8
03__ASM_ALL_CURVES
100
AcDbLine
 62
40
  6
CONTINUOUS
 10
5.1210659556
 20
2.7365109953
 11
5.1097901743
 21
2.7289938076
  0
LINE
  5
353
100
AcDbEntity
  8
03__ASM_ALL_CURVES
100
AcDbLine
 62
40
  6
CONTINUOUS
 10
5.2112722056
 20
2.7816141183
 11
5.1999964243
 21
2.7740969326
  0
LINE
  5
354
100
AcDbEntity
  8
03__ASM_ALL_CURVES
100
AcDbLine
 62
40
  6
CONTINUOUS
 10
5.3578573618
 20
2.8116828719
 11
5.3691331431
 21
2.8192000576
  0
LINE
  5
355
100
AcDbEntity
  8
03__ASM_ALL_CURVES
100
AcDbLine
 62
40
  6
CONTINUOUS
 10
5.3916847056
 20
2.7891313094
 11
5.3804089243
 21
2.7816141183
  0
LINE
  5
356
100
AcDbEntity
  8
03__ASM_ALL_CURVES
100
AcDbLine
 62
40
  6
CONTINUOUS
 10
5.3916847056
 20
2.7365109953
 11
5.3804089243
 21
2.7289938076
  0
LINE
  5
357
100
AcDbEntity
  8
0
100
AcDbLine
 62
7
  6
CONTINUOUS
 10
7.5421774809
 20
5.2302000576
 11
7.6361774809
 21
5.2302000576
  0
LINE
  5
358
100
AcDbEntity
  8
0
100
AcDbLine
 62
7
  6
CONTINUOUS
 10
7.8791774809
 20
5.2302000576
 11
7.9501774809
 21
5.2302000576
  0
LINE
  5
359
100
AcDbEntity
  8
0
100
AcDbLine
 62
7
  6
CONTINUOUS
 10
7.6361774809
 20
5.2307000576
 11
7.6861774809
 21
5.2307000576
  0
LINE
  5
35A
100
AcDbEntity
  8
0
100
AcDbLine
 62
7
  6
CONTINUOUS
 10
7.7891774809
 20
5.2307000576
 11
7.8391774809
 21
5.2307000576
  0
LINE
  5
35B
100
AcDbEntity
  8
THREAD
100
AcDbLine
 62
7
  6
CONTINUOUS
 10
6.3101774809
 20
5.2632000576
 11
6.2031774809
 21
5.2632000576
  0
LINE
  5
35C
100
AcDbEntity
  8
0
100
AcDbLine
 62
7
  6
CONTINUOUS
 10
5.1930294232
 20
5.3252000576
 11
4.6454802391
 21
5.3252000576
  0
LINE
  5
35D
100
AcDbEntity
  8
0
100
AcDbLine
 62
7
  6
CONTINUOUS
 10
4.0116896772
 20
5.3418047161
 11
3.1411501121
 21
5.3418047161
  0
LINE
  5
35E
100
AcDbEntity
  8
0
100
AcDbLine
 62
7
  6
CONTINUOUS
 10
4.0116896772
 20
5.3422000576
 11
3.1411501121
 21
5.3422000576
  0
LINE
  5
35F
100
AcDbEntity
  8
THREAD
100
AcDbLine
 62
7
  6
CONTINUOUS
 10
6.1056774809
 20
5.3607000576
 11
5.6361996949
 21
5.3607000576
  0
LINE
  5
360
100
AcDbEntity
  8
0
100
AcDbLine
 62
7
  6
CONTINUOUS
 10
4.4971774809
 20
5.3607000576
 11
4.4761774809
 21
5.3607000576
  0
LINE
  5
361
100
AcDbEntity
  8
03__ASM_ALL_CURVES
100
AcDbLine
 62
40
  6
CONTINUOUS
 10
3.2185074809
 20
5.6569102243
 11
3.0741774809
 21
5.6769560576
  0
LINE
  5
362
100
AcDbEntity
  8
03__ASM_ALL_CURVES
100
AcDbLine
 62
40
  6
CONTINUOUS
 10
3.2185074809
 20
5.6529010576
 11
3.0741774809
 21
5.6769560576
  0
LINE
  5
363
100
AcDbEntity
  8
03__ASM_ALL_CURVES
100
AcDbLine
 62
40
  6
CONTINUOUS
 10
4.5905024809
 20
5.7952264719
 11
4.6130540434
 21
5.7852035576
  0
LINE
  5
364
100
AcDbEntity
  8
THREAD
100
AcDbLine
 62
7
  6
CONTINUOUS
 10
6.2031774809
 20
5.2632000576
 11
6.1056774809
 21
5.3607000576
  0
LINE
  5
365
100
AcDbEntity
  8
0
100
AcDbLine
 62
7
  6
CONTINUOUS
 10
6.3231774809
 20
5.2502000576
 11
6.3101774809
 21
5.2632000576
  0
LINE
  5
366
100
AcDbEntity
  8
03__ASM_ALL_CURVES
100
AcDbLine
 62
40
  6
CONTINUOUS
 10
5.8256846688
 20
5.7350889746
 11
5.8106502938
 21
5.7551348076
  0
LINE
  5
367
100
AcDbEntity
  8
03__ASM_ALL_CURVES
100
AcDbLine
 62
40
  6
CONTINUOUS
 10
5.7505127938
 20
5.8353181433
 11
5.7655471688
 21
5.8152723076
  0
LINE
  5
368
100
AcDbEntity
  8
03__ASM_ALL_CURVES
100
AcDbLine
 62
40
  6
CONTINUOUS
 10
5.8707877938
 20
5.8353181433
 11
5.8783049813
 21
5.8252952219
  0
LINE
  5
369
100
AcDbEntity
  8
03__ASM_ALL_CURVES
100
AcDbLine
 62
40
  6
CONTINUOUS
 10
6.4120252938
 20
5.7551348076
 11
6.4045081063
 21
5.7852035576
  0
LINE
  5
36A
100
AcDbEntity
  8
03__ASM_ALL_CURVES
100
AcDbLine
 62
40
  6
CONTINUOUS
 10
6.9876259133
 20
2.7289938076
 11
6.9876259133
 21
2.8192000576
  0
LINE
  5
36B
100
AcDbEntity
  8
03__ASM_ALL_CURVES
100
AcDbLine
 62
40
  6
CONTINUOUS
 10
7.0209174813
 20
5.7451118915
 11
7.0209174813
 21
5.8453410576
  0
LINE
  5
36C
100
AcDbEntity
  8
03__ASM_ALL_CURVES
100
AcDbLine
 62
40
  6
CONTINUOUS
 10
7.0327290383
 20
2.8041656808
 11
7.0327290383
 21
2.7891313094
  0
LINE
  5
36D
100
AcDbEntity
  8
03__ASM_ALL_CURVES
100
AcDbLine
 62
40
  6
CONTINUOUS
 10
7.0810549813
 20
5.8453410576
 11
7.0810549813
 21
5.7451118915
  0
LINE
  5
36E
100
AcDbEntity
  8
03__ASM_ALL_CURVES
100
AcDbLine
 62
40
  6
CONTINUOUS
 10
7.3291221688
 20
5.7852035576
 11
7.3216049813
 21
5.7551348076
  0
LINE
  5
36F
100
AcDbEntity
  8
03__ASM_ALL_CURVES
100
AcDbLine
 62
40
  6
CONTINUOUS
 10
8.1846427151
 20
4.4958753683
 11
8.1733669339
 21
4.4883581826
  0
LINE
  5
370
100
AcDbEntity
  8
03__ASM_ALL_CURVES
100
AcDbLine
 62
40
  6
CONTINUOUS
 10
8.2410216214
 20
4.5259441219
 11
8.2522974026
 21
4.5334613076
  0
LINE
  5
371
100
AcDbEntity
  8
03__ASM_ALL_CURVES
100
AcDbLine
 62
40
  6
CONTINUOUS
 10
8.2748489651
 20
4.4507722453
 11
8.2635731839
 21
4.4432550576
  0
LINE
  5
372
100
AcDbEntity
  8
03__ASM_ALL_CURVES
100
AcDbLine
 62
40
  6
CONTINUOUS
 10
8.3650552151
 20
4.4958753683
 11
8.3537794339
 21
4.4883581826
  0
LINE
  5
373
100
AcDbEntity
  8
THREAD
100
AcDbLine
 62
7
  6
CONTINUOUS
 10
5.4321774809
 20
5.3727000576
 11
5.3851774809
 21
5.3727000576
  0
LINE
  5
374
100
AcDbEntity
  8
0
100
AcDbLine
 62
7
  6
CONTINUOUS
 10
5.5351774809
 20
5.3732000576
 11
5.5851774809
 21
5.3732000576
  0
LINE
  5
375
100
AcDbEntity
  8
0
100
AcDbLine
 62
7
  6
CONTINUOUS
 10
5.3851774809
 20
5.4467000576
 11
5.2631774809
 21
5.4467000576
  0
LINE
  5
376
100
AcDbEntity
  8
0
100
AcDbLine
 62
7
  6
CONTINUOUS
 10
4.5741774809
 20
5.4487000576
 11
4.4971774809
 21
5.4487000576
  0
LINE
  5
377
100
AcDbEntity
  8
0
100
AcDbLine
 62
7
  6
CONTINUOUS
 10
4.0731774809
 20
5.4487000576
 11
4.3731774809
 21
5.4487000576
  0
LINE
  5
378
100
AcDbEntity
  8
03__ASM_ALL_CURVES
100
AcDbLine
 62
40
  6
CONTINUOUS
 10
3.2185074809
 20
5.6689377243
 11
3.0741774809
 21
5.6769560576
  0
LINE
  5
379
100
AcDbEntity
  8
03__ASM_ALL_CURVES
100
AcDbLine
 62
40
  6
CONTINUOUS
 10
3.2185074809
 20
5.6649285576
 11
3.0741774809
 21
5.6769560576
  0
LINE
  5
37A
100
AcDbEntity
  8
03__ASM_ALL_CURVES
100
AcDbLine
 62
40
  6
CONTINUOUS
 10
3.2185074809
 20
5.6609193909
 11
3.0741774809
 21
5.6769560576
  0
LINE
  5
37B
100
AcDbEntity
  8
03__ASM_ALL_CURVES
100
AcDbLine
 62
40
  6
CONTINUOUS
 10
5.7204440438
 20
5.7250660576
 11
5.7054096688
 21
5.7350889746
  0
LINE
  5
37C
100
AcDbEntity
  8
03__ASM_ALL_CURVES
100
AcDbLine
 62
40
  6
CONTINUOUS
 10
5.8407190438
 20
5.7250660576
 11
5.8256846688
 21
5.7350889746
  0
LINE
  5
37D
100
AcDbEntity
  8
03__ASM_ALL_CURVES
100
AcDbLine
 62
40
  6
CONTINUOUS
 10
5.7354784188
 20
5.8453410576
 11
5.7505127938
 21
5.8353181433
  0
LINE
  5
37E
100
AcDbEntity
  8
03__ASM_ALL_CURVES
100
AcDbLine
 62
40
  6
CONTINUOUS
 10
6.2992674813
 20
5.8453410576
 11
6.3594049813
 21
5.7250660576
  0
LINE
  5
37F
100
AcDbEntity
  8
03__ASM_ALL_CURVES
100
AcDbLine
 62
40
  6
CONTINUOUS
 10
7.1003837258
 20
2.8192000576
 11
7.1003837258
 21
2.7289938076
  0
LINE
  5
380
100
AcDbEntity
  8
03__ASM_ALL_CURVES
100
AcDbLine
 62
40
  6
CONTINUOUS
 10
7.1411924813
 20
5.8453410576
 11
7.1411924813
 21
5.7250660576
  0
LINE
  5
381
100
AcDbEntity
  8
03__ASM_ALL_CURVES
100
AcDbLine
 62
40
  6
CONTINUOUS
 10
7.2131415383
 20
2.8041656808
 11
7.2131415383
 21
2.7891313094
  0
LINE
  5
382
100
AcDbEntity
  8
03__ASM_ALL_CURVES
100
AcDbLine
 62
40
  6
CONTINUOUS
 10
7.2614674813
 20
5.7250660576
 11
7.2614674813
 21
5.8453410576
  0
LINE
  5
383
100
AcDbEntity
  8
03__ASM_ALL_CURVES
100
AcDbLine
 62
40
  6
CONTINUOUS
 10
6.886143882
 20
2.7740969326
 11
6.8917817727
 21
2.7966484951
  0
LINE
  5
384
100
AcDbEntity
  8
03__ASM_ALL_CURVES
100
AcDbLine
 62
40
  6
CONTINUOUS
 10
6.9537985695
 20
2.7740969326
 11
6.9481606789
 21
2.7515453701
  0
LINE
  5
385
100
AcDbEntity
  8
03__ASM_ALL_CURVES
100
AcDbLine
 62
40
  6
CONTINUOUS
 10
5.2408474809
 20
5.6529010576
 11
5.5295074809
 21
5.7010110576
  0
LINE
  5
386
100
AcDbEntity
  8
03__ASM_ALL_CURVES
100
AcDbLine
 62
40
  6
CONTINUOUS
 10
5.2408474809
 20
5.6569102243
 11
5.5295074809
 21
5.6970018909
  0
LINE
  5
387
100
AcDbEntity
  8
03__ASM_ALL_CURVES
100
AcDbLine
 62
40
  6
CONTINUOUS
 10
5.2408474809
 20
5.6609193909
 11
5.5295074809
 21
5.6929927243
  0
LINE
  5
388
100
AcDbEntity
  8
03__ASM_ALL_CURVES
100
AcDbLine
 62
40
  6
CONTINUOUS
 10
5.2408474809
 20
5.6649285576
 11
5.5295074809
 21
5.6889835576
  0
LINE
  5
389
100
AcDbEntity
  8
03__ASM_ALL_CURVES
100
AcDbLine
 62
40
  6
CONTINUOUS
 10
5.2408474809
 20
5.6689377243
 11
5.5295074809
 21
5.6849743909
  0
LINE
  5
38A
100
AcDbEntity
  8
03__ASM_ALL_CURVES
100
AcDbLine
 62
40
  6
CONTINUOUS
 10
5.2408474809
 20
5.6729468909
 11
5.5295074809
 21
5.6809652243
  0
LINE
  5
38B
100
AcDbEntity
  8
03__ASM_ALL_CURVES
100
AcDbLine
 62
40
  6
CONTINUOUS
 10
3.2185074809
 20
5.6809652243
 11
3.0741774809
 21
5.6769560576
  0
LINE
  5
38C
100
AcDbEntity
  8
03__ASM_ALL_CURVES
100
AcDbLine
 62
40
  6
CONTINUOUS
 10
3.0741774809
 20
5.6769560576
 11
7.6944574809
 21
5.6769560576
  0
LINE
  5
38D
100
AcDbEntity
  8
03__ASM_ALL_CURVES
100
AcDbLine
 62
40
  6
CONTINUOUS
 10
7.4418799813
 20
5.7250660576
 11
7.3817424813
 21
5.7250660576
  0
LINE
  5
38E
100
AcDbEntity
  8
03__ASM_ALL_CURVES
100
AcDbLine
 62
40
  6
CONTINUOUS
 10
7.2915362313
 20
5.7250660576
 11
7.2614674813
 21
5.7250660576
  0
LINE
  5
38F
100
AcDbEntity
  8
03__ASM_ALL_CURVES
100
AcDbLine
 62
40
  6
CONTINUOUS
 10
7.0585034188
 20
5.7250660576
 11
7.0434690438
 21
5.7250660576
  0
LINE
  5
390
100
AcDbEntity
  8
03__ASM_ALL_CURVES
100
AcDbLine
 62
40
  6
CONTINUOUS
 10
6.9382284188
 20
5.7250660576
 11
6.9231940438
 21
5.7250660576
  0
LINE
  5
391
100
AcDbEntity
  8
03__ASM_ALL_CURVES
100
AcDbLine
 62
40
  6
CONTINUOUS
 10
6.6976784188
 20
5.7250660576
 11
6.6826440438
 21
5.7250660576
  0
LINE
  5
392
100
AcDbEntity
  8
03__ASM_ALL_CURVES
100
AcDbLine
 62
40
  6
CONTINUOUS
 10
6.4571284188
 20
5.7250660576
 11
6.4420940438
 21
5.7250660576
  0
LINE
  5
393
100
AcDbEntity
  8
03__ASM_ALL_CURVES
100
AcDbLine
 62
40
  6
CONTINUOUS
 10
5.8557534188
 20
5.7250660576
 11
5.8407190438
 21
5.7250660576
  0
LINE
  5
394
100
AcDbEntity
  8
03__ASM_ALL_CURVES
100
AcDbLine
 62
40
  6
CONTINUOUS
 10
5.7354784188
 20
5.7250660576
 11
5.7204440438
 21
5.7250660576
  0
LINE
  5
395
100
AcDbEntity
  8
03__ASM_ALL_CURVES
100
AcDbLine
 62
40
  6
CONTINUOUS
 10
4.4702274809
 20
5.7250660576
 11
4.4627102934
 21
5.7250660576
  0
LINE
  5
396
100
AcDbEntity
  8
03__ASM_ALL_CURVES
100
AcDbLine
 62
40
  6
CONTINUOUS
 10
4.3574696684
 20
5.7250660576
 11
4.3424352934
 21
5.7250660576
  0
LINE
  5
397
100
AcDbEntity
  8
03__ASM_ALL_CURVES
100
AcDbLine
 62
40
  6
CONTINUOUS
 10
4.2371946684
 20
5.7250660576
 11
4.2221602934
 21
5.7250660576
  0
LINE
  5
398
100
AcDbEntity
  8
03__ASM_ALL_CURVES
100
AcDbLine
 62
40
  6
CONTINUOUS
 10
3.8763696684
 20
5.7250660576
 11
3.8613352934
 21
5.7250660576
  0
LINE
  5
399
100
AcDbEntity
  8
03__ASM_ALL_CURVES
100
AcDbLine
 62
40
  6
CONTINUOUS
 10
3.7485774809
 20
5.7250660576
 11
3.7410602934
 21
5.7250660576
  0
LINE
  5
39A
100
AcDbEntity
  8
03__ASM_ALL_CURVES
100
AcDbLine
 62
40
  6
CONTINUOUS
 10
3.5982337309
 20
5.7250660576
 11
3.6583712309
 21
5.7250660576
  0
LINE
  5
39B
100
AcDbEntity
  8
03__ASM_ALL_CURVES
100
AcDbLine
 62
40
  6
CONTINUOUS
 10
5.5776174813
 20
5.7250660576
 11
5.6377549813
 21
5.7250660576
  0
LINE
  5
39C
100
AcDbEntity
  8
03__ASM_ALL_CURVES
100
AcDbLine
 62
40
  6
CONTINUOUS
 10
7.1411924813
 20
5.7250660576
 11
7.2013299813
 21
5.7250660576
  0
LINE
  5
39D
100
AcDbEntity
  8
03__ASM_ALL_CURVES
100
AcDbLine
 62
40
  6
CONTINUOUS
 10
5.9459596688
 20
5.7651577255
 11
5.9910627938
 21
5.7651577255
  0
LINE
  5
39E
100
AcDbEntity
  8
03__ASM_ALL_CURVES
100
AcDbLine
 62
40
  6
CONTINUOUS
 10
3.2185074809
 20
5.6729468909
 11
3.0741774809
 21
5.6769560576
  0
LINE
  5
39F
100
AcDbEntity
  8
03__ASM_ALL_CURVES
100
AcDbLine
 62
40
  6
CONTINUOUS
 10
5.2408474809
 20
5.6809652243
 11
5.5295074809
 21
5.6729468909
  0
LINE
  5
3A0
100
AcDbEntity
  8
03__ASM_ALL_CURVES
100
AcDbLine
 62
40
  6
CONTINUOUS
 10
5.2408474809
 20
5.6849743909
 11
5.5295074809
 21
5.6689377243
  0
LINE
  5
3A1
100
AcDbEntity
  8
03__ASM_ALL_CURVES
100
AcDbLine
 62
40
  6
CONTINUOUS
 10
5.2408474809
 20
5.6889835576
 11
5.5295074809
 21
5.6649285576
  0
LINE
  5
3A2
100
AcDbEntity
  8
03__ASM_ALL_CURVES
100
AcDbLine
 62
40
  6
CONTINUOUS
 10
5.2408474809
 20
5.6929927243
 11
5.5295074809
 21
5.6609193909
  0
LINE
  5
3A3
100
AcDbEntity
  8
03__ASM_ALL_CURVES
100
AcDbLine
 62
40
  6
CONTINUOUS
 10
5.2408474809
 20
5.6970018909
 11
5.5295074809
 21
5.6569102243
  0
LINE
  5
3A4
100
AcDbEntity
  8
03__ASM_ALL_CURVES
100
AcDbLine
 62
40
  6
CONTINUOUS
 10
5.5295074809
 20
5.6529010576
 11
5.2408474809
 21
5.7010110576
  0
LINE
  5
3A5
100
AcDbEntity
  8
03__ASM_ALL_CURVES
100
AcDbLine
 62
40
  6
CONTINUOUS
 10
5.8557534188
 20
5.8453410576
 11
5.8707877938
 21
5.8353181433
  0
LINE
  5
3A6
100
AcDbEntity
  8
03__ASM_ALL_CURVES
100
AcDbLine
 62
40
  6
CONTINUOUS
 10
8.2522974026
 20
4.4432550576
 11
8.2410216214
 21
4.4507722453
  0
LINE
  5
3A7
100
AcDbEntity
  8
03__ASM_ALL_CURVES
100
AcDbLine
 62
40
  6
CONTINUOUS
 10
6.4270596688
 20
5.7350889746
 11
6.4120252938
 21
5.7551348076
  0
LINE
  5
3A8
100
AcDbEntity
  8
03__ASM_ALL_CURVES
100
AcDbLine
 62
40
  6
CONTINUOUS
 10
6.4721627938
 20
5.8353181433
 11
6.4796799813
 21
5.8252952219
  0
LINE
  5
3A9
100
AcDbEntity
  8
03__ASM_ALL_CURVES
100
AcDbLine
 62
40
  6
CONTINUOUS
 10
6.8931252938
 20
5.7551348076
 11
6.8856081063
 21
5.7852035576
  0
LINE
  5
3AA
100
AcDbEntity
  8
03__ASM_ALL_CURVES
100
AcDbLine
 62
40
  6
CONTINUOUS
 10
7.3817424813
 20
5.7250660576
 11
7.3817424813
 21
5.8453410576
  0
LINE
  5
3AB
100
AcDbEntity
  8
03__ASM_ALL_CURVES
100
AcDbLine
 62
40
  6
CONTINUOUS
 10
7.5020174813
 20
5.7250660576
 11
7.5020174813
 21
5.8453410576
  0
LINE
  5
3AC
100
AcDbEntity
  8
03__ASM_ALL_CURVES
100
AcDbLine
 62
40
  6
CONTINUOUS
 10
3.2185074809
 20
5.6929927243
 11
3.0741774809
 21
5.6769560576
  0
LINE
  5
3AD
100
AcDbEntity
  8
03__ASM_ALL_CURVES
100
AcDbLine
 62
40
  6
CONTINUOUS
 10
3.2185074809
 20
5.6889835576
 11
3.0741774809
 21
5.6769560576
  0
LINE
  5
3AE
100
AcDbEntity
  8
03__ASM_ALL_CURVES
100
AcDbLine
 62
40
  6
CONTINUOUS
 10
3.2185074809
 20
5.6849743909
 11
3.0741774809
 21
5.6769560576
  0
LINE
  5
3AF
100
AcDbEntity
  8
03__ASM_ALL_CURVES
100
AcDbLine
 62
40
  6
CONTINUOUS
 10
7.5396034188
 20
5.7852035576
 11
7.5020174813
 21
5.7852035576
  0
LINE
  5
3B0
100
AcDbEntity
  8
03__ASM_ALL_CURVES
100
AcDbLine
 62
40
  6
CONTINUOUS
 10
6.4496112313
 20
5.7852035576
 11
6.4796799813
 21
5.7852035576
  0
LINE
  5
3B1
100
AcDbEntity
  8
03__ASM_ALL_CURVES
100
AcDbLine
 62
40
  6
CONTINUOUS
 10
6.7803674813
 20
5.7852035576
 11
6.8405049813
 21
5.7852035576
  0
LINE
  5
3B2
100
AcDbEntity
  8
03__ASM_ALL_CURVES
100
AcDbLine
 62
40
  6
CONTINUOUS
 10
7.3817424813
 20
5.7852035576
 11
7.4193284188
 21
5.7852035576
  0
LINE
  5
3B3
100
AcDbEntity
  8
03__ASM_ALL_CURVES
100
AcDbLine
 62
40
  6
CONTINUOUS
 10
3.8613352934
 20
5.7952264719
 11
3.8763696684
 21
5.7952264719
  0
LINE
  5
3B4
100
AcDbEntity
  8
03__ASM_ALL_CURVES
100
AcDbLine
 62
40
  6
CONTINUOUS
 10
4.3424352934
 20
5.7952264719
 11
4.3574696684
 21
5.7952264719
  0
LINE
  5
3B5
100
AcDbEntity
  8
03__ASM_ALL_CURVES
100
AcDbLine
 62
40
  6
CONTINUOUS
 10
4.2221602934
 20
5.8052493933
 11
4.2371946684
 21
5.8052493933
  0
LINE
  5
3B6
100
AcDbEntity
  8
03__ASM_ALL_CURVES
100
AcDbLine
 62
40
  6
CONTINUOUS
 10
6.6976784188
 20
5.8453410576
 11
6.6826440438
 21
5.8453410576
  0
LINE
  5
3B7
100
AcDbEntity
  8
03__ASM_ALL_CURVES
100
AcDbLine
 62
40
  6
CONTINUOUS
 10
4.7408462309
 20
5.8453410576
 11
4.6807087309
 21
5.8453410576
  0
LINE
  5
3B8
100
AcDbEntity
  8
03__ASM_ALL_CURVES
100
AcDbLine
 62
40
  6
CONTINUOUS
 10
4.2597462309
 20
5.8453410576
 11
4.2146431059
 21
5.8453410576
  0
LINE
  5
3B9
100
AcDbEntity
  8
03__ASM_ALL_CURVES
100
AcDbLine
 62
40
  6
CONTINUOUS
 10
3.6207852934
 20
5.8453410576
 11
3.6358196684
 21
5.8453410576
  0
LINE
  5
3BA
100
AcDbEntity
  8
03__ASM_ALL_CURVES
100
AcDbLine
 62
40
  6
CONTINUOUS
 10
3.8613352934
 20
5.8453410576
 11
3.8763696684
 21
5.8453410576
  0
LINE
  5
3BB
100
AcDbEntity
  8
03__ASM_ALL_CURVES
100
AcDbLine
 62
40
  6
CONTINUOUS
 10
4.3424352934
 20
5.8453410576
 11
4.3574696684
 21
5.8453410576
  0
LINE
  5
3BC
100
AcDbEntity
  8
03__ASM_ALL_CURVES
100
AcDbLine
 62
40
  6
CONTINUOUS
 10
5.7204440438
 20
5.8453410576
 11
5.7354784188
 21
5.8453410576
  0
LINE
  5
3BD
100
AcDbEntity
  8
03__ASM_ALL_CURVES
100
AcDbLine
 62
40
  6
CONTINUOUS
 10
5.8407190438
 20
5.8453410576
 11
5.8557534188
 21
5.8453410576
  0
LINE
  5
3BE
100
AcDbEntity
  8
03__ASM_ALL_CURVES
100
AcDbLine
 62
40
  6
CONTINUOUS
 10
6.0512002938
 20
5.8453410576
 11
6.1263721688
 21
5.8453410576
  0
LINE
  5
3BF
100
AcDbEntity
  8
03__ASM_ALL_CURVES
100
AcDbLine
 62
40
  6
CONTINUOUS
 10
6.4420940438
 20
5.8453410576
 11
6.4571284188
 21
5.8453410576
  0
LINE
  5
3C0
100
AcDbEntity
  8
03__ASM_ALL_CURVES
100
AcDbLine
 62
40
  6
CONTINUOUS
 10
6.9231940438
 20
5.8453410576
 11
6.9382284188
 21
5.8453410576
  0
LINE
  5
3C1
100
AcDbEntity
  8
03__ASM_ALL_CURVES
100
AcDbLine
 62
40
  6
CONTINUOUS
 10
7.2614674813
 20
5.8453410576
 11
7.2915362313
 21
5.8453410576
  0
LINE
  5
3C2
100
AcDbEntity
  8
03__ASM_ALL_CURVES
100
AcDbLine
 62
40
  6
CONTINUOUS
 10
7.3817424813
 20
5.8453410576
 11
7.4418799813
 21
5.8453410576
  0
LINE
  5
3C3
100
AcDbEntity
  8
03__ASM_ALL_CURVES
100
AcDbLine
 62
40
  6
CONTINUOUS
 10
7.5020174813
 20
5.8453410576
 11
7.5396034188
 21
5.8453410576
  0
LINE
  5
3C4
100
AcDbEntity
  8
03__ASM_ALL_CURVES
100
AcDbLine
 62
40
  6
CONTINUOUS
 10
8.1733669339
 20
4.5334613076
 11
8.1846427151
 21
4.5259441219
  0
LINE
  5
3C5
100
AcDbEntity
  8
03__ASM_ALL_CURVES
100
AcDbLine
 62
40
  6
CONTINUOUS
 10
6.4420940438
 20
5.7250660576
 11
6.4270596688
 21
5.7350889746
  0
LINE
  5
3C6
100
AcDbEntity
  8
03__ASM_ALL_CURVES
100
AcDbLine
 62
40
  6
CONTINUOUS
 10
8.2635731839
 20
4.5334613076
 11
8.2748489651
 21
4.5259441219
  0
LINE
  5
3C7
100
AcDbEntity
  8
03__ASM_ALL_CURVES
100
AcDbLine
 62
40
  6
CONTINUOUS
 10
8.3537794339
 20
4.5334613076
 11
8.3650552151
 21
4.5259441219
  0
LINE
  5
3C8
100
AcDbEntity
  8
03__ASM_ALL_CURVES
100
AcDbLine
 62
40
  6
CONTINUOUS
 10
6.4571284188
 20
5.8453410576
 11
6.4721627938
 21
5.8353181433
  0
LINE
  5
3C9
100
AcDbEntity
  8
03__ASM_ALL_CURVES
100
AcDbLine
 62
40
  6
CONTINUOUS
 10
6.6826440438
 20
5.7250660576
 11
6.6676096688
 21
5.7350889746
  0
LINE
  5
3CA
100
AcDbEntity
  8
03__ASM_ALL_CURVES
100
AcDbLine
 62
40
  6
CONTINUOUS
 10
6.6676096688
 20
5.7350889746
 11
6.6525752938
 21
5.7551348076
  0
LINE
  5
3CB
100
AcDbEntity
  8
03__ASM_ALL_CURVES
100
AcDbLine
 62
40
  6
CONTINUOUS
 10
6.6600924813
 20
5.8152723076
 11
6.6676096688
 21
5.8052493933
  0
LINE
  5
3CC
100
AcDbEntity
  8
03__ASM_ALL_CURVES
100
AcDbLine
 62
40
  6
CONTINUOUS
 10
6.7127127938
 20
5.7751806397
 11
6.7202299813
 21
5.7651577255
  0
LINE
  5
3CD
100
AcDbEntity
  8
03__ASM_ALL_CURVES
100
AcDbLine
 62
40
  6
CONTINUOUS
 10
6.7202299813
 20
5.8252952219
 11
6.7127127938
 21
5.8353181433
  0
LINE
  5
3CE
100
AcDbEntity
  8
03__ASM_ALL_CURVES
100
AcDbLine
 62
40
  6
CONTINUOUS
 10
6.9682971688
 20
5.8152723076
 11
6.9758143563
 21
5.7852035576
  0
LINE
  5
3CF
100
AcDbEntity
  8
0
100
AcDbLine
 62
7
  6
CONTINUOUS
 10
7.5421774809
 20
5.2302000576
 11
7.5421774809
 21
3.6082000576
  0
LINE
  5
3D0
100
AcDbEntity
  8
03__ASM_ALL_CURVES
100
AcDbLine
 62
40
  6
CONTINUOUS
 10
7.5621549813
 20
5.8252952219
 11
7.5621549813
 21
5.8052493933
  0
LINE
  5
3D1
100
AcDbEntity
  8
0
100
AcDbLine
 62
7
  6
CONTINUOUS
 10
7.6361774809
 20
3.6077000576
 11
7.6361774809
 21
5.2307000576
  0
LINE
  5
3D2
100
AcDbEntity
  8
0
100
AcDbLine
 62
7
  6
CONTINUOUS
 10
7.6861774809
 20
3.6077000576
 11
7.6861774809
 21
5.2307000576
  0
LINE
  5
3D3
100
AcDbEntity
  8
03__ASM_ALL_CURVES
100
AcDbLine
 62
40
  6
CONTINUOUS
 10
7.1736763039
 20
2.7515453701
 11
7.1680384133
 21
2.7289938076
  0
LINE
  5
3D4
100
AcDbEntity
  8
03__ASM_ALL_CURVES
100
AcDbLine
 62
40
  6
CONTINUOUS
 10
6.8523165383
 20
2.7891313094
 11
6.8466786477
 21
2.7816141183
  0
LINE
  5
3D5
100
AcDbEntity
  8
03__ASM_ALL_CURVES
100
AcDbLine
 62
40
  6
CONTINUOUS
 10
6.8917817727
 20
2.7966484951
 11
6.9030575539
 21
2.8116828719
  0
LINE
  5
3D6
100
AcDbEntity
  8
03__ASM_ALL_CURVES
100
AcDbLine
 62
40
  6
CONTINUOUS
 10
8.1902806057
 20
4.5033925594
 11
8.1846427151
 21
4.4958753683
  0
LINE
  5
3D7
100
AcDbEntity
  8
03__ASM_ALL_CURVES
100
AcDbLine
 62
40
  6
CONTINUOUS
 10
8.2297458401
 20
4.5109097451
 11
8.2410216214
 21
4.5259441219
  0
LINE
  5
3D8
100
AcDbEntity
  8
03__ASM_ALL_CURVES
100
AcDbLine
 62
40
  6
CONTINUOUS
 10
6.9481606789
 20
2.7515453701
 11
6.9368848977
 21
2.7365109953
  0
LINE
  5
3D9
100
AcDbEntity
  8
03__ASM_ALL_CURVES
100
AcDbLine
 62
40
  6
CONTINUOUS
 10
8.2861247464
 20
4.4658066201
 11
8.2748489651
 21
4.4507722453
  0
LINE
  5
3DA
100
AcDbEntity
  8
03__ASM_ALL_CURVES
100
AcDbLine
 62
40
  6
CONTINUOUS
 10
7.0327290383
 20
2.7891313094
 11
7.0270911477
 21
2.7816141183
  0
LINE
  5
3DB
100
AcDbEntity
  8
03__ASM_ALL_CURVES
100
AcDbLine
 62
40
  6
CONTINUOUS
 10
6.8466786477
 20
2.7816141183
 11
6.8354028664
 21
2.7740969326
  0
LINE
  5
3DC
100
AcDbEntity
  8
03__ASM_ALL_CURVES
100
AcDbLine
 62
40
  6
CONTINUOUS
 10
6.9030575539
 20
2.8116828719
 11
6.9143333352
 21
2.8192000576
  0
LINE
  5
3DD
100
AcDbEntity
  8
03__ASM_ALL_CURVES
100
AcDbLine
 62
40
  6
CONTINUOUS
 10
3.0741774809
 20
5.6769560576
 11
3.2185074809
 21
5.7010110576
  0
LINE
  5
3DE
100
AcDbEntity
  8
03__ASM_ALL_CURVES
100
AcDbLine
 62
40
  6
CONTINUOUS
 10
3.2185074809
 20
5.6970018909
 11
3.0741774809
 21
5.6769560576
  0
LINE
  5
3DF
100
AcDbEntity
  8
03__ASM_ALL_CURVES
100
AcDbLine
 62
40
  6
CONTINUOUS
 10
6.6676096688
 20
5.8052493933
 11
6.7127127938
 21
5.7751806397
  0
LINE
  5
3E0
100
AcDbEntity
  8
03__ASM_ALL_CURVES
100
AcDbLine
 62
40
  6
CONTINUOUS
 10
6.7127127938
 20
5.8353181433
 11
6.6976784188
 21
5.8453410576
  0
LINE
  5
3E1
100
AcDbEntity
  8
03__ASM_ALL_CURVES
100
AcDbLine
 62
40
  6
CONTINUOUS
 10
6.9231940438
 20
5.7250660576
 11
6.9081596688
 21
5.7350889746
  0
LINE
  5
3E2
100
AcDbEntity
  8
03__ASM_ALL_CURVES
100
AcDbLine
 62
40
  6
CONTINUOUS
 10
7.0434690438
 20
5.7250660576
 11
7.0284346688
 21
5.7350889746
  0
LINE
  5
3E3
100
AcDbEntity
  8
03__ASM_ALL_CURVES
100
AcDbLine
 62
40
  6
CONTINUOUS
 10
6.9081596688
 20
5.7350889746
 11
6.8931252938
 21
5.7551348076
  0
LINE
  5
3E4
100
AcDbEntity
  8
03__ASM_ALL_CURVES
100
AcDbLine
 62
40
  6
CONTINUOUS
 10
6.9532627938
 20
5.8353181433
 11
6.9682971688
 21
5.8152723076
  0
LINE
  5
3E5
100
AcDbEntity
  8
03__ASM_ALL_CURVES
100
AcDbLine
 62
40
  6
CONTINUOUS
 10
7.0284346688
 20
5.7350889746
 11
7.0209174813
 21
5.7451118915
  0
LINE
  5
3E6
100
AcDbEntity
  8
03__ASM_ALL_CURVES
100
AcDbLine
 62
40
  6
CONTINUOUS
 10
7.3216049813
 20
5.8152723076
 11
7.3291221688
 21
5.7852035576
  0
LINE
  5
3E7
100
AcDbEntity
  8
0
100
AcDbLine
 62
7
  6
CONTINUOUS
 10
7.7891774809
 20
3.6077000576
 11
7.7891774809
 21
5.2307000576
  0
LINE
  5
3E8
100
AcDbEntity
  8
0
100
AcDbLine
 62
7
  6
CONTINUOUS
 10
7.8391774809
 20
3.6077000576
 11
7.8391774809
 21
5.2307000576
  0
LINE
  5
3E9
100
AcDbEntity
  8
0
100
AcDbLine
 62
7
  6
CONTINUOUS
 10
7.8791774809
 20
5.2302000576
 11
7.8791774809
 21
3.6082000576
  0
LINE
  5
3EA
100
AcDbEntity
  8
03__ASM_ALL_CURVES
100
AcDbLine
 62
40
  6
CONTINUOUS
 10
8.3706931057
 20
4.5033925594
 11
8.3650552151
 21
4.4958753683
  0
LINE
  5
3EB
100
AcDbEntity
  8
03__ASM_ALL_CURVES
100
AcDbLine
 62
40
  6
CONTINUOUS
 10
7.1680384133
 20
2.8041656808
 11
7.1736763039
 21
2.8116828719
  0
LINE
  5
3EC
100
AcDbEntity
  8
03__ASM_ALL_CURVES
100
AcDbLine
 62
40
  6
CONTINUOUS
 10
7.1849520852
 20
2.7665797442
 11
7.1736763039
 21
2.7515453701
  0
LINE
  5
3ED
100
AcDbEntity
  8
03__ASM_ALL_CURVES
100
AcDbLine
 62
40
  6
CONTINUOUS
 10
7.2131415383
 20
2.7891313094
 11
7.2075036477
 21
2.7816141183
  0
LINE
  5
3EE
100
AcDbEntity
  8
0
100
AcDbLine
 62
7
  6
CONTINUOUS
 10
7.9501774809
 20
3.6082000576
 11
7.9811774809
 21
3.6392000576
  0
LINE
  5
3EF
100
AcDbEntity
  8
03__ASM_ALL_CURVES
100
AcDbLine
 62
40
  6
CONTINUOUS
 10
6.9368848977
 20
2.7365109953
 11
6.9256091164
 21
2.7289938076
  0
LINE
  5
3F0
100
AcDbEntity
  8
03__ASM_ALL_CURVES
100
AcDbLine
 62
40
  6
CONTINUOUS
 10
7.0270911477
 20
2.7816141183
 11
7.0158153664
 21
2.7740969326
  0
LINE
  5
3F1
100
AcDbEntity
  8
03__ASM_ALL_CURVES
100
AcDbLine
 62
40
  6
CONTINUOUS
 10
7.1736763039
 20
2.8116828719
 11
7.1849520852
 21
2.8192000576
  0
LINE
  5
3F2
100
AcDbEntity
  8
03__ASM_ALL_CURVES
100
AcDbLine
 62
40
  6
CONTINUOUS
 10
7.2075036477
 20
2.7816141183
 11
7.1849520852
 21
2.7665797442
  0
LINE
  5
3F3
100
AcDbEntity
  8
03__ASM_ALL_CURVES
100
AcDbLine
 62
40
  6
CONTINUOUS
 10
6.9382284188
 20
5.8453410576
 11
6.9532627938
 21
5.8353181433
  0
LINE
  5
3F4
100
AcDbEntity
  8
03__ASM_ALL_CURVES
100
AcDbLine
 62
40
  6
CONTINUOUS
 10
8.2410216214
 20
4.4507722453
 11
8.2297458401
 21
4.4658066201
  0
LINE
  5
3F5
100
AcDbEntity
  8
03__ASM_ALL_CURVES
100
AcDbLine
 62
40
  6
CONTINUOUS
 10
8.1846427151
 20
4.5259441219
 11
8.1902806057
 21
4.5184269308
  0
LINE
  5
3F6
100
AcDbEntity
  8
03__ASM_ALL_CURVES
100
AcDbLine
 62
40
  6
CONTINUOUS
 10
8.2748489651
 20
4.5259441219
 11
8.2861247464
 21
4.5109097451
  0
LINE
  5
3F7
100
AcDbEntity
  8
0
100
AcDbLine
 62
7
  6
CONTINUOUS
 10
7.9501774809
 20
3.6082000576
 11
7.9501774809
 21
5.2302000576
  0
LINE
  5
3F8
100
AcDbEntity
  8
0
100
AcDbLine
 62
7
  6
CONTINUOUS
 10
7.9811774809
 20
3.6392000576
 11
7.9811774809
 21
5.1992000576
  0
LINE
  5
3F9
100
AcDbEntity
  8
03__ASM_ALL_CURVES
100
AcDbLine
 62
40
  6
CONTINUOUS
 10
8.2241079495
 20
4.4883581826
 11
8.2297458401
 21
4.5109097451
  0
LINE
  5
3FA
100
AcDbEntity
  8
03__ASM_ALL_CURVES
100
AcDbLine
 62
40
  6
CONTINUOUS
 10
7.2915362313
 20
5.8453410576
 11
7.3065706063
 21
5.8353181433
  0
LINE
  5
3FB
100
AcDbEntity
  8
03__ASM_ALL_CURVES
100
AcDbLine
 62
40
  6
CONTINUOUS
 10
7.5396034188
 20
5.8453410576
 11
7.5546377938
 21
5.8353181433
  0
LINE
  5
3FC
100
AcDbEntity
  8
0
100
AcDbLine
 62
7
  6
CONTINUOUS
 10
7.9501774809
 20
5.2302000576
 11
7.9811774809
 21
5.1992000576
  0
LINE
  5
3FD
100
AcDbEntity
  8
03__ASM_ALL_CURVES
100
AcDbLine
 62
40
  6
CONTINUOUS
 10
7.3065706063
 20
5.8353181433
 11
7.3216049813
 21
5.8152723076
  0
LINE
  5
3FE
100
AcDbEntity
  8
03__ASM_ALL_CURVES
100
AcDbLine
 62
40
  6
CONTINUOUS
 10
8.3650552151
 20
4.5259441219
 11
8.3706931057
 21
4.5184269308
  0
LINE
  5
3FF
100
AcDbEntity
  8
03__ASM_ALL_CURVES
100
AcDbLine
 62
40
  6
CONTINUOUS
 10
7.5396034188
 20
5.7852035576
 11
7.5621549813
 21
5.7250660576
  0
LINE
  5
400
100
AcDbEntity
  8
03__ASM_ALL_CURVES
100
AcDbLine
 62
40
  6
CONTINUOUS
 10
8.1451774807
 20
4.4432550576
 11
8.1451774807
 21
4.5334613076
  0
LINE
  5
401
100
AcDbEntity
  8
03__ASM_ALL_CURVES
100
AcDbLine
 62
40
  6
CONTINUOUS
 10
8.1902806057
 20
4.5184269308
 11
8.1902806057
 21
4.5033925594
  0
LINE
  5
402
100
AcDbEntity
  8
03__ASM_ALL_CURVES
100
AcDbLine
 62
40
  6
CONTINUOUS
 10
8.3255899807
 20
4.4432550576
 11
8.3255899807
 21
4.5334613076
  0
LINE
  5
403
100
AcDbEntity
  8
03__ASM_ALL_CURVES
100
AcDbLine
 62
40
  6
CONTINUOUS
 10
8.291762637
 20
4.4883581826
 11
8.2861247464
 21
4.4658066201
  0
LINE
  5
404
100
AcDbEntity
  8
03__ASM_ALL_CURVES
100
AcDbLine
 62
40
  6
CONTINUOUS
 10
7.5546377938
 20
5.8353181433
 11
7.5621549813
 21
5.8252952219
  0
LINE
  5
405
100
AcDbEntity
  8
03__ASM_ALL_CURVES
100
AcDbLine
 62
40
  6
CONTINUOUS
 10
8.3537794339
 20
4.4883581826
 11
8.3706931057
 21
4.4432550576
  0
LINE
  5
406
100
AcDbEntity
  8
03__ASM_ALL_CURVES
100
AcDbLine
 62
40
  6
CONTINUOUS
 10
8.2297458401
 20
4.4658066201
 11
8.2241079495
 21
4.4883581826
  0
LINE
  5
407
100
AcDbEntity
  8
03__ASM_ALL_CURVES
100
AcDbLine
 62
40
  6
CONTINUOUS
 10
8.2861247464
 20
4.5109097451
 11
8.291762637
 21
4.4883581826
  0
LINE
  5
408
100
AcDbEntity
  8
03__ASM_ALL_CURVES
100
AcDbLine
 62
40
  6
CONTINUOUS
 10
8.3706931057
 20
4.5184269308
 11
8.3706931057
 21
4.5033925594
  0
LINE
  5
409
100
AcDbEntity
  8
03__ASM_ALL_CURVES
100
AcDbLine
 62
40
  6
CONTINUOUS
 10
8.4383477932
 20
4.5334613076
 11
8.4383477932
 21
4.4432550576
  0
LINE
  5
40A
100
AcDbEntity
  8
03__ASM_ALL_CURVES
100
AcDbLine
 62
40
  6
CONTINUOUS
 10
8.5285540432
 20
4.5334613076
 11
8.5285540432
 21
4.4432550576
  0
CIRCLE
  5
40B
100
AcDbEntity
  8
0
100
AcDbCircle
 62
7
  6
CONTINUOUS
 10
6.6531774809
 20
4.4192000576
 40
0.219
  0
ARC
  5
40C
100
AcDbEntity
  8
0
100
AcDbCircle
 62
7
  6
CONTINUOUS
 10
6.3181774809
 20
5.1597000576
 40
0.043
100
AcDbArc
 50
303.1280236397
 51
327.6639740024
  0
ARC
  5
40D
100
AcDbEntity
  8
0
100
AcDbCircle
 62
7
  6
CONTINUOUS
 10
6.3181774809
 20
3.6787000576
 40
0.043
100
AcDbArc
 50
32.3360259976
 51
83.3146915139
  0
ARC
  5
40E
100
AcDbEntity
  8
0
100
AcDbCircle
 62
7
  6
CONTINUOUS
 10
5.5785414521
 20
3.5252000576
 40
0.028
100
AcDbArc
 50
9.2483578148
 51
76.1357483967
  0
ARC
  5
40F
100
AcDbEntity
  8
0
100
AcDbCircle
 62
7
  6
CONTINUOUS
 10
5.5785414521
 20
5.3132000576
 40
0.028
100
AcDbArc
 50
283.8642516033
 51
350.7516421852
  0
SPLINE
  5
410
100
AcDbEntity
  8
0
100
AcDbSpline
 62
7
  6
CONTINUOUS
 70
0
 71
3
 72
95
 73
91
 74
89
 42
0.0000001
 43
0.0000001
 44
0.0000000001
 12
0.0
 22
0.1364372671
 32
1.3914948921
 13
-0.0
 23
1.4160174996
 33
0.141337305
 40
0.0
 40
0.0
 40
0.0
 40
0.0
 40
0.03125
 40
0.0625
 40
0.078125
 40
0.09375
 40
0.109375
 40
0.1171875
 40
0.12109375
 40
0.125
 40
0.12890625
 40
0.1328125
 40
0.140625
 40
0.15625
 40
0.171875
 40
0.1875
 40
0.203125
 40
0.21875
 40
0.234375
 40
0.2421875
 40
0.24609375
 40
0.25
 40
0.25390625
 40
0.2578125
 40
0.265625
 40
0.28125
 40
0.296875
 40
0.3125
 40
0.328125
 40
0.34375
 40
0.359375
 40
0.3671875
 40
0.37109375
 40
0.375
 40
0.37890625
 40
0.3828125
 40
0.390625
 40
0.40625
 40
0.421875
 40
0.4375
 40
0.453125
 40
0.46875
 40
0.484375
 40
0.4921875
 40
0.49609375
 40
0.5
 40
0.50390625
 40
0.5078125
 40
0.515625
 40
0.53125
 40
0.546875
 40
0.5625
 40
0.578125
 40
0.59375
 40
0.609375
 40
0.6171875
 40
0.62109375
 40
0.625
 40
0.62890625
 40
0.6328125
 40
0.640625
 40
0.65625
 40
0.671875
 40
0.6875
 40
0.703125
 40
0.71875
 40
0.734375
 40
0.7421875
 40
0.74609375
 40
0.75
 40
0.75390625
 40
0.7578125
 40
0.765625
 40
0.78125
 40
0.796875
 40
0.8125
 40
0.828125
 40
0.84375
 40
0.859375
 40
0.8671875
 40
0.87109375
 40
0.875
 40
0.87890625
 40
0.8828125
 40
0.890625
 40
0.90625
 40
0.921875
 40
0.9375
 40
0.96875
 40
1.0
 40
1.0
 40
1.0
 40
1.0
 10
6.1516774809
 20
3.5237000576
 30
-0.0
 10
6.1516774809
 20
3.5251212791
 30
0.0144947385
 10
6.1516774809
 20
3.5279643257
 30
0.0434840959
 10
6.1516774809
 20
3.5315151165
 30
0.0797213901
 10
6.1516774809
 20
3.5343620855
 30
0.1087099709
 10
6.1516774809
 20
3.5364801136
 30
0.1304548119
 10
6.1516774809
 20
3.538299826
 30
0.148564684
 10
6.1516774809
 20
3.5394663022
 30
0.1612628449
 10
6.1516774809
 20
3.5403004346
 30
0.1684857562
 10
6.1516774809
 20
3.5404539736
 30
0.1739964101
 10
6.1516774809
 20
3.5424119669
 30
0.1791497724
 10
6.1516774809
 20
3.5443932096
 30
0.1861455499
 10
6.1516774809
 20
3.5481536518
 30
0.1983300901
 10
6.1516774809
 20
3.5533722967
 30
0.2157669687
 10
6.1516774809
 20
3.5597007391
 30
0.2366780708
 10
6.1516774809
 20
3.5660103719
 30
0.2575931532
 10
6.1516774809
 20
3.5723291746
 30
0.278505467
 10
6.1516774809
 20
3.5786301077
 30
0.2994248748
 10
6.1516774809
 20
3.5839328088
 30
0.3168363752
 10
6.1516774809
 20
3.5875434781
 30
0.3290661345
 10
6.1516774809
 20
3.5897646631
 30
0.3359894691
 10
6.1516774809
 20
3.590985636
 30
0.341365351
 10
6.1516774809
 20
3.5939072997
 30
0.3460402588
 10
6.1516774809
 20
3.5972096302
 30
0.3525179774
 10
6.1516774809
 20
3.6032651122
 30
0.3637400583
 10
6.1516774809
 20
3.6117712052
 30
0.3798312098
 10
6.1516774809
 20
3.6220407956
 30
0.3991148802
 10
6.1516774809
 20
3.6322926241
 30
0.4184060246
 10
6.1516774809
 20
3.6425532213
 30
0.4376929845
 10
6.1516774809
 20
3.6527965055
 30
0.4569892083
 10
6.1516774809
 20
3.6613829783
 30
0.473042002
 10
6.1516774809
 20
3.6672952383
 30
0.4843324297
 10
6.1516774809
 20
3.6708270162
 30
0.490700654
 10
6.1516774809
 20
3.6730438963
 30
0.4957118903
 10
6.1516774809
 20
3.6769119177
 30
0.499824579
 10
6.1516774809
 20
3.6814933422
 30
0.5056215883
 10
6.1516774809
 20
3.6897791836
 30
0.5156203157
 10
6.1516774809
 20
3.701475734
 30
0.5299806322
 10
6.1516774809
 20
3.7155719825
 30
0.5471799981
 10
6.1516774809
 20
3.7296512645
 30
0.5643891475
 10
6.1516774809
 20
3.7437380242
 30
0.5815921766
 10
6.1516774809
 20
3.7578118398
 30
0.5988099035
 10
6.1516774809
 20
3.7695769351
 30
0.6131141167
 10
6.1516774809
 20
3.777740642
 30
0.6232128101
 10
6.1516774809
 20
3.7825177309
 30
0.6288496698
 10
6.1516774809
 20
3.7857847383
 30
0.6334542828
 10
6.1516774809
 20
3.7902589261
 30
0.6366179342
 10
6.1516774809
 20
3.7958034311
 30
0.6413387605
 10
6.1516774809
 20
3.8057025102
 30
0.6493660145
 10
6.1516774809
 20
3.8197414218
 30
0.6609560387
 10
6.1516774809
 20
3.8366322935
 30
0.6748112753
 10
6.1516774809
 20
3.853510662
 30
0.6886816522
 10
6.1516774809
 20
3.8703948656
 30
0.7025442604
 10
6.1516774809
 20
3.8872682319
 30
0.7164228028
 10
6.1516774809
 20
3.9013606321
 30
0.7279416148
 10
6.1516774809
 20
3.9111644041
 30
0.736095756
 10
6.1516774809
 20
3.9168615951
 30
0.740613304
 10
6.1516774809
 20
3.9208667841
 30
0.7444013565
 10
6.1516774809
 20
3.9258952719
 30
0.7466608235
 10
6.1516774809
 20
3.9322429838
 30
0.7502066351
 10
6.1516774809
 20
3.943517789
 30
0.7561633719
 10
6.1516774809
 20
3.9595376632
 30
0.7648029678
 10
6.1516774809
 20
3.9787989299
 30
0.7751144654
 10
6.1516774809
 20
3.9980497106
 30
0.7854420778
 10
6.1516774809
 20
4.0173050177
 30
0.7957612485
 10
6.1516774809
 20
4.0365527053
 30
0.8060980711
 10
6.1516774809
 20
4.0526140713
 30
0.8146602852
 10
6.1516774809
 20
4.0638149458
 30
0.8207549022
 10
6.1516774809
 20
4.0702810976
 30
0.824079824
 10
6.1516774809
 20
4.0749457784
 30
0.8270177883
 10
6.1516774809
 20
4.0803173656
 30
0.8282575192
 10
6.1516774809
 20
4.0872329046
 30
0.8305028576
 10
6.1516774809
 20
4.0994499865
 30
0.8341561948
 10
6.1516774809
 20
4.1168428649
 30
0.839519641
 10
6.1516774809
 20
4.137740176
 30
0.8458935581
 10
6.1516774809
 20
4.1586302125
 30
0.8522853197
 10
6.1516774809
 20
4.1795234904
 30
0.858667922
 10
6.1516774809
 20
4.2004110769
 30
0.8650693169
 10
6.1516774809
 20
4.2178336693
 30
0.8703488031
 10
6.1516774809
 20
4.2299978064
 30
0.8741517419
 10
6.1516774809
 20
4.2369981653
 30
0.8761574125
 10
6.1516774809
 20
4.2421092149
 30
0.8781333205
 10
6.1516774809
 20
4.2477524308
 30
0.8783063267
 10
6.1516774809
 20
4.2550910932
 30
0.8791658739
 10
6.1516774809
 20
4.2680202387
 30
0.8803770783
 10
6.1516774809
 20
4.2864452304
 30
0.882260556
 10
6.1516774809
 20
4.308574575
 30
0.8844551591
 10
6.1516774809
 20
4.3380736047
 30
0.8874042083
 10
6.1516774809
 20
4.3749497278
 30
0.8910826063
 10
6.1516774809
 20
4.4044499145
 30
0.8940277364
 10
6.1516774809
 20
4.4192000967
 30
0.8955
 11
6.1516774809
 21
3.5237000576
 31
-0.0
 11
6.1516774809
 21
3.5279637222
 31
0.0434842154
 11
6.1516774809
 21
3.5322273868
 31
0.0869684308
 11
6.1516774809
 21
3.5343592191
 31
0.1087105384
 11
6.1516774809
 21
3.5364910514
 31
0.1304526461
 11
6.1516774809
 21
3.5386228837
 31
0.1521947538
 11
6.1516774809
 21
3.5396887998
 31
0.1630658077
 11
6.1516774809
 21
3.5402217579
 31
0.1685013346
 11
6.1516774809
 21
3.540754716
 31
0.1739368615
 11
6.1516774809
 21
3.54233329
 31
0.1791653509
 11
6.1516774809
 21
3.543911864
 31
0.1843938403
 11
6.1516774809
 21
3.547069012
 31
0.1948508191
 11
6.1516774809
 21
3.5533833081
 31
0.2157647766
 11
6.1516774809
 21
3.5596976042
 31
0.2366787342
 11
6.1516774809
 21
3.5660119002
 31
0.2575926918
 11
6.1516774809
 21
3.5723261963
 31
0.2785066493
 11
6.1516774809
 21
3.5786404924
 31
0.2994206069
 11
6.1516774809
 21
3.5849547884
 31
0.3203345645
 11
6.1516774809
 21
3.5881119365
 31
0.3307915432
 11
6.1516774809
 21
3.5896905105
 31
0.3360200326
 11
6.1516774809
 21
3.5912690845
 31
0.341248522
 11
6.1516774809
 21
3.5938331471
 31
0.3460708223
 11
6.1516774809
 21
3.5963972096
 31
0.3508931227
 11
6.1516774809
 21
3.6015253348
 31
0.3605377233
 11
6.1516774809
 21
3.611781585
 31
0.3798269246
 11
6.1516774809
 21
3.6220378353
 31
0.3991161259
 11
6.1516774809
 21
3.6322940855
 31
0.4184053272
 11
6.1516774809
 21
3.6425503358
 31
0.4376945285
 11
6.1516774809
 21
3.652806586
 31
0.4569837298
 11
6.1516774809
 21
3.6630628363
 31
0.4762729311
 11
6.1516774809
 21
3.6681909614
 31
0.4859175317
 11
6.1516774809
 21
3.670755024
 31
0.490739832
 11
6.1516774809
 21
3.6733190865
 31
0.4955621323
 11
6.1516774809
 21
3.6768399256
 31
0.499863757
 11
6.1516774809
 21
3.6803607646
 31
0.5041653817
 11
6.1516774809
 21
3.6874024426
 31
0.5127686311
 11
6.1516774809
 21
3.7014857987
 31
0.5299751299
 11
6.1516774809
 21
3.7155691547
 31
0.5471816287
 11
6.1516774809
 21
3.7296525108
 31
0.5643881274
 11
6.1516774809
 21
3.7437358669
 31
0.5815946262
 11
6.1516774809
 21
3.7578192229
 31
0.598801125
 11
6.1516774809
 21
3.771902579
 31
0.6160076238
 11
6.1516774809
 21
3.778944257
 31
0.6246108732
 11
6.1516774809
 21
3.782465096
 31
0.6289124979
 11
6.1516774809
 21
3.785985935
 31
0.6332141226
 11
6.1516774809
 21
3.7902062913
 31
0.6366807622
 11
6.1516774809
 21
3.7944266475
 31
0.6401474019
 11
6.1516774809
 21
3.8028673599
 31
0.6470806813
 11
6.1516774809
 21
3.8197487848
 31
0.66094724
 11
6.1516774809
 21
3.8366302096
 31
0.6748137987
 11
6.1516774809
 21
3.8535116345
 31
0.6886803574
 11
6.1516774809
 21
3.8703930593
 31
0.7025469161
 11
6.1516774809
 21
3.8872744842
 31
0.7164134748
 11
6.1516774809
 21
3.9041559091
 31
0.7302800335
 11
6.1516774809
 21
3.9125966215
 31
0.7372133129
 11
6.1516774809
 21
3.9168169777
 31
0.7406799526
 11
6.1516774809
 21
3.9210373339
 31
0.7441465922
 11
6.1516774809
 21
3.9258506546
 31
0.7467274721
 11
6.1516774809
 21
3.9306639753
 31
0.7493083521
 11
6.1516774809
 21
3.9402906167
 31
0.7544701119
 11
6.1516774809
 21
3.9595438995
 31
0.7647936315
 11
6.1516774809
 21
3.9787971823
 31
0.7751171512
 11
6.1516774809
 21
3.998050465
 31
0.7854406708
 11
6.1516774809
 21
4.0173037478
 31
0.7957641905
 11
6.1516774809
 21
4.0365570306
 31
0.8060877101
 11
6.1516774809
 21
4.0558103134
 31
0.8164112298
 11
6.1516774809
 21
4.0654369548
 31
0.8215729896
 11
6.1516774809
 21
4.0702502755
 31
0.8241538695
 11
6.1516774809
 21
4.0750635962
 31
0.8267347494
 11
6.1516774809
 21
4.0802865434
 31
0.8283315647
 11
6.1516774809
 21
4.0855094907
 31
0.8299283799
 11
6.1516774809
 21
4.0959553853
 31
0.8331220104
 11
6.1516774809
 21
4.1168471744
 31
0.8395092713
 11
6.1516774809
 21
4.1377389636
 31
0.8458965322
 11
6.1516774809
 21
4.1586307527
 31
0.8522837931
 11
6.1516774809
 21
4.1795225419
 31
0.8586710541
 11
6.1516774809
 21
4.200414331
 31
0.865058315
 11
6.1516774809
 21
4.2213061201
 31
0.8714455759
 11
6.1516774809
 21
4.2317520147
 31
0.8746392064
 11
6.1516774809
 21
4.236974962
 31
0.8762360216
 11
6.1516774809
 21
4.2421979093
 31
0.8778328369
 11
6.1516774809
 21
4.2477292276
 31
0.8783849357
 11
6.1516774809
 21
4.253260546
 31
0.8789370346
 11
6.1516774809
 21
4.2643231827
 31
0.8800412323
 11
6.1516774809
 21
4.2864484561
 31
0.8822496277
 11
6.1516774809
 21
4.3085737296
 31
0.884458023
 11
6.1516774809
 21
4.330699003
 31
0.8866664184
 11
6.1516774809
 21
4.3749495499
 31
0.8910832092
 11
6.1516774809
 21
4.4192000967
 31
0.8955
  0
SPLINE
  5
411
100
AcDbEntity
  8
0
100
AcDbSpline
 62
7
  6
CONTINUOUS
 70
0
 71
3
 72
95
 73
91
 74
89
 42
0.0000001
 43
0.0000001
 44
0.0000000001
 12
0.0
 22
0.1364372671
 32
1.3914948921
 13
0.0
 23
1.4160174996
 33
0.141337305
 40
0.0
 40
0.0
 40
0.0
 40
0.0
 40
0.03125
 40
0.0625
 40
0.078125
 40
0.09375
 40
0.109375
 40
0.1171875
 40
0.12109375
 40
0.125
 40
0.12890625
 40
0.1328125
 40
0.140625
 40
0.15625
 40
0.171875
 40
0.1875
 40
0.203125
 40
0.21875
 40
0.234375
 40
0.2421875
 40
0.24609375
 40
0.25
 40
0.25390625
 40
0.2578125
 40
0.265625
 40
0.28125
 40
0.296875
 40
0.3125
 40
0.328125
 40
0.34375
 40
0.359375
 40
0.3671875
 40
0.37109375
 40
0.375
 40
0.37890625
 40
0.3828125
 40
0.390625
 40
0.40625
 40
0.421875
 40
0.4375
 40
0.453125
 40
0.46875
 40
0.484375
 40
0.4921875
 40
0.49609375
 40
0.5
 40
0.50390625
 40
0.5078125
 40
0.515625
 40
0.53125
 40
0.546875
 40
0.5625
 40
0.578125
 40
0.59375
 40
0.609375
 40
0.6171875
 40
0.62109375
 40
0.625
 40
0.62890625
 40
0.6328125
 40
0.640625
 40
0.65625
 40
0.671875
 40
0.6875
 40
0.703125
 40
0.71875
 40
0.734375
 40
0.7421875
 40
0.74609375
 40
0.75
 40
0.75390625
 40
0.7578125
 40
0.765625
 40
0.78125
 40
0.796875
 40
0.8125
 40
0.828125
 40
0.84375
 40
0.859375
 40
0.8671875
 40
0.87109375
 40
0.875
 40
0.87890625
 40
0.8828125
 40
0.890625
 40
0.90625
 40
0.921875
 40
0.9375
 40
0.96875
 40
1.0
 40
1.0
 40
1.0
 40
1.0
 10
5.6096415825
 20
3.5237000576
 30
-0.0
 10
5.6096415825
 20
3.5251212791
 30
0.0144947385
 10
5.6096415825
 20
3.5279643257
 30
0.0434840959
 10
5.6096415825
 20
3.5315151165
 30
0.0797213901
 10
5.6096415825
 20
3.5343620855
 30
0.1087099709
 10
5.6096415825
 20
3.5364801136
 30
0.1304548119
 10
5.6096415825
 20
3.538299826
 30
0.148564684
 10
5.6096415825
 20
3.5394663022
 30
0.1612628449
 10
5.6096415825
 20
3.5403004346
 30
0.1684857562
 10
5.6096415825
 20
3.5404539736
 30
0.1739964101
 10
5.6096415825
 20
3.5424119669
 30
0.1791497724
 10
5.6096415825
 20
3.5443932096
 30
0.1861455499
 10
5.6096415825
 20
3.5481536518
 30
0.1983300901
 10
5.6096415825
 20
3.5533722967
 30
0.2157669687
 10
5.6096415825
 20
3.5597007391
 30
0.2366780708
 10
5.6096415825
 20
3.5660103719
 30
0.2575931532
 10
5.6096415825
 20
3.5723291746
 30
0.278505467
 10
5.6096415825
 20
3.5786301077
 30
0.2994248748
 10
5.6096415825
 20
3.5839328088
 30
0.3168363752
 10
5.6096415825
 20
3.5875434781
 30
0.3290661345
 10
5.6096415825
 20
3.5897646631
 30
0.3359894691
 10
5.6096415825
 20
3.590985636
 30
0.341365351
 10
5.6096415825
 20
3.5939072997
 30
0.3460402588
 10
5.6096415825
 20
3.5972096302
 30
0.3525179774
 10
5.6096415825
 20
3.6032651122
 30
0.3637400583
 10
5.6096415825
 20
3.6117712052
 30
0.3798312098
 10
5.6096415825
 20
3.6220407956
 30
0.3991148802
 10
5.6096415825
 20
3.6322926241
 30
0.4184060246
 10
5.6096415825
 20
3.6425532213
 30
0.4376929845
 10
5.6096415825
 20
3.6527965055
 30
0.4569892083
 10
5.6096415825
 20
3.6613829783
 30
0.473042002
 10
5.6096415825
 20
3.6672952383
 30
0.4843324297
 10
5.6096415825
 20
3.6708270162
 30
0.490700654
 10
5.6096415825
 20
3.6730438963
 30
0.4957118903
 10
5.6096415825
 20
3.6769119177
 30
0.499824579
 10
5.6096415825
 20
3.6814933422
 30
0.5056215883
 10
5.6096415825
 20
3.6897791836
 30
0.5156203157
 10
5.6096415825
 20
3.701475734
 30
0.5299806322
 10
5.6096415825
 20
3.7155719825
 30
0.5471799981
 10
5.6096415825
 20
3.7296512645
 30
0.5643891475
 10
5.6096415825
 20
3.7437380242
 30
0.5815921766
 10
5.6096415825
 20
3.7578118398
 30
0.5988099035
 10
5.6096415825
 20
3.7695769351
 30
0.6131141167
 10
5.6096415825
 20
3.777740642
 30
0.6232128101
 10
5.6096415825
 20
3.7825177309
 30
0.6288496698
 10
5.6096415825
 20
3.7857847383
 30
0.6334542828
 10
5.6096415825
 20
3.7902589261
 30
0.6366179342
 10
5.6096415825
 20
3.7958034311
 30
0.6413387605
 10
5.6096415825
 20
3.8057025102
 30
0.6493660145
 10
5.6096415825
 20
3.8197414218
 30
0.6609560387
 10
5.6096415825
 20
3.8366322935
 30
0.6748112753
 10
5.6096415825
 20
3.853510662
 30
0.6886816522
 10
5.6096415825
 20
3.8703948656
 30
0.7025442604
 10
5.6096415825
 20
3.8872682319
 30
0.7164228028
 10
5.6096415825
 20
3.9013606321
 30
0.7279416148
 10
5.6096415825
 20
3.9111644041
 30
0.736095756
 10
5.6096415825
 20
3.9168615951
 30
0.740613304
 10
5.6096415825
 20
3.9208667841
 30
0.7444013565
 10
5.6096415825
 20
3.9258952719
 30
0.7466608235
 10
5.6096415825
 20
3.9322429838
 30
0.7502066351
 10
5.6096415825
 20
3.943517789
 30
0.7561633719
 10
5.6096415825
 20
3.9595376632
 30
0.7648029678
 10
5.6096415825
 20
3.9787989299
 30
0.7751144654
 10
5.6096415825
 20
3.9980497106
 30
0.7854420778
 10
5.6096415825
 20
4.0173050177
 30
0.7957612485
 10
5.6096415825
 20
4.0365527053
 30
0.8060980711
 10
5.6096415825
 20
4.0526140713
 30
0.8146602852
 10
5.6096415825
 20
4.0638149458
 30
0.8207549022
 10
5.6096415825
 20
4.0702810976
 30
0.824079824
 10
5.6096415825
 20
4.0749457784
 30
0.8270177883
 10
5.6096415825
 20
4.0803173656
 30
0.8282575192
 10
5.6096415825
 20
4.0872329046
 30
0.8305028576
 10
5.6096415825
 20
4.0994499865
 30
0.8341561948
 10
5.6096415825
 20
4.1168428649
 30
0.839519641
 10
5.6096415825
 20
4.137740176
 30
0.8458935581
 10
5.6096415825
 20
4.1586302125
 30
0.8522853197
 10
5.6096415825
 20
4.1795234904
 30
0.858667922
 10
5.6096415825
 20
4.2004110769
 30
0.8650693169
 10
5.6096415825
 20
4.2178336693
 30
0.8703488031
 10
5.6096415825
 20
4.2299978064
 30
0.8741517419
 10
5.6096415825
 20
4.2369981653
 30
0.8761574125
 10
5.6096415825
 20
4.2421092149
 30
0.8781333205
 10
5.6096415825
 20
4.2477524308
 30
0.8783063267
 10
5.6096415825
 20
4.2550910932
 30
0.8791658739
 10
5.6096415825
 20
4.2680202387
 30
0.8803770783
 10
5.6096415825
 20
4.2864452304
 30
0.882260556
 10
5.6096415825
 20
4.308574575
 30
0.8844551591
 10
5.6096415825
 20
4.3380736047
 30
0.8874042083
 10
5.6096415825
 20
4.3749497278
 30
0.8910826063
 10
5.6096415825
 20
4.4044499145
 30
0.8940277364
 10
5.6096415825
 20
4.4192000967
 30
0.8955
 11
5.6096415825
 21
3.5237000576
 31
-0.0
 11
5.6096415825
 21
3.5279637222
 31
0.0434842154
 11
5.6096415825
 21
3.5322273868
 31
0.0869684308
 11
5.6096415825
 21
3.5343592191
 31
0.1087105384
 11
5.6096415825
 21
3.5364910514
 31
0.1304526461
 11
5.6096415825
 21
3.5386228837
 31
0.1521947538
 11
5.6096415825
 21
3.5396887998
 31
0.1630658077
 11
5.6096415825
 21
3.5402217579
 31
0.1685013346
 11
5.6096415825
 21
3.540754716
 31
0.1739368615
 11
5.6096415825
 21
3.54233329
 31
0.1791653509
 11
5.6096415825
 21
3.543911864
 31
0.1843938403
 11
5.6096415825
 21
3.547069012
 31
0.1948508191
 11
5.6096415825
 21
3.5533833081
 31
0.2157647766
 11
5.6096415825
 21
3.5596976042
 31
0.2366787342
 11
5.6096415825
 21
3.5660119002
 31
0.2575926918
 11
5.6096415825
 21
3.5723261963
 31
0.2785066493
 11
5.6096415825
 21
3.5786404924
 31
0.2994206069
 11
5.6096415825
 21
3.5849547884
 31
0.3203345645
 11
5.6096415825
 21
3.5881119365
 31
0.3307915432
 11
5.6096415825
 21
3.5896905105
 31
0.3360200326
 11
5.6096415825
 21
3.5912690845
 31
0.341248522
 11
5.6096415825
 21
3.5938331471
 31
0.3460708223
 11
5.6096415825
 21
3.5963972096
 31
0.3508931227
 11
5.6096415825
 21
3.6015253348
 31
0.3605377233
 11
5.6096415825
 21
3.611781585
 31
0.3798269246
 11
5.6096415825
 21
3.6220378353
 31
0.3991161259
 11
5.6096415825
 21
3.6322940855
 31
0.4184053272
 11
5.6096415825
 21
3.6425503358
 31
0.4376945285
 11
5.6096415825
 21
3.652806586
 31
0.4569837298
 11
5.6096415825
 21
3.6630628363
 31
0.4762729311
 11
5.6096415825
 21
3.6681909614
 31
0.4859175317
 11
5.6096415825
 21
3.670755024
 31
0.490739832
 11
5.6096415825
 21
3.6733190865
 31
0.4955621323
 11
5.6096415825
 21
3.6768399256
 31
0.499863757
 11
5.6096415825
 21
3.6803607646
 31
0.5041653817
 11
5.6096415825
 21
3.6874024426
 31
0.5127686311
 11
5.6096415825
 21
3.7014857987
 31
0.5299751299
 11
5.6096415825
 21
3.7155691547
 31
0.5471816287
 11
5.6096415825
 21
3.7296525108
 31
0.5643881274
 11
5.6096415825
 21
3.7437358669
 31
0.5815946262
 11
5.6096415825
 21
3.7578192229
 31
0.598801125
 11
5.6096415825
 21
3.771902579
 31
0.6160076238
 11
5.6096415825
 21
3.778944257
 31
0.6246108732
 11
5.6096415825
 21
3.782465096
 31
0.6289124979
 11
5.6096415825
 21
3.785985935
 31
0.6332141226
 11
5.6096415825
 21
3.7902062913
 31
0.6366807622
 11
5.6096415825
 21
3.7944266475
 31
0.6401474019
 11
5.6096415825
 21
3.8028673599
 31
0.6470806813
 11
5.6096415825
 21
3.8197487848
 31
0.66094724
 11
5.6096415825
 21
3.8366302096
 31
0.6748137987
 11
5.6096415825
 21
3.8535116345
 31
0.6886803574
 11
5.6096415825
 21
3.8703930593
 31
0.7025469161
 11
5.6096415825
 21
3.8872744842
 31
0.7164134748
 11
5.6096415825
 21
3.9041559091
 31
0.7302800335
 11
5.6096415825
 21
3.9125966215
 31
0.7372133129
 11
5.6096415825
 21
3.9168169777
 31
0.7406799526
 11
5.6096415825
 21
3.9210373339
 31
0.7441465922
 11
5.6096415825
 21
3.9258506546
 31
0.7467274721
 11
5.6096415825
 21
3.9306639753
 31
0.7493083521
 11
5.6096415825
 21
3.9402906167
 31
0.7544701119
 11
5.6096415825
 21
3.9595438995
 31
0.7647936315
 11
5.6096415825
 21
3.9787971823
 31
0.7751171512
 11
5.6096415825
 21
3.998050465
 31
0.7854406708
 11
5.6096415825
 21
4.0173037478
 31
0.7957641905
 11
5.6096415825
 21
4.0365570306
 31
0.8060877101
 11
5.6096415825
 21
4.0558103134
 31
0.8164112298
 11
5.6096415825
 21
4.0654369548
 31
0.8215729896
 11
5.6096415825
 21
4.0702502755
 31
0.8241538695
 11
5.6096415825
 21
4.0750635962
 31
0.8267347494
 11
5.6096415825
 21
4.0802865434
 31
0.8283315647
 11
5.6096415825
 21
4.0855094907
 31
0.8299283799
 11
5.6096415825
 21
4.0959553853
 31
0.8331220104
 11
5.6096415825
 21
4.1168471744
 31
0.8395092713
 11
5.6096415825
 21
4.1377389636
 31
0.8458965322
 11
5.6096415825
 21
4.1586307527
 31
0.8522837931
 11
5.6096415825
 21
4.1795225419
 31
0.8586710541
 11
5.6096415825
 21
4.200414331
 31
0.865058315
 11
5.6096415825
 21
4.2213061201
 31
0.8714455759
 11
5.6096415825
 21
4.2317520147
 31
0.8746392064
 11
5.6096415825
 21
4.236974962
 31
0.8762360216
 11
5.6096415825
 21
4.2421979093
 31
0.8778328369
 11
5.6096415825
 21
4.2477292276
 31
0.8783849357
 11
5.6096415825
 21
4.253260546
 31
0.8789370346
 11
5.6096415825
 21
4.2643231827
 31
0.8800412323
 11
5.6096415825
 21
4.2864484561
 31
0.8822496277
 11
5.6096415825
 21
4.3085737296
 31
0.884458023
 11
5.6096415825
 21
4.330699003
 31
0.8866664184
 11
5.6096415825
 21
4.3749495499
 31
0.8910832092
 11
5.6096415825
 21
4.4192000967
 31
0.8955
  0
SPLINE
  5
412
100
AcDbEntity
  8
0
100
AcDbSpline
 62
7
  6
CONTINUOUS
 70
0
 71
3
 72
95
 73
91
 74
89
 42
0.0000001
 43
0.0000001
 44
0.0000000001
 12
0.0
 22
1.3914948921
 32
-0.1364372671
 13
0.0
 23
0.141337305
 33
-1.4160174996
 40
0.0
 40
0.0
 40
0.0
 40
0.0
 40
0.03125
 40
0.0625
 40
0.078125
 40
0.09375
 40
0.109375
 40
0.1171875
 40
0.12109375
 40
0.125
 40
0.12890625
 40
0.1328125
 40
0.140625
 40
0.15625
 40
0.171875
 40
0.1875
 40
0.203125
 40
0.21875
 40
0.234375
 40
0.2421875
 40
0.24609375
 40
0.25
 40
0.25390625
 40
0.2578125
 40
0.265625
 40
0.28125
 40
0.296875
 40
0.3125
 40
0.328125
 40
0.34375
 40
0.359375
 40
0.3671875
 40
0.37109375
 40
0.375
 40
0.37890625
 40
0.3828125
 40
0.390625
 40
0.40625
 40
0.421875
 40
0.4375
 40
0.453125
 40
0.46875
 40
0.484375
 40
0.4921875
 40
0.49609375
 40
0.5
 40
0.50390625
 40
0.5078125
 40
0.515625
 40
0.53125
 40
0.546875
 40
0.5625
 40
0.578125
 40
0.59375
 40
0.609375
 40
0.6171875
 40
0.62109375
 40
0.625
 40
0.62890625
 40
0.6328125
 40
0.640625
 40
0.65625
 40
0.671875
 40
0.6875
 40
0.703125
 40
0.71875
 40
0.734375
 40
0.7421875
 40
0.74609375
 40
0.75
 40
0.75390625
 40
0.7578125
 40
0.765625
 40
0.78125
 40
0.796875
 40
0.8125
 40
0.828125
 40
0.84375
 40
0.859375
 40
0.8671875
 40
0.87109375
 40
0.875
 40
0.87890625
 40
0.8828125
 40
0.890625
 40
0.90625
 40
0.921875
 40
0.9375
 40
0.96875
 40
1.0
 40
1.0
 40
1.0
 40
1.0
 10
5.6096415825
 20
4.4192000576
 30
0.8955
 10
5.6096415825
 20
4.4336947961
 30
0.8940787785
 10
5.6096415825
 20
4.4626841535
 30
0.8912357319
 10
5.6096415825
 20
4.4989214477
 30
0.8876849411
 10
5.6096415825
 20
4.5279100285
 30
0.8848379721
 10
5.6096415825
 20
4.5496548695
 30
0.882719944
 10
5.6096415825
 20
4.5677647416
 30
0.8809002316
 10
5.6096415825
 20
4.5804629025
 30
0.8797337554
 10
5.6096415825
 20
4.5876858138
 30
0.878899623
 10
5.6096415825
 20
4.5931964677
 30
0.878746084
 10
5.6096415825
 20
4.59834983
 30
0.8767880907
 10
5.6096415825
 20
4.6053456075
 30
0.874806848
 10
5.6096415825
 20
4.6175301477
 30
0.8710464058
 10
5.6096415825
 20
4.6349670263
 30
0.8658277609
 10
5.6096415825
 20
4.6558781284
 30
0.8594993185
 10
5.6096415825
 20
4.6767932108
 30
0.8531896857
 10
5.6096415825
 20
4.6977055246
 30
0.846870883
 10
5.6096415825
 20
4.7186249324
 30
0.8405699499
 10
5.6096415825
 20
4.7360364328
 30
0.8352672488
 10
5.6096415825
 20
4.7482661921
 30
0.8316565795
 10
5.6096415825
 20
4.7551895267
 30
0.8294353945
 10
5.6096415825
 20
4.7605654086
 30
0.8282144216
 10
5.6096415825
 20
4.7652403164
 30
0.8252927579
 10
5.6096415825
 20
4.771718035
 30
0.8219904274
 10
5.6096415825
 20
4.7829401159
 30
0.8159349454
 10
5.6096415825
 20
4.7990312674
 30
0.8074288524
 10
5.6096415825
 20
4.8183149378
 30
0.797159262
 10
5.6096415825
 20
4.8376060822
 30
0.7869074335
 10
5.6096415825
 20
4.8568930421
 30
0.7766468363
 10
5.6096415825
 20
4.8761892659
 30
0.7664035521
 10
5.6096415825
 20
4.8922420596
 30
0.7578170793
 10
5.6096415825
 20
4.9035324872
 30
0.7519048193
 10
5.6096415825
 20
4.9099007116
 30
0.7483730414
 10
5.6096415825
 20
4.9149119479
 30
0.7461561613
 10
5.6096415825
 20
4.9190246366
 30
0.7422881399
 10
5.6096415825
 20
4.9248216459
 30
0.7377067154
 10
5.6096415825
 20
4.9348203733
 30
0.729420874
 10
5.6096415825
 20
4.9491806898
 30
0.7177243236
 10
5.6096415825
 20
4.9663800557
 30
0.7036280751
 10
5.6096415825
 20
4.9835892051
 30
0.6895487931
 10
5.6096415825
 20
5.0007922342
 30
0.6754620334
 10
5.6096415825
 20
5.0180099611
 30
0.6613882178
 10
5.6096415825
 20
5.0323141743
 30
0.6496231225
 10
5.6096415825
 20
5.0424128677
 30
0.6414594156
 10
5.6096415825
 20
5.0480497274
 30
0.6366823267
 10
5.6096415825
 20
5.0526543404
 30
0.6334153193
 10
5.6096415825
 20
5.0558179918
 30
0.6289411315
 10
5.6096415825
 20
5.0605388181
 30
0.6233966265
 10
5.6096415825
 20
5.0685660721
 30
0.6134975474
 10
5.6096415825
 20
5.0801560963
 30
0.5994586358
 10
5.6096415825
 20
5.0940113329
 30
0.5825677641
 10
5.6096415825
 20
5.1078817098
 30
0.5656893956
 10
5.6096415825
 20
5.121744318
 30
0.548805192
 10
5.6096415825
 20
5.1356228604
 30
0.5319318257
 10
5.6096415825
 20
5.1471416724
 30
0.5178394255
 10
5.6096415825
 20
5.1552958136
 30
0.5080356535
 10
5.6096415825
 20
5.1598133616
 30
0.5023384625
 10
5.6096415825
 20
5.1636014141
 30
0.4983332735
 10
5.6096415825
 20
5.1658608811
 30
0.4933047857
 10
5.6096415825
 20
5.1694066927
 30
0.4869570738
 10
5.6096415825
 20
5.1753634295
 30
0.4756822686
 10
5.6096415825
 20
5.1840030254
 30
0.4596623944
 10
5.6096415825
 20
5.194314523
 30
0.4404011277
 10
5.6096415825
 20
5.2046421354
 30
0.421150347
 10
5.6096415825
 20
5.2149613061
 30
0.4018950399
 10
5.6096415825
 20
5.2252981286
 30
0.3826473523
 10
5.6096415825
 20
5.2338603428
 30
0.3665859863
 10
5.6096415825
 20
5.2399549598
 30
0.3553851118
 10
5.6096415825
 20
5.2432798816
 30
0.34891896
 10
5.6096415825
 20
5.2462178459
 30
0.3442542792
 10
5.6096415825
 20
5.2474575767
 30
0.338882692
 10
5.6096415825
 20
5.2497029152
 30
0.331967153
 10
5.6096415825
 20
5.2533562524
 30
0.3197500711
 10
5.6096415825
 20
5.2587196986
 30
0.3023571927
 10
5.6096415825
 20
5.2650936157
 30
0.2814598816
 10
5.6096415825
 20
5.2714853773
 30
0.2605698451
 10
5.6096415825
 20
5.2778679796
 30
0.2396765672
 10
5.6096415825
 20
5.2842693745
 30
0.2187889807
 10
5.6096415825
 20
5.2895488607
 30
0.2013663883
 10
5.6096415825
 20
5.2933517995
 30
0.1892022512
 10
5.6096415825
 20
5.29535747
 30
0.1822018923
 10
5.6096415825
 20
5.2973333781
 30
0.1770908427
 10
5.6096415825
 20
5.2975063843
 30
0.1714476268
 10
5.6096415825
 20
5.2983659315
 30
0.1641089644
 10
5.6096415825
 20
5.2995771358
 30
0.1511798189
 10
5.6096415825
 20
5.3014606136
 30
0.1327548272
 10
5.6096415825
 20
5.3036552166
 30
0.1106254826
 10
5.6096415825
 20
5.3066042659
 30
0.0811264529
 10
5.6096415825
 20
5.3102826639
 30
0.0442503297
 10
5.6096415825
 20
5.313227794
 30
0.0147501431
 10
5.6096415825
 20
5.3147000576
 30
-0.0000000391
 11
5.6096415825
 21
4.4192000576
 31
0.8955
 11
5.6096415825
 21
4.462684273
 31
0.8912363354
 11
5.6096415825
 21
4.5061684884
 31
0.8869726708
 11
5.6096415825
 21
4.527910596
 31
0.8848408385
 11
5.6096415825
 21
4.5496527037
 31
0.8827090062
 11
5.6096415825
 21
4.5713948114
 31
0.8805771739
 11
5.6096415825
 21
4.5822658653
 31
0.8795112578
 11
5.6096415825
 21
4.5877013922
 31
0.8789782997
 11
5.6096415825
 21
4.5931369191
 31
0.8784453416
 11
5.6096415825
 21
4.5983654085
 31
0.8768667676
 11
5.6096415825
 21
4.6035938979
 31
0.8752881936
 11
5.6096415825
 21
4.6140508767
 31
0.8721310456
 11
5.6096415825
 21
4.6349648342
 31
0.8658167495
 11
5.6096415825
 21
4.6558787918
 31
0.8595024534
 11
5.6096415825
 21
4.6767927494
 31
0.8531881574
 11
5.6096415825
 21
4.6977067069
 31
0.8468738613
 11
5.6096415825
 21
4.7186206645
 31
0.8405595652
 11
5.6096415825
 21
4.7395346221
 31
0.8342452692
 11
5.6096415825
 21
4.7499916008
 31
0.8310881211
 11
5.6096415825
 21
4.7552200902
 31
0.8295095471
 11
5.6096415825
 21
4.7604485796
 31
0.8279309731
 11
5.6096415825
 21
4.7652708799
 31
0.8253669105
 11
5.6096415825
 21
4.7700931803
 31
0.822802848
 11
5.6096415825
 21
4.7797377809
 31
0.8176747228
 11
5.6096415825
 21
4.7990269822
 31
0.8074184726
 11
5.6096415825
 21
4.8183161835
 31
0.7971622223
 11
5.6096415825
 21
4.8376053848
 31
0.7869059721
 11
5.6096415825
 21
4.8568945861
 31
0.7766497218
 11
5.6096415825
 21
4.8761837874
 31
0.7663934716
 11
5.6096415825
 21
4.8954729887
 31
0.7561372213
 11
5.6096415825
 21
4.9051175893
 31
0.7510090962
 11
5.6096415825
 21
4.9099398896
 31
0.7484450336
 11
5.6096415825
 21
4.9147621899
 31
0.7458809711
 11
5.6096415825
 21
4.9190638146
 31
0.742360132
 11
5.6096415825
 21
4.9233654393
 31
0.738839293
 11
5.6096415825
 21
4.9319686887
 31
0.731797615
 11
5.6096415825
 21
4.9491751875
 31
0.7177142589
 11
5.6096415825
 21
4.9663816863
 31
0.7036309029
 11
5.6096415825
 21
4.983588185
 31
0.6895475468
 11
5.6096415825
 21
5.0007946838
 31
0.6754641907
 11
5.6096415825
 21
5.0180011826
 31
0.6613808347
 11
5.6096415825
 21
5.0352076814
 31
0.6472974786
 11
5.6096415825
 21
5.0438109308
 31
0.6402558006
 11
5.6096415825
 21
5.0481125555
 31
0.6367349616
 11
5.6096415825
 21
5.0524141801
 31
0.6332141226
 11
5.6096415825
 21
5.0558808198
 31
0.6289937663
 11
5.6096415825
 21
5.0593474595
 31
0.6247734101
 11
5.6096415825
 21
5.0662807389
 31
0.6163326977
 11
5.6096415825
 21
5.0801472976
 31
0.5994512728
 11
5.6096415825
 21
5.0940138563
 31
0.582569848
 11
5.6096415825
 21
5.107880415
 31
0.5656884231
 11
5.6096415825
 21
5.1217469737
 31
0.5488069983
 11
5.6096415825
 21
5.1356135324
 31
0.5319255734
 11
5.6096415825
 21
5.1494800911
 31
0.5150441485
 11
5.6096415825
 21
5.1564133705
 31
0.5066034361
 11
5.6096415825
 21
5.1598800102
 31
0.5023830799
 11
5.6096415825
 21
5.1633466498
 31
0.4981627237
 11
5.6096415825
 21
5.1659275297
 31
0.493349403
 11
5.6096415825
 21
5.1685084097
 31
0.4885360823
 11
5.6096415825
 21
5.1736701695
 31
0.4789094409
 11
5.6096415825
 21
5.1839936891
 31
0.4596561581
 11
5.6096415825
 21
5.1943172088
 31
0.4404028753
 11
5.6096415825
 21
5.2046407284
 31
0.4211495926
 11
5.6096415825
 21
5.2149642481
 31
0.4018963098
 11
5.6096415825
 21
5.2252877677
 31
0.382643027
 11
5.6096415825
 21
5.2356112874
 31
0.3633897442
 11
5.6096415825
 21
5.2407730472
 31
0.3537631028
 11
5.6096415825
 21
5.2433539271
 31
0.3489497821
 11
5.6096415825
 21
5.245934807
 31
0.3441364614
 11
5.6096415825
 21
5.2475316223
 31
0.3389135142
 11
5.6096415825
 21
5.2491284375
 31
0.3336905669
 11
5.6096415825
 21
5.252322068
 31
0.3232446723
 11
5.6096415825
 21
5.2587093289
 31
0.3023528832
 11
5.6096415825
 21
5.2650965898
 31
0.281461094
 11
5.6096415825
 21
5.2714838507
 31
0.2605693049
 11
5.6096415825
 21
5.2778711117
 31
0.2396775157
 11
5.6096415825
 21
5.2842583726
 31
0.2187857266
 11
5.6096415825
 21
5.2906456335
 31
0.1978939375
 11
5.6096415825
 21
5.293839264
 31
0.1874480429
 11
5.6096415825
 21
5.2954360792
 31
0.1822250956
 11
5.6096415825
 21
5.2970328945
 31
0.1770021483
 11
5.6096415825
 21
5.2975849933
 31
0.17147083
 11
5.6096415825
 21
5.2981370922
 31
0.1659395116
 11
5.6096415825
 21
5.2992412899
 31
0.1548768749
 11
5.6096415825
 21
5.3014496853
 31
0.1327516014
 11
5.6096415825
 21
5.3036580806
 31
0.110626328
 11
5.6096415825
 21
5.305866476
 31
0.0885010546
 11
5.6096415825
 21
5.3102832668
 31
0.0442505077
 11
5.6096415825
 21
5.3147000576
 31
-0.0000000391
  0
SPLINE
  5
413
100
AcDbEntity
  8
0
100
AcDbSpline
 62
7
  6
CONTINUOUS
 70
0
 71
3
 72
95
 73
91
 74
89
 42
0.0000001
 43
0.0000001
 44
0.0000000001
 12
0.0
 22
1.3914948921
 32
-0.1364372671
 13
-0.0
 23
0.141337305
 33
-1.4160174996
 40
0.0
 40
0.0
 40
0.0
 40
0.0
 40
0.03125
 40
0.0625
 40
0.078125
 40
0.09375
 40
0.109375
 40
0.1171875
 40
0.12109375
 40
0.125
 40
0.12890625
 40
0.1328125
 40
0.140625
 40
0.15625
 40
0.171875
 40
0.1875
 40
0.203125
 40
0.21875
 40
0.234375
 40
0.2421875
 40
0.24609375
 40
0.25
 40
0.25390625
 40
0.2578125
 40
0.265625
 40
0.28125
 40
0.296875
 40
0.3125
 40
0.328125
 40
0.34375
 40
0.359375
 40
0.3671875
 40
0.37109375
 40
0.375
 40
0.37890625
 40
0.3828125
 40
0.390625
 40
0.40625
 40
0.421875
 40
0.4375
 40
0.453125
 40
0.46875
 40
0.484375
 40
0.4921875
 40
0.49609375
 40
0.5
 40
0.50390625
 40
0.5078125
 40
0.515625
 40
0.53125
 40
0.546875
 40
0.5625
 40
0.578125
 40
0.59375
 40
0.609375
 40
0.6171875
 40
0.62109375
 40
0.625
 40
0.62890625
 40
0.6328125
 40
0.640625
 40
0.65625
 40
0.671875
 40
0.6875
 40
0.703125
 40
0.71875
 40
0.734375
 40
0.7421875
 40
0.74609375
 40
0.75
 40
0.75390625
 40
0.7578125
 40
0.765625
 40
0.78125
 40
0.796875
 40
0.8125
 40
0.828125
 40
0.84375
 40
0.859375
 40
0.8671875
 40
0.87109375
 40
0.875
 40
0.87890625
 40
0.8828125
 40
0.890625
 40
0.90625
 40
0.921875
 40
0.9375
 40
0.96875
 40
1.0
 40
1.0
 40
1.0
 40
1.0
 10
6.1516774809
 20
4.4192000576
 30
0.8955
 10
6.1516774809
 20
4.4336947961
 30
0.8940787785
 10
6.1516774809
 20
4.4626841535
 30
0.8912357319
 10
6.1516774809
 20
4.4989214477
 30
0.8876849411
 10
6.1516774809
 20
4.5279100285
 30
0.8848379721
 10
6.1516774809
 20
4.5496548695
 30
0.882719944
 10
6.1516774809
 20
4.5677647416
 30
0.8809002316
 10
6.1516774809
 20
4.5804629025
 30
0.8797337554
 10
6.1516774809
 20
4.5876858138
 30
0.878899623
 10
6.1516774809
 20
4.5931964677
 30
0.878746084
 10
6.1516774809
 20
4.59834983
 30
0.8767880907
 10
6.1516774809
 20
4.6053456075
 30
0.874806848
 10
6.1516774809
 20
4.6175301477
 30
0.8710464058
 10
6.1516774809
 20
4.6349670263
 30
0.8658277609
 10
6.1516774809
 20
4.6558781284
 30
0.8594993185
 10
6.1516774809
 20
4.6767932108
 30
0.8531896857
 10
6.1516774809
 20
4.6977055246
 30
0.846870883
 10
6.1516774809
 20
4.7186249324
 30
0.8405699499
 10
6.1516774809
 20
4.7360364328
 30
0.8352672488
 10
6.1516774809
 20
4.7482661921
 30
0.8316565795
 10
6.1516774809
 20
4.7551895267
 30
0.8294353945
 10
6.1516774809
 20
4.7605654086
 30
0.8282144216
 10
6.1516774809
 20
4.7652403164
 30
0.8252927579
 10
6.1516774809
 20
4.771718035
 30
0.8219904274
 10
6.1516774809
 20
4.7829401159
 30
0.8159349454
 10
6.1516774809
 20
4.7990312674
 30
0.8074288524
 10
6.1516774809
 20
4.8183149378
 30
0.797159262
 10
6.1516774809
 20
4.8376060822
 30
0.7869074335
 10
6.1516774809
 20
4.8568930421
 30
0.7766468363
 10
6.1516774809
 20
4.8761892659
 30
0.7664035521
 10
6.1516774809
 20
4.8922420596
 30
0.7578170793
 10
6.1516774809
 20
4.9035324872
 30
0.7519048193
 10
6.1516774809
 20
4.9099007116
 30
0.7483730414
 10
6.1516774809
 20
4.9149119479
 30
0.7461561613
 10
6.1516774809
 20
4.9190246366
 30
0.7422881399
 10
6.1516774809
 20
4.9248216459
 30
0.7377067154
 10
6.1516774809
 20
4.9348203733
 30
0.729420874
 10
6.1516774809
 20
4.9491806898
 30
0.7177243236
 10
6.1516774809
 20
4.9663800557
 30
0.7036280751
 10
6.1516774809
 20
4.9835892051
 30
0.6895487931
 10
6.1516774809
 20
5.0007922342
 30
0.6754620334
 10
6.1516774809
 20
5.0180099611
 30
0.6613882178
 10
6.1516774809
 20
5.0323141743
 30
0.6496231225
 10
6.1516774809
 20
5.0424128677
 30
0.6414594156
 10
6.1516774809
 20
5.0480497274
 30
0.6366823267
 10
6.1516774809
 20
5.0526543404
 30
0.6334153193
 10
6.1516774809
 20
5.0558179918
 30
0.6289411315
 10
6.1516774809
 20
5.0605388181
 30
0.6233966265
 10
6.1516774809
 20
5.0685660721
 30
0.6134975474
 10
6.1516774809
 20
5.0801560963
 30
0.5994586358
 10
6.1516774809
 20
5.0940113329
 30
0.5825677641
 10
6.1516774809
 20
5.1078817098
 30
0.5656893956
 10
6.1516774809
 20
5.121744318
 30
0.548805192
 10
6.1516774809
 20
5.1356228604
 30
0.5319318257
 10
6.1516774809
 20
5.1471416724
 30
0.5178394255
 10
6.1516774809
 20
5.1552958136
 30
0.5080356535
 10
6.1516774809
 20
5.1598133616
 30
0.5023384625
 10
6.1516774809
 20
5.1636014141
 30
0.4983332735
 10
6.1516774809
 20
5.1658608811
 30
0.4933047857
 10
6.1516774809
 20
5.1694066927
 30
0.4869570738
 10
6.1516774809
 20
5.1753634295
 30
0.4756822686
 10
6.1516774809
 20
5.1840030254
 30
0.4596623944
 10
6.1516774809
 20
5.194314523
 30
0.4404011277
 10
6.1516774809
 20
5.2046421354
 30
0.421150347
 10
6.1516774809
 20
5.2149613061
 30
0.4018950399
 10
6.1516774809
 20
5.2252981286
 30
0.3826473523
 10
6.1516774809
 20
5.2338603428
 30
0.3665859863
 10
6.1516774809
 20
5.2399549598
 30
0.3553851118
 10
6.1516774809
 20
5.2432798816
 30
0.34891896
 10
6.1516774809
 20
5.2462178459
 30
0.3442542792
 10
6.1516774809
 20
5.2474575767
 30
0.338882692
 10
6.1516774809
 20
5.2497029152
 30
0.331967153
 10
6.1516774809
 20
5.2533562524
 30
0.3197500711
 10
6.1516774809
 20
5.2587196986
 30
0.3023571927
 10
6.1516774809
 20
5.2650936157
 30
0.2814598816
 10
6.1516774809
 20
5.2714853773
 30
0.2605698451
 10
6.1516774809
 20
5.2778679796
 30
0.2396765672
 10
6.1516774809
 20
5.2842693745
 30
0.2187889807
 10
6.1516774809
 20
5.2895488607
 30
0.2013663883
 10
6.1516774809
 20
5.2933517995
 30
0.1892022512
 10
6.1516774809
 20
5.29535747
 30
0.1822018923
 10
6.1516774809
 20
5.2973333781
 30
0.1770908427
 10
6.1516774809
 20
5.2975063843
 30
0.1714476268
 10
6.1516774809
 20
5.2983659315
 30
0.1641089644
 10
6.1516774809
 20
5.2995771358
 30
0.1511798189
 10
6.1516774809
 20
5.3014606136
 30
0.1327548272
 10
6.1516774809
 20
5.3036552166
 30
0.1106254826
 10
6.1516774809
 20
5.3066042659
 30
0.0811264529
 10
6.1516774809
 20
5.3102826639
 30
0.0442503297
 10
6.1516774809
 20
5.313227794
 30
0.0147501431
 10
6.1516774809
 20
5.3147000576
 30
-0.0000000391
 11
6.1516774809
 21
4.4192000576
 31
0.8955
 11
6.1516774809
 21
4.462684273
 31
0.8912363354
 11
6.1516774809
 21
4.5061684884
 31
0.8869726708
 11
6.1516774809
 21
4.527910596
 31
0.8848408385
 11
6.1516774809
 21
4.5496527037
 31
0.8827090062
 11
6.1516774809
 21
4.5713948114
 31
0.8805771739
 11
6.1516774809
 21
4.5822658653
 31
0.8795112578
 11
6.1516774809
 21
4.5877013922
 31
0.8789782997
 11
6.1516774809
 21
4.5931369191
 31
0.8784453416
 11
6.1516774809
 21
4.5983654085
 31
0.8768667676
 11
6.1516774809
 21
4.6035938979
 31
0.8752881936
 11
6.1516774809
 21
4.6140508767
 31
0.8721310456
 11
6.1516774809
 21
4.6349648342
 31
0.8658167495
 11
6.1516774809
 21
4.6558787918
 31
0.8595024534
 11
6.1516774809
 21
4.6767927494
 31
0.8531881574
 11
6.1516774809
 21
4.6977067069
 31
0.8468738613
 11
6.1516774809
 21
4.7186206645
 31
0.8405595652
 11
6.1516774809
 21
4.7395346221
 31
0.8342452692
 11
6.1516774809
 21
4.7499916008
 31
0.8310881211
 11
6.1516774809
 21
4.7552200902
 31
0.8295095471
 11
6.1516774809
 21
4.7604485796
 31
0.8279309731
 11
6.1516774809
 21
4.7652708799
 31
0.8253669105
 11
6.1516774809
 21
4.7700931803
 31
0.822802848
 11
6.1516774809
 21
4.7797377809
 31
0.8176747228
 11
6.1516774809
 21
4.7990269822
 31
0.8074184726
 11
6.1516774809
 21
4.8183161835
 31
0.7971622223
 11
6.1516774809
 21
4.8376053848
 31
0.7869059721
 11
6.1516774809
 21
4.8568945861
 31
0.7766497218
 11
6.1516774809
 21
4.8761837874
 31
0.7663934716
 11
6.1516774809
 21
4.8954729887
 31
0.7561372213
 11
6.1516774809
 21
4.9051175893
 31
0.7510090962
 11
6.1516774809
 21
4.9099398896
 31
0.7484450336
 11
6.1516774809
 21
4.9147621899
 31
0.7458809711
 11
6.1516774809
 21
4.9190638146
 31
0.742360132
 11
6.1516774809
 21
4.9233654393
 31
0.738839293
 11
6.1516774809
 21
4.9319686887
 31
0.731797615
 11
6.1516774809
 21
4.9491751875
 31
0.7177142589
 11
6.1516774809
 21
4.9663816863
 31
0.7036309029
 11
6.1516774809
 21
4.983588185
 31
0.6895475468
 11
6.1516774809
 21
5.0007946838
 31
0.6754641907
 11
6.1516774809
 21
5.0180011826
 31
0.6613808347
 11
6.1516774809
 21
5.0352076814
 31
0.6472974786
 11
6.1516774809
 21
5.0438109308
 31
0.6402558006
 11
6.1516774809
 21
5.0481125555
 31
0.6367349616
 11
6.1516774809
 21
5.0524141801
 31
0.6332141226
 11
6.1516774809
 21
5.0558808198
 31
0.6289937663
 11
6.1516774809
 21
5.0593474595
 31
0.6247734101
 11
6.1516774809
 21
5.0662807389
 31
0.6163326977
 11
6.1516774809
 21
5.0801472976
 31
0.5994512728
 11
6.1516774809
 21
5.0940138563
 31
0.582569848
 11
6.1516774809
 21
5.107880415
 31
0.5656884231
 11
6.1516774809
 21
5.1217469737
 31
0.5488069983
 11
6.1516774809
 21
5.1356135324
 31
0.5319255734
 11
6.1516774809
 21
5.1494800911
 31
0.5150441485
 11
6.1516774809
 21
5.1564133705
 31
0.5066034361
 11
6.1516774809
 21
5.1598800102
 31
0.5023830799
 11
6.1516774809
 21
5.1633466498
 31
0.4981627237
 11
6.1516774809
 21
5.1659275297
 31
0.493349403
 11
6.1516774809
 21
5.1685084097
 31
0.4885360823
 11
6.1516774809
 21
5.1736701695
 31
0.4789094409
 11
6.1516774809
 21
5.1839936891
 31
0.4596561581
 11
6.1516774809
 21
5.1943172088
 31
0.4404028753
 11
6.1516774809
 21
5.2046407284
 31
0.4211495926
 11
6.1516774809
 21
5.2149642481
 31
0.4018963098
 11
6.1516774809
 21
5.2252877677
 31
0.382643027
 11
6.1516774809
 21
5.2356112874
 31
0.3633897442
 11
6.1516774809
 21
5.2407730472
 31
0.3537631028
 11
6.1516774809
 21
5.2433539271
 31
0.3489497821
 11
6.1516774809
 21
5.245934807
 31
0.3441364614
 11
6.1516774809
 21
5.2475316223
 31
0.3389135142
 11
6.1516774809
 21
5.2491284375
 31
0.3336905669
 11
6.1516774809
 21
5.252322068
 31
0.3232446723
 11
6.1516774809
 21
5.2587093289
 31
0.3023528832
 11
6.1516774809
 21
5.2650965898
 31
0.281461094
 11
6.1516774809
 21
5.2714838507
 31
0.2605693049
 11
6.1516774809
 21
5.2778711117
 31
0.2396775157
 11
6.1516774809
 21
5.2842583726
 31
0.2187857266
 11
6.1516774809
 21
5.2906456335
 31
0.1978939375
 11
6.1516774809
 21
5.293839264
 31
0.1874480429
 11
6.1516774809
 21
5.2954360792
 31
0.1822250956
 11
6.1516774809
 21
5.2970328945
 31
0.1770021483
 11
6.1516774809
 21
5.2975849933
 31
0.17147083
 11
6.1516774809
 21
5.2981370922
 31
0.1659395116
 11
6.1516774809
 21
5.2992412899
 31
0.1548768749
 11
6.1516774809
 21
5.3014496853
 31
0.1327516014
 11
6.1516774809
 21
5.3036580806
 31
0.110626328
 11
6.1516774809
 21
5.305866476
 31
0.0885010546
 11
6.1516774809
 21
5.3102832668
 31
0.0442505077
 11
6.1516774809
 21
5.3147000576
 31
-0.0000000391
  0
SPLINE
  5
414
100
AcDbEntity
  8
0
100
AcDbSpline
 62
7
  6
CONTINUOUS
 70
0
 71
3
 72
15
 73
11
 74
9
 42
0.0000001
 43
0.0000001
 44
0.0000000001
 12
0.0
 22
0.1617702498
 32
0.0
 13
-0.0
 23
-0.1617702498
 33
0.0
 40
0.0
 40
0.0
 40
0.0
 40
0.0
 40
0.125
 40
0.25
 40
0.375
 40
0.5
 40
0.625
 40
0.75
 40
0.875
 40
1.0
 40
1.0
 40
1.0
 40
1.0
 10
7.7891774809
 20
5.1942000576
 30
0.0
 10
7.7891774809
 20
5.2009404847
 30
0.0
 10
7.7864959723
 20
5.2144213388
 30
0.0
 10
7.7750415366
 20
5.2315641133
 30
0.0
 10
7.7578987621
 20
5.243018549
 30
0.0
 10
7.7376774809
 20
5.2470408119
 30
0.0
 10
7.7174561997
 20
5.243018549
 30
0.0
 10
7.7003134252
 20
5.2315641133
 30
0.0
 10
7.6888589895
 20
5.2144213388
 30
0.0
 10
7.6861774809
 20
5.2009404847
 30
0.0
 10
7.6861774809
 20
5.1942000576
 30
0.0
 11
7.7891774809
 21
5.1942000576
 31
0.0
 11
7.7852572768
 21
5.2139082544
 31
0.0
 11
7.7740934801
 21
5.2306160568
 31
0.0
 11
7.7573856777
 21
5.2417798535
 31
0.0
 11
7.7376774809
 21
5.2457000576
 31
0.0
 11
7.7179692841
 21
5.2417798535
 31
0.0
 11
7.7012614817
 21
5.2306160568
 31
0.0
 11
7.690097685
 21
5.2139082544
 31
0.0
 11
7.6861774809
 21
5.1942000576
 31
0.0
  0
SPLINE
  5
415
100
AcDbEntity
  8
0
100
AcDbSpline
 62
7
  6
CONTINUOUS
 70
0
 71
3
 72
15
 73
11
 74
9
 42
0.0000001
 43
0.0000001
 44
0.0000000001
 12
0.0
 22
-0.1617702498
 32
0.0
 13
-0.0
 23
0.1617702498
 33
0.0
 40
0.0
 40
0.0
 40
0.0
 40
0.0
 40
0.125
 40
0.25
 40
0.375
 40
0.5
 40
0.625
 40
0.75
 40
0.875
 40
1.0
 40
1.0
 40
1.0
 40
1.0
 10
7.7891774809
 20
3.6442000576
 30
0.0
 10
7.7891774809
 20
3.6374596305
 30
0.0
 10
7.7864959723
 20
3.6239787764
 30
0.0
 10
7.7750415366
 20
3.6068360019
 30
0.0
 10
7.7578987621
 20
3.5953815662
 30
0.0
 10
7.7376774809
 20
3.5913593033
 30
0.0
 10
7.7174561997
 20
3.5953815662
 30
0.0
 10
7.7003134252
 20
3.6068360019
 30
0.0
 10
7.6888589895
 20
3.6239787764
 30
0.0
 10
7.6861774809
 20
3.6374596305
 30
0.0
 10
7.6861774809
 20
3.6442000576
 30
0.0
 11
7.7891774809
 21
3.6442000576
 31
0.0
 11
7.7852572768
 21
3.6244918608
 31
0.0
 11
7.7740934801
 21
3.6077840584
 31
0.0
 11
7.7573856777
 21
3.5966202617
 31
0.0
 11
7.7376774809
 21
3.5927000576
 31
0.0
 11
7.7179692841
 21
3.5966202617
 31
0.0
 11
7.7012614817
 21
3.6077840584
 31
0.0
 11
7.690097685
 21
3.6244918608
 31
0.0
 11
7.6861774809
 21
3.6442000576
 31
0.0
  0
SPLINE
  5
416
100
AcDbEntity
  8
0
100
AcDbSpline
 62
7
  6
CONTINUOUS
 70
0
 71
3
 72
15
 73
11
 74
9
 42
0.0000001
 43
0.0000001
 44
0.0000000001
 12
0.0
 22
0.1617702498
 32
0.0
 13
0.0
 23
-0.1617702498
 33
0.0
 40
0.0
 40
0.0
 40
0.0
 40
0.0
 40
0.125
 40
0.25
 40
0.375
 40
0.5
 40
0.625
 40
0.75
 40
0.875
 40
1.0
 40
1.0
 40
1.0
 40
1.0
 10
5.5351774809
 20
5.3367000576
 30
0.0
 10
5.5351774809
 20
5.3434404847
 30
0.0
 10
5.5324959723
 20
5.3569213388
 30
0.0
 10
5.5210415366
 20
5.3740641133
 30
0.0
 10
5.5038987621
 20
5.385518549
 30
0.0
 10
5.4836774809
 20
5.3895408119
 30
0.0
 10
5.4634561997
 20
5.385518549
 30
0.0
 10
5.4463134252
 20
5.3740641133
 30
0.0
 10
5.4348589895
 20
5.3569213388
 30
0.0
 10
5.4321774809
 20
5.3434404847
 30
0.0
 10
5.4321774809
 20
5.3367000576
 30
0.0
 11
5.5351774809
 21
5.3367000576
 31
0.0
 11
5.5312572768
 21
5.3564082544
 31
0.0
 11
5.5200934801
 21
5.3731160568
 31
0.0
 11
5.5033856777
 21
5.3842798535
 31
0.0
 11
5.4836774809
 21
5.3882000576
 31
0.0
 11
5.4639692841
 21
5.3842798535
 31
0.0
 11
5.4472614817
 21
5.3731160568
 31
0.0
 11
5.436097685
 21
5.3564082544
 31
0.0
 11
5.4321774809
 21
5.3367000576
 31
0.0
  0
SPLINE
  5
417
100
AcDbEntity
  8
0
100
AcDbSpline
 62
7
  6
CONTINUOUS
 70
0
 71
3
 72
15
 73
11
 74
9
 42
0.0000001
 43
0.0000001
 44
0.0000000001
 12
0.0
 22
-0.1617702498
 32
0.0
 13
-0.0
 23
0.1617702498
 33
0.0
 40
0.0
 40
0.0
 40
0.0
 40
0.0
 40
0.125
 40
0.25
 40
0.375
 40
0.5
 40
0.625
 40
0.75
 40
0.875
 40
1.0
 40
1.0
 40
1.0
 40
1.0
 10
5.5351774809
 20
3.5017000576
 30
0.0
 10
5.5351774809
 20
3.4949596305
 30
0.0
 10
5.5324959723
 20
3.4814787764
 30
0.0
 10
5.5210415366
 20
3.4643360019
 30
0.0
 10
5.5038987621
 20
3.4528815662
 30
0.0
 10
5.4836774809
 20
3.4488593033
 30
0.0
 10
5.4634561997
 20
3.4528815662
 30
0.0
 10
5.4463134252
 20
3.4643360019
 30
0.0
 10
5.4348589895
 20
3.4814787764
 30
0.0
 10
5.4321774809
 20
3.4949596305
 30
0.0
 10
5.4321774809
 20
3.5017000576
 30
0.0
 11
5.5351774809
 21
3.5017000576
 31
0.0
 11
5.5312572768
 21
3.4819918608
 31
0.0
 11
5.5200934801
 21
3.4652840584
 31
0.0
 11
5.5033856777
 21
3.4541202617
 31
0.0
 11
5.4836774809
 21
3.4502000576
 31
0.0
 11
5.4639692841
 21
3.4541202617
 31
0.0
 11
5.4472614817
 21
3.4652840584
 31
0.0
 11
5.436097685
 21
3.4819918608
 31
0.0
 11
5.4321774809
 21
3.5017000576
 31
0.0
  0
SPLINE
  5
418
100
AcDbEntity
  8
0
100
AcDbSpline
 62
7
  6
CONTINUOUS
 70
0
 71
3
 72
15
 73
11
 74
9
 42
0.0000001
 43
0.0000001
 44
0.0000000001
 12
0.0
 22
0.1617702498
 32
0.0
 13
-0.0
 23
-0.1617702498
 33
0.0
 40
0.0
 40
0.0
 40
0.0
 40
0.0
 40
0.125
 40
0.25
 40
0.375
 40
0.5
 40
0.625
 40
0.75
 40
0.875
 40
1.0
 40
1.0
 40
1.0
 40
1.0
 10
4.4761774809
 20
5.4122000576
 30
0.0
 10
4.4761774809
 20
5.4189404847
 30
0.0
 10
4.4734959723
 20
5.4324213388
 30
0.0
 10
4.4620415366
 20
5.4495641133
 30
0.0
 10
4.4448987621
 20
5.461018549
 30
0.0
 10
4.4246774809
 20
5.4650408119
 30
0.0
 10
4.4044561997
 20
5.461018549
 30
0.0
 10
4.3873134252
 20
5.4495641133
 30
0.0
 10
4.3758589895
 20
5.4324213388
 30
0.0
 10
4.3731774809
 20
5.4189404847
 30
0.0
 10
4.3731774809
 20
5.4122000576
 30
0.0
 11
4.4761774809
 21
5.4122000576
 31
0.0
 11
4.4722572768
 21
5.4319082544
 31
0.0
 11
4.4610934801
 21
5.4486160568
 31
0.0
 11
4.4443856777
 21
5.4597798535
 31
0.0
 11
4.4246774809
 21
5.4637000576
 31
0.0
 11
4.4049692841
 21
5.4597798535
 31
0.0
 11
4.3882614817
 21
5.4486160568
 31
0.0
 11
4.377097685
 21
5.4319082544
 31
0.0
 11
4.3731774809
 21
5.4122000576
 31
0.0
  0
SPLINE
  5
419
100
AcDbEntity
  8
0
100
AcDbSpline
 62
7
  6
CONTINUOUS
 70
0
 71
3
 72
15
 73
11
 74
9
 42
0.0000001
 43
0.0000001
 44
0.0000000001
 12
0.0
 22
-0.1617702498
 32
0.0
 13
-0.0
 23
0.1617702498
 33
0.0
 40
0.0
 40
0.0
 40
0.0
 40
0.0
 40
0.125
 40
0.25
 40
0.375
 40
0.5
 40
0.625
 40
0.75
 40
0.875
 40
1.0
 40
1.0
 40
1.0
 40
1.0
 10
4.4761774809
 20
3.4262000576
 30
0.0
 10
4.4761774809
 20
3.4194596305
 30
0.0
 10
4.4734959723
 20
3.4059787764
 30
0.0
 10
4.4620415366
 20
3.3888360019
 30
0.0
 10
4.4448987621
 20
3.3773815662
 30
0.0
 10
4.4246774809
 20
3.3733593033
 30
0.0
 10
4.4044561997
 20
3.3773815662
 30
0.0
 10
4.3873134252
 20
3.3888360019
 30
0.0
 10
4.3758589895
 20
3.4059787764
 30
0.0
 10
4.3731774809
 20
3.4194596305
 30
0.0
 10
4.3731774809
 20
3.4262000576
 30
0.0
 11
4.4761774809
 21
3.4262000576
 31
0.0
 11
4.4722572768
 21
3.4064918608
 31
0.0
 11
4.4610934801
 21
3.3897840584
 31
0.0
 11
4.4443856777
 21
3.3786202617
 31
0.0
 11
4.4246774809
 21
3.3747000576
 31
0.0
 11
4.4049692841
 21
3.3786202617
 31
0.0
 11
4.3882614817
 21
3.3897840584
 31
0.0
 11
4.377097685
 21
3.4064918608
 31
0.0
 11
4.3731774809
 21
3.4262000576
 31
0.0
  0
SPLINE
  5
41A
100
AcDbEntity
  8
0
100
AcDbSpline
 62
7
  6
CONTINUOUS
 70
0
 71
3
 72
8
 73
4
 74
2
 42
0.0000001
 43
0.0000001
 44
0.0000000001
 12
-0.001126709
 22
-0.0007728896
 32
0.0
 13
-0.0011507107
 23
-0.000737169
 33
0.0
 40
0.0
 40
0.0
 40
0.0
 40
0.0
 40
1.0
 40
1.0
 40
1.0
 40
1.0
 10
6.3416774809
 20
5.1236896424
 30
0.0
 10
6.3413019112
 20
5.1234320126
 30
0.0
 10
6.3409222524
 20
5.123180257
 30
0.0
 10
6.3405386821
 20
5.122934534
 30
0.0
 11
6.3416774809
 21
5.1236896424
 31
0.0
 11
6.3405386821
 21
5.122934534
 31
0.0
  0
SPLINE
  5
41B
100
AcDbEntity
  8
0
100
AcDbSpline
 62
7
  6
CONTINUOUS
 70
0
 71
3
 72
11
 73
7
 74
5
 42
0.0000001
 43
0.0000001
 44
0.0000000001
 12
-0.0156614839
 22
-0.0100330699
 32
0.0
 13
-0.0184784362
 23
-0.0023037772
 33
0.0
 40
0.0
 40
0.0
 40
0.0
 40
0.0
 40
0.2109009568
 40
0.518225354
 40
0.8796991786
 40
1.0
 40
1.0
 40
1.0
 40
1.0
 10
6.3405386821
 20
5.122934534
 30
0.0
 10
6.3394376748
 20
5.122229206
 30
0.0
 10
6.3366530945
 20
5.1206182085
 30
0.0
 10
6.3316390175
 20
5.1184312981
 30
0.0
 10
6.3268926752
 20
5.1171601138
 30
0.0
 10
6.3239354589
 20
5.1167084792
 30
0.0
 10
6.3231944685
 20
5.1166160971
 30
0.0
 11
6.3405386821
 21
5.122934534
 31
0.0
 11
6.3371431863
 21
5.120971405
 31
0.0
 11
6.3319031542
 21
5.1186894867
 31
0.0
 11
6.32540861
 21
5.1169542601
 31
0.0
 11
6.3231944685
 21
5.1166160971
 31
0.0
  0
SPLINE
  5
41C
100
AcDbEntity
  8
0
100
AcDbSpline
 62
7
  6
CONTINUOUS
 70
0
 71
3
 72
24
 73
20
 74
18
 42
0.0000001
 43
0.0000001
 44
0.0000000001
 12
-0.4255503878
 22
-0.1298892859
 32
0.0
 13
-0.4255503901
 23
0.1298892864
 33
0.0
 40
0.0
 40
0.0
 40
0.0
 40
0.0
 40
0.0088269448
 40
0.0349154276
 40
0.0768348376
 40
0.1330331085
 40
0.201051776
 40
0.2791793998
 40
0.3642611705
 40
0.4544338374
 40
0.5456621042
 40
0.6358733113
 40
0.7210071409
 40
0.799148569
 40
0.8671479009
 40
0.9232831389
 40
0.9651434776
 40
0.9911879517
 40
1.0
 40
1.0
 40
1.0
 40
1.0
 10
6.8721774809
 20
5.1367000576
 30
0.0
 10
6.8709253776
 20
5.1363178824
 30
0.0
 10
6.8659693267
 20
5.1348169214
 30
0.0
 10
6.8550345649
 20
5.1316084495
 30
0.0
 10
6.8372701373
 20
5.1267283279
 30
0.0
 10
6.8133454334
 20
5.1208193395
 30
0.0
 10
6.7839728616
 20
5.1146311132
 30
0.0
 10
6.7501321284
 20
5.108999122
 30
0.0
 10
6.7127826543
 20
5.104691266
 30
0.0
 10
6.6733067047
 20
5.102359939
 30
0.0
 10
6.6329998526
 20
5.1023612008
 30
0.0
 10
6.5935106373
 20
5.104696265
 30
0.0
 10
6.5561461886
 20
5.1090096707
 30
0.0
 10
6.5222993002
 20
5.1146467289
 30
0.0
 10
6.4929373596
 20
5.1208360472
 30
0.0
 10
6.4690335102
 20
5.1267419313
 30
0.0
 10
6.4512930671
 20
5.1316163344
 30
0.0
 10
6.4403751552
 20
5.1348200805
 30
0.0
 10
6.4354274711
 20
5.1363185274
 30
0.0
 10
6.4341774809
 20
5.1367000576
 30
0.0
 11
6.8721774809
 21
5.1367000576
 31
0.0
 11
6.8684186789
 21
5.1355617144
 31
0.0
 11
6.8572804546
 21
5.1322942126
 31
0.0
 11
6.8392947531
 21
5.1273560355
 31
0.0
 11
6.8150182875
 21
5.1213664885
 31
0.0
 11
6.7854025852
 21
5.1151373595
 31
0.0
 11
6.7511105542
 21
5.109443592
 31
0.0
 11
6.7135027858
 21
5.1051187061
 31
0.0
 11
6.6734513539
 21
5.1027615252
 31
0.0
 11
6.6328609469
 21
5.1027627918
 31
0.0
 11
6.5927925718
 21
5.1051239508
 31
0.0
 11
6.5551622266
 21
5.1094552568
 31
0.0
 11
6.5208647966
 21
5.1151540047
 31
0.0
 11
6.4912581904
 21
5.1213845822
 31
0.0
 11
6.4670094396
 21
5.1273693803
 31
0.0
 11
6.4490493099
 21
5.132301425
 31
0.0
 11
6.4379299353
 21
5.1355636216
 31
0.0
 11
6.4341774809
 21
5.1367000576
 31
0.0
  0
SPLINE
  5
41D
100
AcDbEntity
  8
0
100
AcDbSpline
 62
7
  6
CONTINUOUS
 70
0
 71
3
 72
24
 73
20
 74
18
 42
0.0000001
 43
0.0000001
 44
0.0000000001
 12
0.4255503878
 22
0.1298892859
 32
0.0
 13
0.4255503901
 23
-0.1298892864
 33
0.0
 40
0.0
 40
0.0
 40
0.0
 40
0.0
 40
0.0088269448
 40
0.0349154276
 40
0.0768348376
 40
0.1330331085
 40
0.201051776
 40
0.2791793998
 40
0.3642611705
 40
0.4544338374
 40
0.5456621042
 40
0.6358733113
 40
0.7210071409
 40
0.799148569
 40
0.8671479009
 40
0.9232831389
 40
0.9651434776
 40
0.9911879517
 40
1.0
 40
1.0
 40
1.0
 40
1.0
 10
6.4341774809
 20
3.7017000576
 30
0.0
 10
6.4354295841
 20
3.7020822328
 30
0.0
 10
6.440385635
 20
3.7035831938
 30
0.0
 10
6.4513203969
 20
3.7067916657
 30
0.0
 10
6.4690848245
 20
3.7116717872
 30
0.0
 10
6.4930095283
 20
3.7175807757
 30
0.0
 10
6.5223821002
 20
3.723769002
 30
0.0
 10
6.5562228334
 20
3.7294009932
 30
0.0
 10
6.5935723075
 20
3.7337088492
 30
0.0
 10
6.6330482571
 20
3.7360401762
 30
0.0
 10
6.6733551092
 20
3.7360389144
 30
0.0
 10
6.7128443244
 20
3.7337038502
 30
0.0
 10
6.7502087732
 20
3.7293904445
 30
0.0
 10
6.7840556615
 20
3.7237533863
 30
0.0
 10
6.8134176021
 20
3.717564068
 30
0.0
 10
6.8373214515
 20
3.7116581838
 30
0.0
 10
6.8550618946
 20
3.7067837808
 30
0.0
 10
6.8659798066
 20
3.7035800347
 30
0.0
 10
6.8709274907
 20
3.7020815878
 30
0.0
 10
6.8721774809
 20
3.7017000576
 30
0.0
 11
6.4341774809
 21
3.7017000576
 31
0.0
 11
6.4379362829
 21
3.7028384008
 31
0.0
 11
6.4490745072
 21
3.7061059026
 31
0.0
 11
6.4670602087
 21
3.7110440797
 31
0.0
 11
6.4913366742
 21
3.7170336267
 31
0.0
 11
6.5209523766
 21
3.7232627557
 31
0.0
 11
6.5552444076
 21
3.7289565232
 31
0.0
 11
6.592852176
 21
3.7332814091
 31
0.0
 11
6.6329036079
 21
3.73563859
 31
0.0
 11
6.6734940149
 21
3.7356373234
 31
0.0
 11
6.71356239
 21
3.7332761644
 31
0.0
 11
6.7511927352
 21
3.7289448584
 31
0.0
 11
6.7854901652
 21
3.7232461105
 31
0.0
 11
6.8150967713
 21
3.717015533
 31
0.0
 11
6.8393455221
 21
3.7110307349
 31
0.0
 11
6.8573056519
 21
3.7060986902
 31
0.0
 11
6.8684250265
 21
3.7028364936
 31
0.0
 11
6.8721774809
 21
3.7017000576
 31
0.0
  0
SPLINE
  5
41E
100
AcDbEntity
  8
129-300_FEATURES
100
AcDbSpline
 62
7
  6
CONTINUOUS
 70
0
 71
3
 72
13
 73
9
 74
7
 42
0.0000001
 43
0.0000001
 44
0.0000000001
 12
0.0311851685
 22
-0.0540650789
 32
0.0
 13
0.0302032228
 23
-0.0546197098
 33
0.0
 40
0.0
 40
0.0
 40
0.0
 40
0.0
 40
0.2810690972
 40
0.5252314406
 40
0.7266588125
 40
0.8766747251
 40
0.9696752679
 40
1.0
 40
1.0
 40
1.0
 40
1.0
 10
5.1930294232
 20
3.5144198776
 30
0.0
 10
5.1959511522
 20
3.5093545367
 30
0.0
 10
5.2013841688
 20
3.4998734954
 30
0.0
 10
5.2088355146
 20
3.4867193354
 30
0.0
 10
5.2148999224
 20
3.4759132534
 30
0.0
 10
5.2194008893
 20
3.4678361114
 30
0.0
 10
5.2221590351
 20
3.4628629465
 30
0.0
 10
5.2234011929
 20
3.4606179208
 30
0.0
 10
5.2237064945
 20
3.4600658115
 30
0.0
 11
5.1930294232
 21
3.5144198776
 31
0.0
 11
5.2017524291
 21
3.4991996021
 31
0.0
 11
5.2092640519
 21
3.4859402824
 31
0.0
 11
5.2154170715
 21
3.4749769642
 31
0.0
 11
5.219974896
 21
3.4667980491
 31
0.0
 11
5.2227901826
 21
3.4617219143
 31
0.0
 11
5.2237064945
 21
3.4600658115
 31
0.0
  0
SPLINE
  5
41F
100
AcDbEntity
  8
129-300_FEATURES
100
AcDbSpline
 62
7
  6
CONTINUOUS
 70
0
 71
3
 72
13
 73
9
 74
7
 42
0.0000001
 43
0.0000001
 44
0.0000000001
 12
0.0499783925
 22
0.0023938658
 32
0.0
 13
0.050035691
 23
0.0000216771
 33
0.0
 40
0.0
 40
0.0
 40
0.0
 40
0.0
 40
0.0316750077
 40
0.1276807844
 40
0.2838368029
 40
0.4888071979
 40
0.7345127952
 40
1.0
 40
1.0
 40
1.0
 40
1.0
 10
5.1430130679
 20
3.5132000576
 30
0.0
 10
5.1435407565
 20
3.5132253328
 30
0.0
 10
5.1456679246
 20
3.5133256675
 30
0.0
 10
5.150397309
 20
3.5135348043
 30
0.0
 10
5.1580160801
 20
3.5138271018
 30
0.0
 10
5.1681328064
 20
3.514129602
 30
0.0
 10
5.1800754372
 20
3.5143590198
 30
0.0
 10
5.1886014779
 20
3.5144179593
 30
0.0
 10
5.1930294232
 20
3.5144198776
 30
0.0
 11
5.1430130679
 21
3.5132000576
 31
0.0
 11
5.1445961888
 21
3.5132747297
 31
0.0
 11
5.1493952158
 21
3.513486924
 31
0.0
 11
5.1572028504
 21
3.5137863733
 31
0.0
 11
5.1674541113
 21
3.5140926886
 31
0.0
 11
5.1797459007
 21
3.5143284673
 31
0.0
 11
5.1930294232
 21
3.5144198776
 31
0.0
  0
SPLINE
  5
420
100
AcDbEntity
  8
0
100
AcDbSpline
 62
7
  6
CONTINUOUS
 70
0
 71
3
 72
15
 73
11
 74
9
 42
0.0000001
 43
0.0000001
 44
0.0000000001
 12
-0.2213747391
 22
0.4040882383
 32
0.0
 13
0.2213747391
 23
0.4040882383
 33
0.0
 40
0.0
 40
0.0
 40
0.0
 40
0.0
 40
0.1363385306
 40
0.2625242499
 40
0.3826814249
 40
0.5000474403
 40
0.6174094987
 40
0.7375563123
 40
0.8636900968
 40
1.0
 40
1.0
 40
1.0
 40
1.0
 10
3.1411501121
 20
3.496595399
 30
0.0
 10
3.1310894766
 20
3.5149596646
 30
0.0
 10
3.1131422731
 20
3.5511434403
 30
0.0
 10
3.0927208253
 20
3.6063941581
 30
0.0
 10
3.0801966459
 20
3.6610172007
 30
0.0
 10
3.0759504606
 20
3.7155714482
 30
0.0
 10
3.0802031651
 20
3.7701235458
 30
0.0
 10
3.0927304345
 20
3.8247353295
 30
0.0
 10
3.1131496013
 20
3.8799718056
 30
0.0
 10
3.131091589
 20
3.9161443066
 30
0.0
 10
3.1411501121
 20
3.9345047161
 30
0.0
 11
3.1411501121
 21
3.496595399
 31
0.0
 11
3.113510263
 21
3.5530064128
 31
0.0
 11
3.0936226594
 21
3.6076397999
 31
0.0
 11
3.0814663428
 21
3.6616515774
 31
0.0
 11
3.0773558143
 21
3.7155719643
 31
0.0
 11
3.0814726482
 21
3.7694900417
 31
0.0
 11
3.0936332291
 21
3.8234959658
 31
0.0
 11
3.1135154694
 21
3.8781058398
 31
0.0
 11
3.1411501121
 21
3.9345047161
 31
0.0
  0
SPLINE
  5
421
100
AcDbEntity
  8
0
100
AcDbSpline
 62
7
  6
CONTINUOUS
 70
0
 71
3
 72
15
 73
11
 74
9
 42
0.0000001
 43
0.0000001
 44
0.0000000001
 12
-0.2344928018
 22
0.8560668082
 32
0.0
 13
0.2344928018
 23
0.8560668082
 33
0.0
 40
0.0
 40
0.0
 40
0.0
 40
0.0
 40
0.130867655
 40
0.2559934432
 40
0.3784643323
 40
0.5000493322
 40
0.6216294027
 40
0.7440877225
 40
0.8691603039
 40
1.0
 40
1.0
 40
1.0
 40
1.0
 10
3.1411501121
 20
3.9812907405
 30
0.0
 10
3.1309209377
 20
4.0186345591
 30
0.0
 10
3.1127483046
 20
4.0922096598
 30
0.0
 10
3.092497906
 20
4.2024144434
 30
0.0
 10
3.0801402831
 20
4.3110373022
 30
0.0
 10
3.0759670122
 20
4.4192424571
 30
0.0
 10
3.0801467051
 20
4.5274436225
 30
0.0
 10
3.0925075201
 20
4.6360450142
 30
0.0
 10
3.1127558623
 20
4.7462218747
 30
0.0
 10
3.1309231231
 20
4.8197735344
 30
0.0
 10
3.1411501121
 20
4.8571093747
 30
0.0
 11
3.1411501121
 21
3.9812907405
 31
0.0
 11
3.113510263
 21
4.094112768
 31
0.0
 11
3.0936226594
 21
4.2033795422
 31
0.0
 11
3.0814663428
 21
4.3114030972
 31
0.0
 11
3.0773558143
 21
4.4192438711
 31
0.0
 11
3.0814726482
 21
4.5270800259
 31
0.0
 11
3.0936332291
 21
4.6350918739
 31
0.0
 11
3.1135154694
 21
4.744311622
 31
0.0
 11
3.1411501121
 21
4.8571093747
 31
0.0
  0
SPLINE
  5
422
100
AcDbEntity
  8
0
100
AcDbSpline
 62
7
  6
CONTINUOUS
 70
0
 71
3
 72
15
 73
11
 74
9
 42
0.0000001
 43
0.0000001
 44
0.0000000001
 12
-0.2213747391
 22
0.4040882383
 32
0.0
 13
0.2213747391
 23
0.4040882383
 33
0.0
 40
0.0
 40
0.0
 40
0.0
 40
0.0
 40
0.1363385306
 40
0.2625242499
 40
0.3826814249
 40
0.5000474403
 40
0.6174094987
 40
0.7375563123
 40
0.8636900968
 40
1.0
 40
1.0
 40
1.0
 40
1.0
 10
3.1411501121
 20
4.903895399
 30
0.0
 10
3.1310894766
 20
4.9222596646
 30
0.0
 10
3.1131422731
 20
4.9584434403
 30
0.0
 10
3.0927208253
 20
5.0136941581
 30
0.0
 10
3.0801966459
 20
5.0683172007
 30
0.0
 10
3.0759504606
 20
5.1228714482
 30
0.0
 10
3.0802031651
 20
5.1774235458
 30
0.0
 10
3.0927304345
 20
5.2320353295
 30
0.0
 10
3.1131496013
 20
5.2872718056
 30
0.0
 10
3.131091589
 20
5.3234443066
 30
0.0
 10
3.1411501121
 20
5.3418047161
 30
0.0
 11
3.1411501121
 21
4.903895399
 31
0.0
 11
3.113510263
 21
4.9603064128
 31
0.0
 11
3.0936226594
 21
5.0149397999
 31
0.0
 11
3.0814663428
 21
5.0689515774
 31
0.0
 11
3.0773558143
 21
5.1228719643
 31
0.0
 11
3.0814726482
 21
5.1767900417
 31
0.0
 11
3.0936332291
 21
5.2307959658
 31
0.0
 11
3.1135154694
 21
5.2854058398
 31
0.0
 11
3.1411501121
 21
5.3418047161
 31
0.0
  0
ENDSEC
  0
SECTION
  2
OBJECTS
  0
DICTIONARY
  5
C
100
AcDbDictionary
280
0
281
1
  3
ACAD_GROUP
350
D
  3
ACAD_MLINESTYLE
350
17
  3
ACAD_LAYOUT
350
1A
  3
ACAD_PLOTSETTINGS
350
19
  3
ACAD_PLOTSTYLENAME
350
E
  0
DICTIONARY
  5
D
102
{ACAD_REACTORS
330
C
102
}
100
AcDbDictionary
280
0
281
1
  0
ACDBDICTIONARYWDFLT
  5
E
102
{ACAD_REACTORS
330
C
102
}
100
AcDbDictionary
281
1
  3
Normal
350
F
100
AcDbDictionaryWithDefault
340
F
  0
DICTIONARY
  5
17
102
{ACAD_REACTORS
330
C
102
}
100
AcDbDictionary
280
0
281
1
  3
Standard
350
18
  0
DICTIONARY
  5
19
102
{ACAD_REACTORS
330
C
102
}
100
AcDbDictionary
281
1
  0
DICTIONARY
  5
1A
102
{ACAD_REACTORS
330
C
102
}
100
AcDbDictionary
281
1
  3
Layout1
350
1E
  3
Model
350
22
  0
ACDBPLACEHOLDER
  5
F
102
{ACAD_REACTORS
330
E
102
}
  0
MLINESTYLE
  5
18
102
{ACAD_REACTORS
330
17
102
}
100
AcDbMlineStyle
  2
STANDARD
 70
0
  3

 62
256
 51
90.0
 52
90.0
 71
2
 49
0.5
 62
256
  6
BYLAYER
 49
-0.5
 62
256
  6
BYLAYER
  0
LAYOUT
  5
1E
102
{ACAD_REACTORS
330
1A
102
}
100
AcDbPlotSettings
  1

  2

  4

  6

 40
0.0
 41
0.0
 42
0.0
 43
0.0
 44
0.0
 45
0.0
 46
0.0
 47
0.0
 48
0.0
 49
0.0
140
0.0
141
0.0
142
1.0
143
1.0
 70
0
 72
0
 73
0
 74
0
  7

 75
0
147
1.0
148
0.0
149
0.0
100
AcDbLayout
  1
Layout1
 70
0
 71
0
 10
0.0
 20
0.0
 11
0.0
 21
0.0
 12
0.0
 22
0.0
 32
0.0
 14
0.0
 24
0.0
 34
0.0
 15
0.0
 25
0.0
 35
0.0
146
0.0
 13
0.0
 23
0.0
 33
0.0
 16
0.0
 26
0.0
 36
0.0
 17
0.0
 27
0.0
 37
0.0
 76
0
330
1B
331
0
345
0
346
0
  0
LAYOUT
  5
22
102
{ACAD_REACTORS
330
1A
102
}
100
AcDbPlotSettings
  1

  2

  4

  6

 40
0.0
 41
0.0
 42
0.0
 43
0.0
 44
0.0
 45
0.0
 46
0.0
 47
0.0
 48
0.0
 49
0.0
140
0.0
141
0.0
142
1.0
143
1.0
 70
0
 72
0
 73
0
 74
0
  7

 75
0
147
1.0
148
0.0
149
0.0
100
AcDbLayout
  1
Model
 70
0
 71
0
 10
0.0
 20
0.0
 11
0.0
 21
0.0
 12
0.0
 22
0.0
 32
0.0
 14
0.0
 24
0.0
 34
0.0
 15
0.0
 25
0.0
 35
0.0
146
0.0
 13
0.0
 23
0.0
 33
0.0
 16
0.0
 26
0.0
 36
0.0
 17
0.0
 27
0.0
 37
0.0
 76
0
330
1F
331
0
345
0
346
0
  0
ENDSEC
  0
EOF
