999
DXF file: CKEI-VCN.dxf
999
Pro/ENGINEER 2006240 by Parametric Technology Corporation
  0
SECTION
  2
HEADER
  9
$ACADVER
  1
AC1015
  9
$DWGCODEPAGE
  3
ANSI_1252
  9
$EXTMAX
 10
11.6929133858
 20
8.2677165354
 30
0.0
  9
$EXTMIN
 10
0.0
 20
0.0
 30
0.0
  9
$LIMMIN
 10
0.0
 20
0.0
  9
$LIMMAX
 10
11.6929133858
 20
8.2677165354
  9
$VIEWCTR
 10
5.8464566929
 20
4.1338582677
  9
$VIEWSIZE
 40
8.2677165354
  9
$CLAYER
  8
0
  9
$LTSCALE
 40
0.6431102362
  9
$CELTYPE
  6
BYLAYER
  9
$DIMSCALE
 40
1.0
  9
$DIMASZ
 40
0.1875
  9
$DIMEXO
 40
0.0730807087
  9
$DIMDLI
 40
0.4443307087
  9
$DIMEXE
 40
0.2104724409
  9
$DIMCEN
 40
0.1052362205
  9
$DIMLFAC
 40
1.0
  9
$DIMBLK
  1
_CLOSED
  9
$DIMTXT
 40
0.15625
  9
$DIMTOL
 70
0
  9
$DIMLIM
 70
0
  9
$DIMTFAC
 40
1.0
  9
$PDMODE
 70
3
  9
$PDSIZE
 40
0.3125
  9
$HANDSEED
  5
453
  9
$MEASUREMENT
 70
0
  9
$INSUNITS
 70
1
  0
ENDSEC
  0
SECTION
  2
CLASSES
  0
CLASS
  1
ACDBDICTIONARYWDFLT
  2
AcDbDictionaryWithDefault
  3
AutoCAD 2000
 90
0
280
0
281
0
  0
CLASS
  1
ACDBPLACEHOLDER
  2
AcDbPlaceHolder
  3
AutoCAD 2000
 90
0
280
0
281
0
  0
CLASS
  1
LAYOUT
  2
AcDbLayout
  3
AutoCAD 2000
 90
0
280
0
281
0
  0
ENDSEC
  0
SECTION
  2
TABLES
  0
TABLE
  2
VPORT
  5
8
100
AcDbSymbolTable
 70
2
  0
VPORT
  5
1F4
100
AcDbSymbolTableRecord
100
AcDbViewportTableRecord
  2
*ACTIVE
 70
0
 10
0.0
 20
0.0
 11
1.0
 21
1.0
 12
5.8464566929
 22
4.1338582677
 13
0.0
 23
0.0
 14
1.0
 24
1.0
 15
0.0
 25
0.0
 16
0.0
 26
0.0
 36
1.0
 17
0.0
 27
0.0
 37
0.0
 40
8.2677165354
 41
1.4142857143
 42
50.0
 43
0.0
 44
0.0
 50
0.0
 51
0.0
 71
0
 72
100
 73
1
 74
1
 75
0
 76
0
 77
0
 78
0
  0
ENDTAB
  0
TABLE
  2
LTYPE
  5
5
100
AcDbSymbolTable
 70
6
  0
LTYPE
  5
14
100
AcDbSymbolTableRecord
100
AcDbLinetypeTableRecord
  2
BYBLOCK
 70
0
  3

 72
65
 73
0
 40
0.0
  0
LTYPE
  5
15
100
AcDbSymbolTableRecord
100
AcDbLinetypeTableRecord
  2
BYLAYER
 70
0
  3

 72
65
 73
0
 40
0.0
  0
LTYPE
  5
16
100
AcDbSymbolTableRecord
100
AcDbLinetypeTableRecord
  2
CONTINUOUS
 70
64
  3
Solid line
 72
65
 73
0
 40
0.0
  0
LTYPE
  5
1F5
100
AcDbSymbolTableRecord
100
AcDbLinetypeTableRecord
  2
CENTER
 70
64
  3
____ _ ____ _ ____ _ ____ _ ____ _ ____ _ ____
 72
65
 73
4
 40
0.6
 49
0.375
 74
0
 49
-0.075
 74
0
 49
0.075
 74
0
 49
-0.075
 74
0
  0
LTYPE
  5
1F6
100
AcDbSymbolTableRecord
100
AcDbLinetypeTableRecord
  2
HIDDEN
 70
64
  3
- - - - - - - - - - - - - - - - - - - -
 72
65
 73
2
 40
0.2
 49
0.1
 74
0
 49
-0.1
 74
0
  0
LTYPE
  5
1F7
100
AcDbSymbolTableRecord
100
AcDbLinetypeTableRecord
  2
PHANTOM
 70
64
  3
_____ _ _ _____ _ _ _____ _ _ _____
 72
65
 73
6
 40
0.8
 49
0.45
 74
0
 49
-0.05
 74
0
 49
0.1
 74
0
 49
-0.05
 74
0
 49
0.1
 74
0
 49
-0.05
 74
0
  0
LTYPE
  5
1F8
100
AcDbSymbolTableRecord
100
AcDbLinetypeTableRecord
  2
DOT
 70
64
  3
. . . . . . . . . . . . . . . . . . . .
 72
65
 73
2
 40
0.2
 49
0.1
 74
0
 49
-0.1
 74
0
  0
LTYPE
  5
1F9
100
AcDbSymbolTableRecord
100
AcDbLinetypeTableRecord
  2
DASHED
 70
64
  3
- - - - - - - - - - - - - - - - - - - -
 72
65
 73
2
 40
0.2
 49
0.1
 74
0
 49
-0.1
 74
0
  0
ENDTAB
  0
TABLE
  2
LAYER
  5
2
100
AcDbSymbolTable
 70
36
  0
LAYER
  5
10
100
AcDbSymbolTableRecord
100
AcDbLayerTableRecord
  2
0
 70
0
 62
7
  6
CONTINUOUS
370
-3
390
F
  0
LAYER
  5
1FA
100
AcDbSymbolTableRecord
100
AcDbLayerTableRecord
  2
DEFAULT_1
 70
0
 62
7
  6
CENTER
370
-3
390
F
  0
LAYER
  5
1FB
100
AcDbSymbolTableRecord
100
AcDbLayerTableRecord
  2
DEFAULT_2
 70
0
 62
8
  6
HIDDEN
370
-3
390
F
  0
LAYER
  5
1FC
100
AcDbSymbolTableRecord
100
AcDbLayerTableRecord
  2
DEFAULT_3
 70
0
 62
7
  6
PHANTOM
370
-3
390
F
  0
LAYER
  5
1FD
100
AcDbSymbolTableRecord
100
AcDbLayerTableRecord
  2
_BLACK_HOLE
 70
0
 62
7
  6
CONTINUOUS
370
-3
390
F
  0
LAYER
  5
1FE
100
AcDbSymbolTableRecord
100
AcDbLayerTableRecord
  2
01_ALL_DTM_PLN
 70
0
 62
7
  6
CONTINUOUS
370
-3
390
F
  0
LAYER
  5
1FF
100
AcDbSymbolTableRecord
100
AcDbLayerTableRecord
  2
01__ASM_ALL_DTM_PLN
 70
0
 62
7
  6
CONTINUOUS
370
-3
390
F
  0
LAYER
  5
200
100
AcDbSymbolTableRecord
100
AcDbLayerTableRecord
  2
01__ASM_DEF_DTM_PLN
 70
0
 62
7
  6
CONTINUOUS
370
-3
390
F
  0
LAYER
  5
201
100
AcDbSymbolTableRecord
100
AcDbLayerTableRecord
  2
01___PRT_ALL_DTM_PLN
 70
0
 62
7
  6
CONTINUOUS
370
-3
390
F
  0
LAYER
  5
202
100
AcDbSymbolTableRecord
100
AcDbLayerTableRecord
  2
01___PRT_DEF_DTM_PLN
 70
0
 62
7
  6
CONTINUOUS
370
-3
390
F
  0
LAYER
  5
203
100
AcDbSymbolTableRecord
100
AcDbLayerTableRecord
  2
02_ALL_AXES
 70
0
 62
7
  6
CONTINUOUS
370
-3
390
F
  0
LAYER
  5
204
100
AcDbSymbolTableRecord
100
AcDbLayerTableRecord
  2
02__ASM_ALL_AXES
 70
0
 62
7
  6
CONTINUOUS
370
-3
390
F
  0
LAYER
  5
205
100
AcDbSymbolTableRecord
100
AcDbLayerTableRecord
  2
02___PRT_ALL_AXES
 70
0
 62
7
  6
CONTINUOUS
370
-3
390
F
  0
LAYER
  5
206
100
AcDbSymbolTableRecord
100
AcDbLayerTableRecord
  2
03_ALL_CURVES
 70
0
 62
7
  6
CONTINUOUS
370
-3
390
F
  0
LAYER
  5
207
100
AcDbSymbolTableRecord
100
AcDbLayerTableRecord
  2
03__ASM_ALL_CURVES
 70
0
 62
7
  6
CONTINUOUS
370
-3
390
F
  0
LAYER
  5
208
100
AcDbSymbolTableRecord
100
AcDbLayerTableRecord
  2
03___PRT_ALL_CURVES
 70
0
 62
7
  6
CONTINUOUS
370
-3
390
F
  0
LAYER
  5
209
100
AcDbSymbolTableRecord
100
AcDbLayerTableRecord
  2
04_ALL_DTM_PNT
 70
0
 62
7
  6
CONTINUOUS
370
-3
390
F
  0
LAYER
  5
20A
100
AcDbSymbolTableRecord
100
AcDbLayerTableRecord
  2
04__ASM_ALL_DTM_PNT
 70
0
 62
7
  6
CONTINUOUS
370
-3
390
F
  0
LAYER
  5
20B
100
AcDbSymbolTableRecord
100
AcDbLayerTableRecord
  2
04___PRT_ALL_DTM_PNT
 70
0
 62
7
  6
CONTINUOUS
370
-3
390
F
  0
LAYER
  5
20C
100
AcDbSymbolTableRecord
100
AcDbLayerTableRecord
  2
05_ALL_DTM_CSYS
 70
0
 62
7
  6
CONTINUOUS
370
-3
390
F
  0
LAYER
  5
20D
100
AcDbSymbolTableRecord
100
AcDbLayerTableRecord
  2
05__ASM_ALL_DTM_CSYS
 70
0
 62
7
  6
CONTINUOUS
370
-3
390
F
  0
LAYER
  5
20E
100
AcDbSymbolTableRecord
100
AcDbLayerTableRecord
  2
05__ASM_DEF_DTM_CSYS
 70
0
 62
7
  6
CONTINUOUS
370
-3
390
F
  0
LAYER
  5
20F
100
AcDbSymbolTableRecord
100
AcDbLayerTableRecord
  2
05___PRT_ALL_DTM_CSYS
 70
0
 62
7
  6
CONTINUOUS
370
-3
390
F
  0
LAYER
  5
210
100
AcDbSymbolTableRecord
100
AcDbLayerTableRecord
  2
05___PRT_DEF_DTM_CSYS
 70
0
 62
7
  6
CONTINUOUS
370
-3
390
F
  0
LAYER
  5
211
100
AcDbSymbolTableRecord
100
AcDbLayerTableRecord
  2
06_ALL_SURFS
 70
0
 62
7
  6
CONTINUOUS
370
-3
390
F
  0
LAYER
  5
212
100
AcDbSymbolTableRecord
100
AcDbLayerTableRecord
  2
06__ASM_ALL_SURFS
 70
0
 62
7
  6
CONTINUOUS
370
-3
390
F
  0
LAYER
  5
213
100
AcDbSymbolTableRecord
100
AcDbLayerTableRecord
  2
06___PRT_ALL_SURFS
 70
0
 62
7
  6
CONTINUOUS
370
-3
390
F
  0
LAYER
  5
214
100
AcDbSymbolTableRecord
100
AcDbLayerTableRecord
  2
07__ASM_ALL_SKELETONS
 70
0
 62
7
  6
CONTINUOUS
370
-3
390
F
  0
LAYER
  5
215
100
AcDbSymbolTableRecord
100
AcDbLayerTableRecord
  2
127-001_FEATURES
 70
0
 62
7
  6
CONTINUOUS
370
-3
390
F
  0
LAYER
  5
216
100
AcDbSymbolTableRecord
100
AcDbLayerTableRecord
  2
127-001_REF_GEOMETRY
 70
0
 62
7
  6
CONTINUOUS
370
-3
390
F
  0
LAYER
  5
217
100
AcDbSymbolTableRecord
100
AcDbLayerTableRecord
  2
127-004_FEATURES
 70
0
 62
7
  6
CONTINUOUS
370
-3
390
F
  0
LAYER
  5
218
100
AcDbSymbolTableRecord
100
AcDbLayerTableRecord
  2
127-004_REF_GEOMETRY
 70
0
 62
7
  6
CONTINUOUS
370
-3
390
F
  0
LAYER
  5
219
100
AcDbSymbolTableRecord
100
AcDbLayerTableRecord
  2
127-008_FEATURES
 70
0
 62
7
  6
CONTINUOUS
370
-3
390
F
  0
LAYER
  5
21A
100
AcDbSymbolTableRecord
100
AcDbLayerTableRecord
  2
127-008_REF_GEOMETRY
 70
0
 62
7
  6
CONTINUOUS
370
-3
390
F
  0
LAYER
  5
21B
100
AcDbSymbolTableRecord
100
AcDbLayerTableRecord
  2
127-410_FEATURES
 70
0
 62
7
  6
CONTINUOUS
370
-3
390
F
  0
LAYER
  5
21C
100
AcDbSymbolTableRecord
100
AcDbLayerTableRecord
  2
127-410_REF_GEOMETRY
 70
0
 62
7
  6
CONTINUOUS
370
-3
390
F
  0
LAYER
  5
21D
100
AcDbSymbolTableRecord
100
AcDbLayerTableRecord
  2
127-411_FEATURES
 70
0
 62
7
  6
CONTINUOUS
370
-3
390
F
  0
LAYER
  5
21E
100
AcDbSymbolTableRecord
100
AcDbLayerTableRecord
  2
127-411_REF_GEOMETRY
 70
0
 62
7
  6
CONTINUOUS
370
-3
390
F
  0
LAYER
  5
21F
100
AcDbSymbolTableRecord
100
AcDbLayerTableRecord
  2
127-412_FEATURES
 70
0
 62
7
  6
CONTINUOUS
370
-3
390
F
  0
LAYER
  5
220
100
AcDbSymbolTableRecord
100
AcDbLayerTableRecord
  2
127-412_REF_GEOMETRY
 70
0
 62
7
  6
CONTINUOUS
370
-3
390
F
  0
LAYER
  5
221
100
AcDbSymbolTableRecord
100
AcDbLayerTableRecord
  2
127-413_FEATURES
 70
0
 62
7
  6
CONTINUOUS
370
-3
390
F
  0
LAYER
  5
222
100
AcDbSymbolTableRecord
100
AcDbLayerTableRecord
  2
127-413_REF_GEOMETRY
 70
0
 62
7
  6
CONTINUOUS
370
-3
390
F
  0
LAYER
  5
223
100
AcDbSymbolTableRecord
100
AcDbLayerTableRecord
  2
127-414_FEATURES
 70
0
 62
7
  6
CONTINUOUS
370
-3
390
F
  0
LAYER
  5
224
100
AcDbSymbolTableRecord
100
AcDbLayerTableRecord
  2
127-414_REF_GEOMETRY
 70
0
 62
7
  6
CONTINUOUS
370
-3
390
F
  0
LAYER
  5
225
100
AcDbSymbolTableRecord
100
AcDbLayerTableRecord
  2
127-415_FEATURES
 70
0
 62
7
  6
CONTINUOUS
370
-3
390
F
  0
LAYER
  5
226
100
AcDbSymbolTableRecord
100
AcDbLayerTableRecord
  2
127-415_REF_GEOMETRY
 70
0
 62
7
  6
CONTINUOUS
370
-3
390
F
  0
LAYER
  5
227
100
AcDbSymbolTableRecord
100
AcDbLayerTableRecord
  2
127-416_FEATURES
 70
0
 62
7
  6
CONTINUOUS
370
-3
390
F
  0
LAYER
  5
228
100
AcDbSymbolTableRecord
100
AcDbLayerTableRecord
  2
127-416_REF_GEOMETRY
 70
0
 62
7
  6
CONTINUOUS
370
-3
390
F
  0
LAYER
  5
229
100
AcDbSymbolTableRecord
100
AcDbLayerTableRecord
  2
230-162_FEATURES
 70
0
 62
7
  6
CONTINUOUS
370
-3
390
F
  0
LAYER
  5
22A
100
AcDbSymbolTableRecord
100
AcDbLayerTableRecord
  2
250-NPTF_PORT
 70
0
 62
7
  6
CONTINUOUS
370
-3
390
F
  0
LAYER
  5
22B
100
AcDbSymbolTableRecord
100
AcDbLayerTableRecord
  2
COPY_GEO_FET
 70
0
 62
7
  6
CONTINUOUS
370
-3
390
F
  0
LAYER
  5
22C
100
AcDbSymbolTableRecord
100
AcDbLayerTableRecord
  2
COSMEDIC
 70
0
 62
7
  6
CONTINUOUS
370
-3
390
F
  0
LAYER
  5
22D
100
AcDbSymbolTableRecord
100
AcDbLayerTableRecord
  2
COSMETIC
 70
0
 62
7
  6
CONTINUOUS
370
-3
390
F
  0
LAYER
  5
22E
100
AcDbSymbolTableRecord
100
AcDbLayerTableRecord
  2
CROSS_HOLE_DATUMS
 70
0
 62
7
  6
CONTINUOUS
370
-3
390
F
  0
LAYER
  5
22F
100
AcDbSymbolTableRecord
100
AcDbLayerTableRecord
  2
CURVES
 70
0
 62
7
  6
CONTINUOUS
370
-3
390
F
  0
LAYER
  5
230
100
AcDbSymbolTableRecord
100
AcDbLayerTableRecord
  2
CUT_REF_SURF
 70
0
 62
7
  6
CONTINUOUS
370
-3
390
F
  0
LAYER
  5
231
100
AcDbSymbolTableRecord
100
AcDbLayerTableRecord
  2
DATUM
 70
0
 62
7
  6
CONTINUOUS
370
-3
390
F
  0
LAYER
  5
232
100
AcDbSymbolTableRecord
100
AcDbLayerTableRecord
  2
DATUMCURVES
 70
0
 62
7
  6
CONTINUOUS
370
-3
390
F
  0
LAYER
  5
233
100
AcDbSymbolTableRecord
100
AcDbLayerTableRecord
  2
DIMENSIONS
 70
0
 62
7
  6
CONTINUOUS
370
-3
390
F
  0
LAYER
  5
234
100
AcDbSymbolTableRecord
100
AcDbLayerTableRecord
  2
DMT
 70
0
 62
7
  6
CONTINUOUS
370
-3
390
F
  0
LAYER
  5
235
100
AcDbSymbolTableRecord
100
AcDbLayerTableRecord
  2
DRAWINGNOTES
 70
0
 62
7
  6
CONTINUOUS
370
-3
390
F
  0
LAYER
  5
236
100
AcDbSymbolTableRecord
100
AcDbLayerTableRecord
  2
DTM
 70
0
 62
7
  6
CONTINUOUS
370
-3
390
F
  0
LAYER
  5
237
100
AcDbSymbolTableRecord
100
AcDbLayerTableRecord
  2
DTM230
 70
0
 62
7
  6
CONTINUOUS
370
-3
390
F
  0
LAYER
  5
238
100
AcDbSymbolTableRecord
100
AcDbLayerTableRecord
  2
DTM_500001
 70
0
 62
7
  6
CONTINUOUS
370
-3
390
F
  0
LAYER
  5
239
100
AcDbSymbolTableRecord
100
AcDbLayerTableRecord
  2
DTM_500002
 70
0
 62
7
  6
CONTINUOUS
370
-3
390
F
  0
LAYER
  5
23A
100
AcDbSymbolTableRecord
100
AcDbLayerTableRecord
  2
DTM_515002
 70
0
 62
7
  6
CONTINUOUS
370
-3
390
F
  0
LAYER
  5
23B
100
AcDbSymbolTableRecord
100
AcDbLayerTableRecord
  2
DTM_525001
 70
0
 62
7
  6
CONTINUOUS
370
-3
390
F
  0
LAYER
  5
23C
100
AcDbSymbolTableRecord
100
AcDbLayerTableRecord
  2
DTM_SPRING_LH
 70
0
 62
7
  6
CONTINUOUS
370
-3
390
F
  0
LAYER
  5
23D
100
AcDbSymbolTableRecord
100
AcDbLayerTableRecord
  2
DTM_SPRING_RH
 70
0
 62
7
  6
CONTINUOUS
370
-3
390
F
  0
LAYER
  5
23E
100
AcDbSymbolTableRecord
100
AcDbLayerTableRecord
  2
DTM_SP_LH_CONSTR
 70
0
 62
7
  6
CONTINUOUS
370
-3
390
F
  0
LAYER
  5
23F
100
AcDbSymbolTableRecord
100
AcDbLayerTableRecord
  2
DTM_SP_RH_CONSTR
 70
0
 62
7
  6
CONTINUOUS
370
-3
390
F
  0
LAYER
  5
240
100
AcDbSymbolTableRecord
100
AcDbLayerTableRecord
  2
DTM_WASHER
 70
0
 62
7
  6
CONTINUOUS
370
-3
390
F
  0
LAYER
  5
241
100
AcDbSymbolTableRecord
100
AcDbLayerTableRecord
  2
FLUTE_DATUMS
 70
0
 62
7
  6
CONTINUOUS
370
-3
390
F
  0
LAYER
  5
242
100
AcDbSymbolTableRecord
100
AcDbLayerTableRecord
  2
GEOMETRICTOLERANCES
 70
0
 62
7
  6
CONTINUOUS
370
-3
390
F
  0
LAYER
  5
243
100
AcDbSymbolTableRecord
100
AcDbLayerTableRecord
  2
PARAMETERDIMENSIONS
 70
0
 62
7
  6
CONTINUOUS
370
-3
390
F
  0
LAYER
  5
244
100
AcDbSymbolTableRecord
100
AcDbLayerTableRecord
  2
PLANE
 70
0
 62
7
  6
CONTINUOUS
370
-3
390
F
  0
LAYER
  5
245
100
AcDbSymbolTableRecord
100
AcDbLayerTableRecord
  2
SUN_SAE-4_PORT
 70
0
 62
7
  6
CONTINUOUS
370
-3
390
F
  0
LAYER
  5
246
100
AcDbSymbolTableRecord
100
AcDbLayerTableRecord
  2
TEXT
 70
0
 62
7
  6
CONTINUOUS
370
-3
390
F
  0
LAYER
  5
247
100
AcDbSymbolTableRecord
100
AcDbLayerTableRecord
  2
THREAD
 70
0
 62
7
  6
CONTINUOUS
370
-3
390
F
  0
ENDTAB
  0
TABLE
  2
STYLE
  5
3
100
AcDbSymbolTable
 70
1
  0
STYLE
  5
11
100
AcDbSymbolTableRecord
100
AcDbTextStyleTableRecord
  2
STANDARD
 70
0
 40
0.0
 41
0.8
 50
0.0
 71
0
 42
0.2
  3
txt
  4

  0
ENDTAB
  0
TABLE
  2
VIEW
  5
6
100
AcDbSymbolTable
 70
0
  0
ENDTAB
  0
TABLE
  2
UCS
  5
7
100
AcDbSymbolTable
 70
0
  0
ENDTAB
  0
TABLE
  2
APPID
  5
9
100
AcDbSymbolTable
 70
1
  0
APPID
  5
248
100
AcDbSymbolTableRecord
100
AcDbRegAppTableRecord
  2
ACAD
 70
0
  0
ENDTAB
  0
TABLE
  2
BLOCK_RECORD
  5
1
100
AcDbSymbolTable
 70
0
  0
BLOCK_RECORD
  5
1F
100
AcDbSymbolTableRecord
100
AcDbBlockTableRecord
  2
*MODEL_SPACE
  0
BLOCK_RECORD
  5
1B
100
AcDbSymbolTableRecord
100
AcDbBlockTableRecord
  2
*PAPER_SPACE
  0
ENDTAB
  0
TABLE
  2
DIMSTYLE
  5
A
100
AcDbSymbolTable
 70
1
100
AcDbDimStyleTable
 71
0
  0
DIMSTYLE
105
249
100
AcDbSymbolTableRecord
100
AcDbDimStyleTableRecord
  2
STANDARD
 70
0
  3

  4

 40
1.0
 41
0.1875
 42
0.0625
 43
0.38
 44
0.18
 45
0.0
 46
0.0
 47
0.01
 48
0.01
140
0.15625
141
0.09
142
0.0
143
25.4
144
1.0
145
0.0
146
1.0
147
0.09
 71
0.0
 72
0.0
 73
1
 74
1
 75
0
 76
0
 77
0
 78
4
170
0
171
2
172
0
173
0
174
0
175
0
176
0
177
0
178
0
270
2
271
2
272
2
273
2
274
2
275
0
280
0
281
0
282
0
283
1
284
4
285
0
286
0
287
3
288
0
340
11
  0
ENDTAB
  0
ENDSEC
  0
SECTION
  2
BLOCKS
  0
BLOCK
  5
20
100
AcDbEntity
  8
0
100
AcDbBlockBegin
  2
*MODEL_SPACE
 70
0
 10
0.0
 20
0.0
 30
0.0
  3
*MODEL_SPACE
  1

  0
ENDBLK
  5
21
100
AcDbEntity
  8
0
100
AcDbBlockEnd
  0
BLOCK
  5
1C
100
AcDbEntity
  8
0
100
AcDbBlockBegin
  2
*PAPER_SPACE
 70
0
 10
0.0
 20
0.0
 30
0.0
  3
*PAPER_SPACE
  1

  0
ENDBLK
  5
1D
100
AcDbEntity
  8
0
100
AcDbBlockEnd
  0
ENDSEC
  0
SECTION
  2
ENTITIES
  0
LINE
  5
24A
100
AcDbEntity
  8
0
100
AcDbLine
 62
7
  6
CONTINUOUS
 10
3.7920126372
 20
3.7782639326
 11
3.7920126372
 21
4.6482639326
  0
LINE
  5
24B
100
AcDbEntity
  8
03__ASM_ALL_CURVES
100
AcDbLine
 62
40
  6
CONTINUOUS
 10
3.7920126372
 20
4.6482639326
 11
3.7920126372
 21
5.0899959326
  0
LINE
  5
24C
100
AcDbEntity
  8
0
100
AcDbLine
 62
7
  6
CONTINUOUS
 10
3.8540126372
 20
3.7162639326
 11
3.8540126372
 21
4.7102639326
  0
LINE
  5
24D
100
AcDbEntity
  8
03__ASM_ALL_CURVES
100
AcDbLine
 62
40
  6
CONTINUOUS
 10
3.8931726372
 20
5.0731359326
 11
3.8931726372
 21
5.0394159326
  0
LINE
  5
24E
100
AcDbEntity
  8
0
100
AcDbLine
 62
7
  6
CONTINUOUS
 10
3.8540126372
 20
3.7162639326
 11
3.7920126372
 21
3.7782639326
  0
LINE
  5
24F
100
AcDbEntity
  8
03__ASM_ALL_CURVES
100
AcDbLine
 62
40
  6
CONTINUOUS
 10
4.4337376372
 20
5.1602459309
 11
4.4390063872
 21
5.1672709343
  0
LINE
  5
250
100
AcDbEntity
  8
0
100
AcDbLine
 62
7
  6
CONTINUOUS
 10
3.8540126372
 20
4.7102639326
 11
3.7920126372
 21
4.6482639326
  0
LINE
  5
251
100
AcDbEntity
  8
0
100
AcDbLine
 62
7
  6
CONTINUOUS
 10
4.3376233085
 20
3.5792639326
 11
4.2920126372
 21
3.6582639326
  0
LINE
  5
252
100
AcDbEntity
  8
0
100
AcDbLine
 62
7
  6
CONTINUOUS
 10
4.2920126372
 20
3.6582639326
 11
4.2920126372
 21
4.7682639326
  0
LINE
  5
253
100
AcDbEntity
  8
0
100
AcDbLine
 62
7
  6
CONTINUOUS
 10
4.3376233085
 20
3.5792639326
 11
4.3376233085
 21
3.5798786231
  0
LINE
  5
254
100
AcDbEntity
  8
0
100
AcDbLine
 62
7
  6
CONTINUOUS
 10
4.3376233085
 20
3.8723992421
 11
4.3376233085
 21
3.9207433137
  0
LINE
  5
255
100
AcDbEntity
  8
0
100
AcDbLine
 62
7
  6
CONTINUOUS
 10
4.3376233085
 20
4.5057845515
 11
4.3376233085
 21
4.5541286231
  0
LINE
  5
256
100
AcDbEntity
  8
0
100
AcDbLine
 62
7
  6
CONTINUOUS
 10
4.3376233085
 20
4.8466492421
 11
4.3376233085
 21
4.8472639326
  0
LINE
  5
257
100
AcDbEntity
  8
03__ASM_ALL_CURVES
100
AcDbLine
 62
40
  6
CONTINUOUS
 10
4.4390063872
 20
5.1110709326
 11
4.4337376372
 21
5.0899959326
  0
LINE
  5
258
100
AcDbEntity
  8
0
100
AcDbLine
 62
7
  6
CONTINUOUS
 10
4.3373571397
 20
4.8468029147
 11
4.2920126372
 21
4.7682639326
  0
LINE
  5
259
100
AcDbEntity
  8
03__ASM_ALL_CURVES
100
AcDbLine
 62
40
  6
CONTINUOUS
 10
4.4495438872
 20
5.1251209318
 11
4.4390063872
 21
5.1110709326
  0
LINE
  5
25A
100
AcDbEntity
  8
03__ASM_ALL_CURVES
100
AcDbLine
 62
40
  6
CONTINUOUS
 10
4.4758876372
 20
5.1461959343
 11
4.4706188872
 21
5.1391709309
  0
LINE
  5
25B
100
AcDbEntity
  8
03__ASM_ALL_CURVES
100
AcDbLine
 62
40
  6
CONTINUOUS
 10
4.6076063872
 20
5.1602459309
 11
4.6128751372
 21
5.1672709343
  0
LINE
  5
25C
100
AcDbEntity
  8
03__ASM_ALL_CURVES
100
AcDbLine
 62
40
  6
CONTINUOUS
 10
4.4390063872
 20
5.1672709343
 11
4.4495438872
 21
5.1742959326
  0
LINE
  5
25D
100
AcDbEntity
  8
03__ASM_ALL_CURVES
100
AcDbLine
 62
40
  6
CONTINUOUS
 10
4.4706188872
 20
5.1391709309
 11
4.4495438872
 21
5.1251209318
  0
LINE
  5
25E
100
AcDbEntity
  8
03__ASM_ALL_CURVES
100
AcDbLine
 62
40
  6
CONTINUOUS
 10
4.4758876372
 20
5.1602459309
 11
4.4758876372
 21
5.1461959343
  0
LINE
  5
25F
100
AcDbEntity
  8
03__ASM_ALL_CURVES
100
AcDbLine
 62
40
  6
CONTINUOUS
 10
4.6023376372
 20
5.1461959343
 11
4.6076063872
 21
5.1602459309
  0
LINE
  5
260
100
AcDbEntity
  8
03__ASM_ALL_CURVES
100
AcDbLine
 62
40
  6
CONTINUOUS
 10
4.6444876372
 20
5.1180959334
 11
4.6392188872
 21
5.104045933
  0
LINE
  5
261
100
AcDbEntity
  8
03__ASM_ALL_CURVES
100
AcDbLine
 62
40
  6
CONTINUOUS
 10
4.6392188872
 20
5.104045933
 11
4.6339501372
 21
5.0970209328
  0
LINE
  5
262
100
AcDbEntity
  8
03__ASM_ALL_CURVES
100
AcDbLine
 62
40
  6
CONTINUOUS
 10
4.7129813872
 20
5.1742959326
 11
4.7024438872
 21
5.1602459309
  0
LINE
  5
263
100
AcDbEntity
  8
03__ASM_ALL_CURVES
100
AcDbLine
 62
40
  6
CONTINUOUS
 10
4.6128751372
 20
5.1672709343
 11
4.6234126372
 21
5.1742959326
  0
LINE
  5
264
100
AcDbEntity
  8
03__ASM_ALL_CURVES
100
AcDbLine
 62
40
  6
CONTINUOUS
 10
4.6339501372
 20
5.0970209328
 11
4.6234126372
 21
5.0899959326
  0
LINE
  5
265
100
AcDbEntity
  8
03__ASM_ALL_CURVES
100
AcDbLine
 62
40
  6
CONTINUOUS
 10
4.5338438872
 20
5.0899959326
 11
4.5338438872
 21
5.0970209328
  0
LINE
  5
266
100
AcDbEntity
  8
03__ASM_ALL_CURVES
100
AcDbLine
 62
40
  6
CONTINUOUS
 10
4.6023376372
 20
5.1180959334
 11
4.6023376372
 21
5.1461959343
  0
LINE
  5
267
100
AcDbEntity
  8
03__ASM_ALL_CURVES
100
AcDbLine
 62
40
  6
CONTINUOUS
 10
4.6444876372
 20
5.1461959343
 11
4.6444876372
 21
5.1180959334
  0
LINE
  5
268
100
AcDbEntity
  8
03__ASM_ALL_CURVES
100
AcDbLine
 62
40
  6
CONTINUOUS
 10
4.7024438872
 20
5.1602459309
 11
4.6971751372
 21
5.1391709309
  0
LINE
  5
269
100
AcDbEntity
  8
03__ASM_ALL_CURVES
100
AcDbLine
 62
40
  6
CONTINUOUS
 10
4.8183563872
 20
5.1180959334
 11
4.8130876372
 21
5.104045933
  0
LINE
  5
26A
100
AcDbEntity
  8
03__ASM_ALL_CURVES
100
AcDbLine
 62
40
  6
CONTINUOUS
 10
4.8552376372
 20
5.1461959343
 11
4.8605063872
 21
5.1602459309
  0
LINE
  5
26B
100
AcDbEntity
  8
03__ASM_ALL_CURVES
100
AcDbLine
 62
40
  6
CONTINUOUS
 10
4.8130876372
 20
5.104045933
 11
4.8078188872
 21
5.0970209328
  0
LINE
  5
26C
100
AcDbEntity
  8
03__ASM_ALL_CURVES
100
AcDbLine
 62
40
  6
CONTINUOUS
 10
4.8605063872
 20
5.1602459309
 11
4.8657751372
 21
5.1672709343
  0
LINE
  5
26D
100
AcDbEntity
  8
03__ASM_ALL_CURVES
100
AcDbLine
 62
40
  6
CONTINUOUS
 10
4.8921188872
 20
5.104045933
 11
4.8868501372
 21
5.0970209328
  0
LINE
  5
26E
100
AcDbEntity
  8
03__ASM_ALL_CURVES
100
AcDbLine
 62
40
  6
CONTINUOUS
 10
4.7762063872
 20
5.1391709309
 11
4.7867438872
 21
5.1461959343
  0
LINE
  5
26F
100
AcDbEntity
  8
03__ASM_ALL_CURVES
100
AcDbLine
 62
40
  6
CONTINUOUS
 10
4.8657751372
 20
5.1672709343
 11
4.8763126372
 21
5.1742959326
  0
LINE
  5
270
100
AcDbEntity
  8
03__ASM_ALL_CURVES
100
AcDbLine
 62
40
  6
CONTINUOUS
 10
4.8078188872
 20
5.0970209328
 11
4.7972813872
 21
5.0899959326
  0
LINE
  5
271
100
AcDbEntity
  8
03__ASM_ALL_CURVES
100
AcDbLine
 62
40
  6
CONTINUOUS
 10
4.8868501372
 20
5.0970209328
 11
4.8763126372
 21
5.0899959326
  0
LINE
  5
272
100
AcDbEntity
  8
03__ASM_ALL_CURVES
100
AcDbLine
 62
40
  6
CONTINUOUS
 10
5.0291063872
 20
5.1672709343
 11
5.0396438872
 21
5.1742959326
  0
LINE
  5
273
100
AcDbEntity
  8
03__ASM_ALL_CURVES
100
AcDbLine
 62
40
  6
CONTINUOUS
 10
4.6971751372
 20
5.1391709309
 11
4.6971751372
 21
5.1251209318
  0
LINE
  5
274
100
AcDbEntity
  8
03__ASM_ALL_CURVES
100
AcDbLine
 62
40
  6
CONTINUOUS
 10
4.7814751372
 20
5.1742959326
 11
4.7762063872
 21
5.1391709309
  0
LINE
  5
275
100
AcDbEntity
  8
03__ASM_ALL_CURVES
100
AcDbLine
 62
40
  6
CONTINUOUS
 10
4.8973876372
 20
5.1180959334
 11
4.8921188872
 21
5.104045933
  0
LINE
  5
276
100
AcDbEntity
  8
03__ASM_ALL_CURVES
100
AcDbLine
 62
40
  6
CONTINUOUS
 10
5.0238376372
 20
5.1602459309
 11
5.0291063872
 21
5.1672709343
  0
LINE
  5
277
100
AcDbEntity
  8
03__ASM_ALL_CURVES
100
AcDbLine
 62
40
  6
CONTINUOUS
 10
5.0185688872
 20
5.1180959334
 11
5.0291063872
 21
5.1321459326
  0
LINE
  5
278
100
AcDbEntity
  8
03__ASM_ALL_CURVES
100
AcDbLine
 62
40
  6
CONTINUOUS
 10
5.0659876372
 20
5.1532209326
 11
5.0607188872
 21
5.1461959343
  0
LINE
  5
279
100
AcDbEntity
  8
03__ASM_ALL_CURVES
100
AcDbLine
 62
40
  6
CONTINUOUS
 10
5.0712563872
 20
5.1110709326
 11
5.0607188872
 21
5.0970209328
  0
LINE
  5
27A
100
AcDbEntity
  8
03__ASM_ALL_CURVES
100
AcDbLine
 62
40
  6
CONTINUOUS
 10
5.1344813872
 20
5.104045933
 11
5.1239438872
 21
5.0899959326
  0
LINE
  5
27B
100
AcDbEntity
  8
03__ASM_ALL_CURVES
100
AcDbLine
 62
40
  6
CONTINUOUS
 10
5.0291063872
 20
5.1321459326
 11
5.0396438872
 21
5.1391709309
  0
LINE
  5
27C
100
AcDbEntity
  8
03__ASM_ALL_CURVES
100
AcDbLine
 62
40
  6
CONTINUOUS
 10
5.0607188872
 20
5.1461959343
 11
5.0501813872
 21
5.1391709309
  0
LINE
  5
27D
100
AcDbEntity
  8
03__ASM_ALL_CURVES
100
AcDbLine
 62
40
  6
CONTINUOUS
 10
5.0607188872
 20
5.0970209328
 11
5.0501813872
 21
5.0899959326
  0
LINE
  5
27E
100
AcDbEntity
  8
03__ASM_ALL_CURVES
100
AcDbLine
 62
40
  6
CONTINUOUS
 10
4.8552376372
 20
5.1180959334
 11
4.8552376372
 21
5.1461959343
  0
LINE
  5
27F
100
AcDbEntity
  8
03__ASM_ALL_CURVES
100
AcDbLine
 62
40
  6
CONTINUOUS
 10
4.8973876372
 20
5.1461959343
 11
4.8973876372
 21
5.1180959334
  0
LINE
  5
280
100
AcDbEntity
  8
0
100
AcDbLine
 62
7
  6
CONTINUOUS
 10
4.9245870114
 20
3.5792639326
 11
4.9245870114
 21
3.5798786231
  0
LINE
  5
281
100
AcDbEntity
  8
0
100
AcDbLine
 62
7
  6
CONTINUOUS
 10
4.9245870114
 20
3.8723992421
 11
4.9245870114
 21
3.9207433137
  0
LINE
  5
282
100
AcDbEntity
  8
0
100
AcDbLine
 62
7
  6
CONTINUOUS
 10
4.9245870114
 20
4.5057845515
 11
4.9245870114
 21
4.5541286231
  0
LINE
  5
283
100
AcDbEntity
  8
0
100
AcDbLine
 62
7
  6
CONTINUOUS
 10
4.9245870114
 20
4.8466492421
 11
4.9245870114
 21
4.8472639326
  0
LINE
  5
284
100
AcDbEntity
  8
03__ASM_ALL_CURVES
100
AcDbLine
 62
40
  6
CONTINUOUS
 10
6.5327391895
 20
3.4000389326
 11
6.5248360645
 21
3.4000389326
  0
LINE
  5
285
100
AcDbEntity
  8
03__ASM_ALL_CURVES
100
AcDbLine
 62
40
  6
CONTINUOUS
 10
5.6504384166
 20
3.4000389326
 11
5.6425352916
 21
3.4000389326
  0
LINE
  5
286
100
AcDbEntity
  8
03__ASM_ALL_CURVES
100
AcDbLine
 62
40
  6
CONTINUOUS
 10
5.4607634166
 20
3.4000389326
 11
5.4528602916
 21
3.4000389326
  0
LINE
  5
287
100
AcDbEntity
  8
03__ASM_ALL_CURVES
100
AcDbLine
 62
40
  6
CONTINUOUS
 10
6.702656377
 20
3.4000389326
 11
6.734268877
 21
3.4000389326
  0
LINE
  5
288
100
AcDbEntity
  8
03__ASM_ALL_CURVES
100
AcDbLine
 62
40
  6
CONTINUOUS
 10
5.4528602916
 20
3.4000389326
 11
5.4449571666
 21
3.4053076828
  0
LINE
  5
289
100
AcDbEntity
  8
03__ASM_ALL_CURVES
100
AcDbLine
 62
40
  6
CONTINUOUS
 10
5.3975384166
 20
3.4632639326
 11
5.4054415416
 21
3.4579951839
  0
LINE
  5
28A
100
AcDbEntity
  8
03__ASM_ALL_CURVES
100
AcDbLine
 62
40
  6
CONTINUOUS
 10
5.4607634166
 20
3.4632639326
 11
5.4686665416
 21
3.4579951839
  0
LINE
  5
28B
100
AcDbEntity
  8
03__ASM_ALL_CURVES
100
AcDbLine
 62
40
  6
CONTINUOUS
 10
4.6971751372
 20
5.1251209318
 11
4.7024438872
 21
5.104045933
  0
LINE
  5
28C
100
AcDbEntity
  8
03__ASM_ALL_CURVES
100
AcDbLine
 62
40
  6
CONTINUOUS
 10
4.9553438872
 20
5.0899959326
 11
4.9553438872
 21
5.0970209328
  0
LINE
  5
28D
100
AcDbEntity
  8
0
100
AcDbLine
 62
7
  6
CONTINUOUS
 10
4.9800126372
 20
3.6752639326
 11
4.9800126372
 21
4.7512639326
  0
LINE
  5
28E
100
AcDbEntity
  8
03__ASM_ALL_CURVES
100
AcDbLine
 62
40
  6
CONTINUOUS
 10
5.0185688872
 20
5.1110709326
 11
5.0185688872
 21
5.1180959334
  0
LINE
  5
28F
100
AcDbEntity
  8
03__ASM_ALL_CURVES
100
AcDbLine
 62
40
  6
CONTINUOUS
 10
5.0238376372
 20
5.1532209326
 11
5.0238376372
 21
5.1602459309
  0
LINE
  5
290
100
AcDbEntity
  8
03__ASM_ALL_CURVES
100
AcDbLine
 62
40
  6
CONTINUOUS
 10
5.0659876372
 20
5.1602459309
 11
5.0659876372
 21
5.1532209326
  0
LINE
  5
291
100
AcDbEntity
  8
03__ASM_ALL_CURVES
100
AcDbLine
 62
40
  6
CONTINUOUS
 10
5.0712563872
 20
5.1180959334
 11
5.0712563872
 21
5.1110709326
  0
LINE
  5
292
100
AcDbEntity
  8
03__ASM_ALL_CURVES
100
AcDbLine
 62
40
  6
CONTINUOUS
 10
5.1397501372
 20
5.1251209318
 11
5.1344813872
 21
5.104045933
  0
LINE
  5
293
100
AcDbEntity
  8
03__ASM_ALL_CURVES
100
AcDbLine
 62
40
  6
CONTINUOUS
 10
6.5959641895
 20
3.4316514326
 11
6.576206377
 21
3.4316514326
  0
LINE
  5
294
100
AcDbEntity
  8
03__ASM_ALL_CURVES
100
AcDbLine
 62
40
  6
CONTINUOUS
 10
6.4695141895
 20
3.4316514326
 11
6.449756377
 21
3.4316514326
  0
LINE
  5
295
100
AcDbEntity
  8
03__ASM_ALL_CURVES
100
AcDbLine
 62
40
  6
CONTINUOUS
 10
5.5239884166
 20
3.4316514326
 11
5.5042306041
 21
3.4316514326
  0
LINE
  5
296
100
AcDbEntity
  8
03__ASM_ALL_CURVES
100
AcDbLine
 62
40
  6
CONTINUOUS
 10
5.3975384166
 20
3.4316514326
 11
5.3777806041
 21
3.4316514326
  0
LINE
  5
297
100
AcDbEntity
  8
03__ASM_ALL_CURVES
100
AcDbLine
 62
40
  6
CONTINUOUS
 10
5.6425352916
 20
3.4369201813
 11
5.6504384166
 21
3.4369201813
  0
LINE
  5
298
100
AcDbEntity
  8
03__ASM_ALL_CURVES
100
AcDbLine
 62
40
  6
CONTINUOUS
 10
5.3777806041
 20
3.4632639326
 11
5.3975384166
 21
3.4632639326
  0
LINE
  5
299
100
AcDbEntity
  8
03__ASM_ALL_CURVES
100
AcDbLine
 62
40
  6
CONTINUOUS
 10
5.4528602916
 20
3.4632639326
 11
5.4607634166
 21
3.4632639326
  0
LINE
  5
29A
100
AcDbEntity
  8
03__ASM_ALL_CURVES
100
AcDbLine
 62
40
  6
CONTINUOUS
 10
5.5042306041
 20
3.4632639326
 11
5.5239884166
 21
3.4632639326
  0
LINE
  5
29B
100
AcDbEntity
  8
03__ASM_ALL_CURVES
100
AcDbLine
 62
40
  6
CONTINUOUS
 10
5.5635040416
 20
3.4632639326
 11
5.6030196666
 21
3.4632639326
  0
LINE
  5
29C
100
AcDbEntity
  8
03__ASM_ALL_CURVES
100
AcDbLine
 62
40
  6
CONTINUOUS
 10
5.6425352916
 20
3.4632639326
 11
5.6504384166
 21
3.4632639326
  0
LINE
  5
29D
100
AcDbEntity
  8
03__ASM_ALL_CURVES
100
AcDbLine
 62
40
  6
CONTINUOUS
 10
6.449756377
 20
3.4632639326
 11
6.4695141895
 21
3.4632639326
  0
LINE
  5
29E
100
AcDbEntity
  8
03__ASM_ALL_CURVES
100
AcDbLine
 62
40
  6
CONTINUOUS
 10
6.5248360645
 20
3.4632639326
 11
6.5327391895
 21
3.4632639326
  0
LINE
  5
29F
100
AcDbEntity
  8
03__ASM_ALL_CURVES
100
AcDbLine
 62
40
  6
CONTINUOUS
 10
6.576206377
 20
3.4632639326
 11
6.5959641895
 21
3.4632639326
  0
LINE
  5
2A0
100
AcDbEntity
  8
03__ASM_ALL_CURVES
100
AcDbLine
 62
40
  6
CONTINUOUS
 10
6.6354798145
 20
3.4632639326
 11
6.6749954395
 21
3.4632639326
  0
LINE
  5
2A1
100
AcDbEntity
  8
03__ASM_ALL_CURVES
100
AcDbLine
 62
40
  6
CONTINUOUS
 10
6.7145110645
 20
3.4632639326
 11
6.7224141895
 21
3.4632639326
  0
LINE
  5
2A2
100
AcDbEntity
  8
03__ASM_ALL_CURVES
100
AcDbLine
 62
40
  6
CONTINUOUS
 10
5.5239884166
 20
3.4632639326
 11
5.5318915416
 21
3.4579951839
  0
LINE
  5
2A3
100
AcDbEntity
  8
03__ASM_ALL_CURVES
100
AcDbLine
 62
40
  6
CONTINUOUS
 10
5.6425352916
 20
3.4000389326
 11
5.6346321666
 21
3.4053076828
  0
LINE
  5
2A4
100
AcDbEntity
  8
03__ASM_ALL_CURVES
100
AcDbLine
 62
40
  6
CONTINUOUS
 10
5.6504384166
 20
3.4369201813
 11
5.6583415416
 21
3.4316514326
  0
LINE
  5
2A5
100
AcDbEntity
  8
03__ASM_ALL_CURVES
100
AcDbLine
 62
40
  6
CONTINUOUS
 10
5.6504384166
 20
3.4632639326
 11
5.6583415416
 21
3.4579951839
  0
LINE
  5
2A6
100
AcDbEntity
  8
03__ASM_ALL_CURVES
100
AcDbLine
 62
40
  6
CONTINUOUS
 10
5.4449571666
 20
3.4053076828
 11
5.4370540416
 21
3.4158451826
  0
LINE
  5
2A7
100
AcDbEntity
  8
03__ASM_ALL_CURVES
100
AcDbLine
 62
40
  6
CONTINUOUS
 10
5.4054415416
 20
3.4579951839
 11
5.4093931041
 21
3.4527264313
  0
LINE
  5
2A8
100
AcDbEntity
  8
03__ASM_ALL_CURVES
100
AcDbLine
 62
40
  6
CONTINUOUS
 10
5.4686665416
 20
3.4579951839
 11
5.4765696666
 21
3.4474576826
  0
LINE
  5
2A9
100
AcDbEntity
  8
03__ASM_ALL_CURVES
100
AcDbLine
 62
40
  6
CONTINUOUS
 10
5.5318915416
 20
3.4579951839
 11
5.5358431041
 21
3.4527264313
  0
LINE
  5
2AA
100
AcDbEntity
  8
03__ASM_ALL_CURVES
100
AcDbLine
 62
40
  6
CONTINUOUS
 10
4.6076063872
 20
5.104045933
 11
4.6023376372
 21
5.1180959334
  0
LINE
  5
2AB
100
AcDbEntity
  8
03__ASM_ALL_CURVES
100
AcDbLine
 62
40
  6
CONTINUOUS
 10
4.6392188872
 20
5.1602459309
 11
4.6444876372
 21
5.1461959343
  0
LINE
  5
2AC
100
AcDbEntity
  8
03__ASM_ALL_CURVES
100
AcDbLine
 62
40
  6
CONTINUOUS
 10
5.1397501372
 20
5.1391709309
 11
5.1397501372
 21
5.1251209318
  0
LINE
  5
2AD
100
AcDbEntity
  8
0
100
AcDbLine
 62
7
  6
CONTINUOUS
 10
5.1670126372
 20
3.6752639326
 11
5.1670126372
 21
4.7512639326
  0
LINE
  5
2AE
100
AcDbEntity
  8
0
100
AcDbLine
 62
7
  6
CONTINUOUS
 10
5.2170126372
 20
3.6767639326
 11
5.2170126372
 21
4.7497639326
  0
LINE
  5
2AF
100
AcDbEntity
  8
03__ASM_ALL_CURVES
100
AcDbLine
 62
40
  6
CONTINUOUS
 10
6.0164613881
 20
5.1672709343
 11
6.0269988881
 21
5.1742959326
  0
LINE
  5
2B0
100
AcDbEntity
  8
03__ASM_ALL_CURVES
100
AcDbLine
 62
40
  6
CONTINUOUS
 10
6.1007613881
 20
5.1672709343
 11
6.1112988881
 21
5.1742959326
  0
LINE
  5
2B1
100
AcDbEntity
  8
0
100
AcDbLine
 62
7
  6
CONTINUOUS
 10
5.8133690437
 20
3.6980940596
 11
5.8158690437
 21
3.6987639326
  0
LINE
  5
2B2
100
AcDbEntity
  8
0
100
AcDbLine
 62
7
  6
CONTINUOUS
 10
4.9245870114
 20
3.5792639326
 11
4.3376233085
 21
3.5792639326
  0
LINE
  5
2B3
100
AcDbEntity
  8
0
100
AcDbLine
 62
7
  6
CONTINUOUS
 10
4.9245870114
 20
3.5798786231
 11
4.3376233085
 21
3.5798786231
  0
LINE
  5
2B4
100
AcDbEntity
  8
0
100
AcDbLine
 62
7
  6
CONTINUOUS
 10
5.7890126372
 20
3.6752639326
 11
5.7270126372
 21
3.6752639326
  0
LINE
  5
2B5
100
AcDbEntity
  8
0
100
AcDbLine
 62
7
  6
CONTINUOUS
 10
5.3530126372
 20
3.6752639326
 11
5.3080126372
 21
3.6752639326
  0
LINE
  5
2B6
100
AcDbEntity
  8
0
100
AcDbLine
 62
7
  6
CONTINUOUS
 10
5.1670126372
 20
3.6752639326
 11
4.9800126372
 21
3.6752639326
  0
LINE
  5
2B7
100
AcDbEntity
  8
0
100
AcDbLine
 62
7
  6
CONTINUOUS
 10
5.1670126372
 20
3.6767639326
 11
5.2170126372
 21
3.6767639326
  0
LINE
  5
2B8
100
AcDbEntity
  8
THREAD
100
AcDbLine
 62
7
  6
CONTINUOUS
 10
5.8390126372
 20
3.6987639326
 11
5.8158690437
 21
3.6987639326
  0
LINE
  5
2B9
100
AcDbEntity
  8
0
100
AcDbLine
 62
7
  6
CONTINUOUS
 10
5.9090126372
 20
3.7012639326
 11
5.9590126372
 21
3.7012639326
  0
LINE
  5
2BA
100
AcDbEntity
  8
0
100
AcDbLine
 62
7
  6
CONTINUOUS
 10
4.2920126372
 20
3.7162639326
 11
3.8540126372
 21
3.7162639326
  0
LINE
  5
2BB
100
AcDbEntity
  8
THREAD
100
AcDbLine
 62
7
  6
CONTINUOUS
 10
6.2730126372
 20
3.7172639326
 11
6.0019519474
 21
3.7172639326
  0
LINE
  5
2BC
100
AcDbEntity
  8
03__ASM_ALL_CURVES
100
AcDbLine
 62
40
  6
CONTINUOUS
 10
5.6346321666
 20
3.4053076828
 11
5.6306806041
 21
3.4105764329
  0
LINE
  5
2BD
100
AcDbEntity
  8
03__ASM_ALL_CURVES
100
AcDbLine
 62
40
  6
CONTINUOUS
 10
5.6583415416
 20
3.4316514326
 11
5.6662446666
 21
3.4211139332
  0
LINE
  5
2BE
100
AcDbEntity
  8
03__ASM_ALL_CURVES
100
AcDbLine
 62
40
  6
CONTINUOUS
 10
5.6583415416
 20
3.4579951839
 11
5.6622931041
 21
3.4527264313
  0
LINE
  5
2BF
100
AcDbEntity
  8
03__ASM_ALL_CURVES
100
AcDbLine
 62
40
  6
CONTINUOUS
 10
4.8130876372
 20
5.1321459326
 11
4.8183563872
 21
5.1180959334
  0
LINE
  5
2C0
100
AcDbEntity
  8
03__ASM_ALL_CURVES
100
AcDbLine
 62
40
  6
CONTINUOUS
 10
4.8605063872
 20
5.104045933
 11
4.8552376372
 21
5.1180959334
  0
LINE
  5
2C1
100
AcDbEntity
  8
0
100
AcDbLine
 62
7
  6
CONTINUOUS
 10
5.2870126372
 20
4.7307639326
 11
5.2870126372
 21
3.6957639326
  0
LINE
  5
2C2
100
AcDbEntity
  8
0
100
AcDbLine
 62
7
  6
CONTINUOUS
 10
5.3080126372
 20
3.6752639326
 11
5.3080126372
 21
4.7512639326
  0
LINE
  5
2C3
100
AcDbEntity
  8
0
100
AcDbLine
 62
7
  6
CONTINUOUS
 10
5.3530126372
 20
3.6752639326
 11
5.3530126372
 21
4.7512639326
  0
LINE
  5
2C4
100
AcDbEntity
  8
127-414_FEATURES
100
AcDbLine
 62
7
  6
CONTINUOUS
 10
5.3744485726
 20
3.7558670241
 11
5.3744485726
 21
4.6712639326
  0
LINE
  5
2C5
100
AcDbEntity
  8
03__ASM_ALL_CURVES
100
AcDbLine
 62
40
  6
CONTINUOUS
 10
5.3777806041
 20
3.4000389326
 11
5.3777806041
 21
3.4632639326
  0
LINE
  5
2C6
100
AcDbEntity
  8
03__ASM_ALL_CURVES
100
AcDbLine
 62
40
  6
CONTINUOUS
 10
6.0480738881
 20
5.0970209328
 11
6.0375363881
 21
5.0899959326
  0
LINE
  5
2C7
100
AcDbEntity
  8
03__ASM_ALL_CURVES
100
AcDbLine
 62
40
  6
CONTINUOUS
 10
6.1323738881
 20
5.0970209328
 11
6.1218363881
 21
5.0899959326
  0
LINE
  5
2C8
100
AcDbEntity
  8
0
100
AcDbLine
 62
7
  6
CONTINUOUS
 10
5.3080126372
 20
3.7307639326
 11
5.2870126372
 21
3.7307639326
  0
LINE
  5
2C9
100
AcDbEntity
  8
THREAD
100
AcDbLine
 62
7
  6
CONTINUOUS
 10
5.9725070837
 20
3.7552639326
 11
5.9590126372
 21
3.7552639326
  0
LINE
  5
2CA
100
AcDbEntity
  8
0
100
AcDbLine
 62
7
  6
CONTINUOUS
 10
5.7055767018
 20
3.7552639326
 11
5.4076825913
 21
3.7552639326
  0
LINE
  5
2CB
100
AcDbEntity
  8
THREAD
100
AcDbLine
 62
7
  6
CONTINUOUS
 10
6.4010126372
 20
3.7612639326
 11
6.3170126372
 21
3.7612639326
  0
LINE
  5
2CC
100
AcDbEntity
  8
0
100
AcDbLine
 62
7
  6
CONTINUOUS
 10
6.8520126372
 20
3.7767639326
 11
6.9090126372
 21
3.7767639326
  0
LINE
  5
2CD
100
AcDbEntity
  8
0
100
AcDbLine
 62
7
  6
CONTINUOUS
 10
7.1070126372
 20
3.7767639326
 11
7.1490126372
 21
3.7767639326
  0
LINE
  5
2CE
100
AcDbEntity
  8
0
100
AcDbLine
 62
7
  6
CONTINUOUS
 10
6.9090126372
 20
3.7772639326
 11
6.9590126372
 21
3.7772639326
  0
LINE
  5
2CF
100
AcDbEntity
  8
0
100
AcDbLine
 62
7
  6
CONTINUOUS
 10
7.0290126372
 20
3.7772639326
 11
7.0790126372
 21
3.7772639326
  0
LINE
  5
2D0
100
AcDbEntity
  8
0
100
AcDbLine
 62
7
  6
CONTINUOUS
 10
7.1070126372
 20
3.8312639326
 11
7.0790126372
 21
3.8312639326
  0
LINE
  5
2D1
100
AcDbEntity
  8
0
100
AcDbLine
 62
7
  6
CONTINUOUS
 10
6.5220126372
 20
3.8392639326
 11
6.4170126372
 21
3.8392639326
  0
LINE
  5
2D2
100
AcDbEntity
  8
03__ASM_ALL_CURVES
100
AcDbLine
 62
40
  6
CONTINUOUS
 10
4.4706188872
 20
5.1672709343
 11
4.4758876372
 21
5.1602459309
  0
LINE
  5
2D3
100
AcDbEntity
  8
03__ASM_ALL_CURVES
100
AcDbLine
 62
40
  6
CONTINUOUS
 10
4.5338438872
 20
5.0970209328
 11
4.5391126372
 21
5.0899959326
  0
LINE
  5
2D4
100
AcDbEntity
  8
03__ASM_ALL_CURVES
100
AcDbLine
 62
40
  6
CONTINUOUS
 10
4.6128751372
 20
5.0970209328
 11
4.6076063872
 21
5.104045933
  0
LINE
  5
2D5
100
AcDbEntity
  8
0
100
AcDbLine
 62
7
  6
CONTINUOUS
 10
4.9800126372
 20
4.7512639326
 11
4.9248531802
 21
4.8468029147
  0
LINE
  5
2D6
100
AcDbEntity
  8
03__ASM_ALL_CURVES
100
AcDbLine
 62
40
  6
CONTINUOUS
 10
5.5239884166
 20
3.4316514326
 11
5.5358431041
 21
3.4000389326
  0
LINE
  5
2D7
100
AcDbEntity
  8
03__ASM_ALL_CURVES
100
AcDbLine
 62
40
  6
CONTINUOUS
 10
4.8921188872
 20
5.1602459309
 11
4.8973876372
 21
5.1461959343
  0
LINE
  5
2D8
100
AcDbEntity
  8
03__ASM_ALL_CURVES
100
AcDbLine
 62
40
  6
CONTINUOUS
 10
5.4370540416
 20
3.4158451826
 11
5.4331024791
 21
3.4316514326
  0
LINE
  5
2D9
100
AcDbEntity
  8
03__ASM_ALL_CURVES
100
AcDbLine
 62
40
  6
CONTINUOUS
 10
5.4765696666
 20
3.4474576826
 11
5.4805212291
 21
3.4316514326
  0
LINE
  5
2DA
100
AcDbEntity
  8
03__ASM_ALL_CURVES
100
AcDbLine
 62
40
  6
CONTINUOUS
 10
5.1344813872
 20
5.1602459309
 11
5.1397501372
 21
5.1391709309
  0
LINE
  5
2DB
100
AcDbEntity
  8
03__ASM_ALL_CURVES
100
AcDbLine
 62
40
  6
CONTINUOUS
 10
5.4093931041
 20
3.4527264313
 11
5.4093931041
 21
3.4421889339
  0
LINE
  5
2DC
100
AcDbEntity
  8
03__ASM_ALL_CURVES
100
AcDbLine
 62
40
  6
CONTINUOUS
 10
5.5042306041
 20
3.4000389326
 11
5.5042306041
 21
3.4632639326
  0
LINE
  5
2DD
100
AcDbEntity
  8
0
100
AcDbLine
 62
7
  6
CONTINUOUS
 10
5.3674253981
 20
3.7290530884
 11
5.3530126372
 21
3.6752639326
  0
LINE
  5
2DE
100
AcDbEntity
  8
0
100
AcDbLine
 62
7
  6
CONTINUOUS
 10
4.9800126372
 20
3.6752639326
 11
4.9248531802
 21
3.5797249505
  0
LINE
  5
2DF
100
AcDbEntity
  8
03__ASM_ALL_CURVES
100
AcDbLine
 62
40
  6
CONTINUOUS
 10
6.0059238881
 20
5.1532209326
 11
6.0164613881
 21
5.1672709343
  0
LINE
  5
2E0
100
AcDbEntity
  8
03__ASM_ALL_CURVES
100
AcDbLine
 62
40
  6
CONTINUOUS
 10
6.0586113881
 20
5.1110709326
 11
6.0480738881
 21
5.0970209328
  0
LINE
  5
2E1
100
AcDbEntity
  8
03__ASM_ALL_CURVES
100
AcDbLine
 62
40
  6
CONTINUOUS
 10
6.0902238881
 20
5.1532209326
 11
6.1007613881
 21
5.1672709343
  0
LINE
  5
2E2
100
AcDbEntity
  8
03__ASM_ALL_CURVES
100
AcDbLine
 62
40
  6
CONTINUOUS
 10
6.5222613881
 20
5.1672709343
 11
6.5327988881
 21
5.1742959326
  0
LINE
  5
2E3
100
AcDbEntity
  8
0
100
AcDbLine
 62
7
  6
CONTINUOUS
 10
6.5634220398
 20
3.8692639326
 11
6.5520126372
 21
3.8692639326
  0
LINE
  5
2E4
100
AcDbEntity
  8
0
100
AcDbLine
 62
7
  6
CONTINUOUS
 10
4.9245870114
 20
3.8723992421
 11
4.3376233085
 21
3.8723992421
  0
LINE
  5
2E5
100
AcDbEntity
  8
0
100
AcDbLine
 62
7
  6
CONTINUOUS
 10
4.9245870114
 20
3.9207433137
 11
4.3376233085
 21
3.9207433137
  0
LINE
  5
2E6
100
AcDbEntity
  8
03__ASM_ALL_CURVES
100
AcDbLine
 62
40
  6
CONTINUOUS
 10
6.5248360645
 20
3.4000389326
 11
6.5169329395
 21
3.4053076828
  0
LINE
  5
2E7
100
AcDbEntity
  8
03__ASM_ALL_CURVES
100
AcDbLine
 62
40
  6
CONTINUOUS
 10
6.4695141895
 20
3.4632639326
 11
6.4774173145
 21
3.4579951839
  0
LINE
  5
2E8
100
AcDbEntity
  8
03__ASM_ALL_CURVES
100
AcDbLine
 62
40
  6
CONTINUOUS
 10
6.5327391895
 20
3.4632639326
 11
6.5406423145
 21
3.4579951839
  0
LINE
  5
2E9
100
AcDbEntity
  8
03__ASM_ALL_CURVES
100
AcDbLine
 62
40
  6
CONTINUOUS
 10
4.6339501372
 20
5.1672709343
 11
4.6392188872
 21
5.1602459309
  0
LINE
  5
2EA
100
AcDbEntity
  8
03__ASM_ALL_CURVES
100
AcDbLine
 62
40
  6
CONTINUOUS
 10
4.7024438872
 20
5.104045933
 11
4.7129813872
 21
5.0899959326
  0
LINE
  5
2EB
100
AcDbEntity
  8
03__ASM_ALL_CURVES
100
AcDbLine
 62
40
  6
CONTINUOUS
 10
4.7762063872
 20
5.0970209328
 11
4.7709376372
 21
5.104045933
  0
LINE
  5
2EC
100
AcDbEntity
  8
03__ASM_ALL_CURVES
100
AcDbLine
 62
40
  6
CONTINUOUS
 10
4.8078188872
 20
5.1391709309
 11
4.8130876372
 21
5.1321459326
  0
LINE
  5
2ED
100
AcDbEntity
  8
0
100
AcDbLine
 62
7
  6
CONTINUOUS
 10
5.3744485726
 20
4.6712639326
 11
5.3530126372
 21
4.7512639326
  0
LINE
  5
2EE
100
AcDbEntity
  8
03__ASM_ALL_CURVES
100
AcDbLine
 62
40
  6
CONTINUOUS
 10
5.5358431041
 20
3.4527264313
 11
5.5358431041
 21
3.4421889339
  0
LINE
  5
2EF
100
AcDbEntity
  8
03__ASM_ALL_CURVES
100
AcDbLine
 62
40
  6
CONTINUOUS
 10
5.5832618541
 20
3.4632639326
 11
5.5832618541
 21
3.4000389326
  0
LINE
  5
2F0
100
AcDbEntity
  8
03__ASM_ALL_CURVES
100
AcDbLine
 62
40
  6
CONTINUOUS
 10
5.6622931041
 20
3.4527264313
 11
5.6622931041
 21
3.4474576826
  0
LINE
  5
2F1
100
AcDbEntity
  8
03__ASM_ALL_CURVES
100
AcDbLine
 62
40
  6
CONTINUOUS
 10
5.6662446666
 20
3.4211139332
 11
5.6662446666
 21
3.4158451826
  0
LINE
  5
2F2
100
AcDbEntity
  8
03__ASM_ALL_CURVES
100
AcDbLine
 62
40
  6
CONTINUOUS
 10
5.4331024791
 20
3.4316514326
 11
5.4370540416
 21
3.4474576826
  0
LINE
  5
2F3
100
AcDbEntity
  8
0
100
AcDbLine
 62
7
  6
CONTINUOUS
 10
5.7270126372
 20
4.7512639326
 11
5.7055767018
 21
4.6712639326
  0
LINE
  5
2F4
100
AcDbEntity
  8
03__ASM_ALL_CURVES
100
AcDbLine
 62
40
  6
CONTINUOUS
 10
6.1376426381
 20
5.104045933
 11
6.1323738881
 21
5.0970209328
  0
LINE
  5
2F5
100
AcDbEntity
  8
03__ASM_ALL_CURVES
100
AcDbLine
 62
40
  6
CONTINUOUS
 10
6.5538738881
 20
5.0970209328
 11
6.5433363881
 21
5.0899959326
  0
LINE
  5
2F6
100
AcDbEntity
  8
03__ASM_ALL_CURVES
100
AcDbLine
 62
40
  6
CONTINUOUS
 10
6.7013988881
 20
5.1742959326
 11
6.6908613881
 21
5.1672709343
  0
LINE
  5
2F7
100
AcDbEntity
  8
03__ASM_ALL_CURVES
100
AcDbLine
 62
40
  6
CONTINUOUS
 10
6.7224738881
 20
5.0970209328
 11
6.7119363881
 21
5.0899959326
  0
LINE
  5
2F8
100
AcDbEntity
  8
03__ASM_ALL_CURVES
100
AcDbLine
 62
40
  6
CONTINUOUS
 10
6.8594613881
 20
5.1672709343
 11
6.8699988881
 21
5.1742959326
  0
LINE
  5
2F9
100
AcDbEntity
  8
0
100
AcDbLine
 62
7
  6
CONTINUOUS
 10
6.7650128539
 20
4.1327639326
 11
6.8393443164
 21
4.1327639326
  0
LINE
  5
2FA
100
AcDbEntity
  8
0
100
AcDbLine
 62
7
  6
CONTINUOUS
 10
6.7650128539
 20
4.1356139326
 11
6.7450126372
 21
4.1356139326
  0
LINE
  5
2FB
100
AcDbEntity
  8
03__ASM_ALL_CURVES
100
AcDbLine
 62
40
  6
CONTINUOUS
 10
6.5959641895
 20
3.4632639326
 11
6.6038673145
 21
3.4579951839
  0
LINE
  5
2FC
100
AcDbEntity
  8
03__ASM_ALL_CURVES
100
AcDbLine
 62
40
  6
CONTINUOUS
 10
6.7224141895
 20
3.4632639326
 11
6.7303173145
 21
3.4579951839
  0
LINE
  5
2FD
100
AcDbEntity
  8
03__ASM_ALL_CURVES
100
AcDbLine
 62
40
  6
CONTINUOUS
 10
4.8657751372
 20
5.0970209328
 11
4.8605063872
 21
5.104045933
  0
LINE
  5
2FE
100
AcDbEntity
  8
03__ASM_ALL_CURVES
100
AcDbLine
 62
40
  6
CONTINUOUS
 10
4.8868501372
 20
5.1672709343
 11
4.8921188872
 21
5.1602459309
  0
LINE
  5
2FF
100
AcDbEntity
  8
03__ASM_ALL_CURVES
100
AcDbLine
 62
40
  6
CONTINUOUS
 10
4.9553438872
 20
5.0970209328
 11
4.9606126372
 21
5.0899959326
  0
LINE
  5
300
100
AcDbEntity
  8
03__ASM_ALL_CURVES
100
AcDbLine
 62
40
  6
CONTINUOUS
 10
5.0291063872
 20
5.0970209328
 11
5.0185688872
 21
5.1110709326
  0
LINE
  5
301
100
AcDbEntity
  8
0
100
AcDbLine
 62
7
  6
CONTINUOUS
 10
5.7270126372
 20
3.6752639326
 11
5.7055767018
 21
3.7552639326
  0
LINE
  5
302
100
AcDbEntity
  8
03__ASM_ALL_CURVES
100
AcDbLine
 62
40
  6
CONTINUOUS
 10
5.6908526372
 20
5.0731359326
 11
5.6908526372
 21
5.0394159326
  0
LINE
  5
303
100
AcDbEntity
  8
0
100
AcDbLine
 62
7
  6
CONTINUOUS
 10
5.7055767018
 20
3.7552639326
 11
5.7055767018
 21
4.6712639326
  0
LINE
  5
304
100
AcDbEntity
  8
0
100
AcDbLine
 62
7
  6
CONTINUOUS
 10
5.7270126372
 20
3.6752639326
 11
5.7270126372
 21
4.7512639326
  0
LINE
  5
305
100
AcDbEntity
  8
0
100
AcDbLine
 62
7
  6
CONTINUOUS
 10
5.7890126372
 20
4.7512639326
 11
5.7890126372
 21
3.6752639326
  0
LINE
  5
306
100
AcDbEntity
  8
0
100
AcDbLine
 62
7
  6
CONTINUOUS
 10
5.7920126372
 20
4.7482639326
 11
5.7920126372
 21
3.6782639326
  0
LINE
  5
307
100
AcDbEntity
  8
03__ASM_ALL_CURVES
100
AcDbLine
 62
40
  6
CONTINUOUS
 10
5.7920126372
 20
4.7681239326
 11
5.7920126372
 21
5.0899959326
  0
LINE
  5
308
100
AcDbEntity
  8
0
100
AcDbLine
 62
7
  6
CONTINUOUS
 10
5.7945126372
 20
3.6872073083
 11
5.7945126372
 21
4.7393205569
  0
LINE
  5
309
100
AcDbEntity
  8
0
100
AcDbLine
 62
7
  6
CONTINUOUS
 10
5.8133690372
 20
4.7277639566
 11
5.8133690437
 21
4.7284338056
  0
LINE
  5
30A
100
AcDbEntity
  8
0
100
AcDbLine
 62
7
  6
CONTINUOUS
 10
5.8133690437
 20
3.6980940596
 11
5.8133690372
 21
4.7277639566
  0
LINE
  5
30B
100
AcDbEntity
  8
0
100
AcDbLine
 62
7
  6
CONTINUOUS
 10
5.8158690437
 20
3.6987639326
 11
5.8158690437
 21
4.7277639326
  0
LINE
  5
30C
100
AcDbEntity
  8
03__ASM_ALL_CURVES
100
AcDbLine
 62
40
  6
CONTINUOUS
 10
5.4805212291
 20
3.4316514326
 11
5.4765696666
 21
3.4158451826
  0
LINE
  5
30D
100
AcDbEntity
  8
03__ASM_ALL_CURVES
100
AcDbLine
 62
40
  6
CONTINUOUS
 10
6.0006551381
 20
5.1321459326
 11
6.0059238881
 21
5.1532209326
  0
LINE
  5
30E
100
AcDbEntity
  8
THREAD
100
AcDbLine
 62
7
  6
CONTINUOUS
 10
6.0019519474
 20
4.7092639326
 11
5.983765414
 21
4.6777639326
  0
LINE
  5
30F
100
AcDbEntity
  8
03__ASM_ALL_CURVES
100
AcDbLine
 62
40
  6
CONTINUOUS
 10
6.8910738881
 20
5.0970209328
 11
6.8805363881
 21
5.0899959326
  0
LINE
  5
310
100
AcDbEntity
  8
03__ASM_ALL_CURVES
100
AcDbLine
 62
40
  6
CONTINUOUS
 10
6.9753738881
 20
5.0970209328
 11
6.9648363881
 21
5.0899959326
  0
LINE
  5
311
100
AcDbEntity
  8
03__ASM_ALL_CURVES
100
AcDbLine
 62
40
  6
CONTINUOUS
 10
7.6249954494
 20
4.2301239326
 11
7.6170923244
 21
4.2301239326
  0
LINE
  5
312
100
AcDbEntity
  8
03__ASM_ALL_CURVES
100
AcDbLine
 62
40
  6
CONTINUOUS
 10
7.6882204494
 20
4.2617364326
 11
7.6684626369
 21
4.2617364326
  0
LINE
  5
313
100
AcDbEntity
  8
03__ASM_ALL_CURVES
100
AcDbLine
 62
40
  6
CONTINUOUS
 10
7.5617704494
 20
4.2617364326
 11
7.5420126369
 21
4.2617364326
  0
LINE
  5
314
100
AcDbEntity
  8
0
100
AcDbLine
 62
7
  6
CONTINUOUS
 10
6.7650128539
 20
4.2909139326
 11
6.7450126372
 21
4.2909139326
  0
LINE
  5
315
100
AcDbEntity
  8
03__ASM_ALL_CURVES
100
AcDbLine
 62
40
  6
CONTINUOUS
 10
7.5420126369
 20
4.2933489326
 11
7.5617704494
 21
4.2933489326
  0
LINE
  5
316
100
AcDbEntity
  8
03__ASM_ALL_CURVES
100
AcDbLine
 62
40
  6
CONTINUOUS
 10
7.6170923244
 20
4.2933489326
 11
7.6249954494
 21
4.2933489326
  0
LINE
  5
317
100
AcDbEntity
  8
03__ASM_ALL_CURVES
100
AcDbLine
 62
40
  6
CONTINUOUS
 10
7.6684626369
 20
4.2933489326
 11
7.6882204494
 21
4.2933489326
  0
LINE
  5
318
100
AcDbEntity
  8
03__ASM_ALL_CURVES
100
AcDbLine
 62
40
  6
CONTINUOUS
 10
7.7277360744
 20
4.2933489326
 11
7.7672516994
 21
4.2933489326
  0
LINE
  5
319
100
AcDbEntity
  8
0
100
AcDbLine
 62
7
  6
CONTINUOUS
 10
6.7650128539
 20
4.2937639326
 11
6.8393388535
 21
4.2937639326
  0
LINE
  5
31A
100
AcDbEntity
  8
03__ASM_ALL_CURVES
100
AcDbLine
 62
40
  6
CONTINUOUS
 10
4.4600813872
 20
5.1742959326
 11
4.4706188872
 21
5.1672709343
  0
LINE
  5
31B
100
AcDbEntity
  8
03__ASM_ALL_CURVES
100
AcDbLine
 62
40
  6
CONTINUOUS
 10
4.6234126372
 20
5.0899959326
 11
4.6128751372
 21
5.0970209328
  0
LINE
  5
31C
100
AcDbEntity
  8
03__ASM_ALL_CURVES
100
AcDbLine
 62
40
  6
CONTINUOUS
 10
5.0291063872
 20
5.1461959343
 11
5.0238376372
 21
5.1532209326
  0
LINE
  5
31D
100
AcDbEntity
  8
03__ASM_ALL_CURVES
100
AcDbLine
 62
40
  6
CONTINUOUS
 10
5.0607188872
 20
5.1321459326
 11
5.0712563872
 21
5.1180959334
  0
LINE
  5
31E
100
AcDbEntity
  8
03__ASM_ALL_CURVES
100
AcDbLine
 62
40
  6
CONTINUOUS
 10
5.0607188872
 20
5.1672709343
 11
5.0659876372
 21
5.1602459309
  0
LINE
  5
31F
100
AcDbEntity
  8
03__ASM_ALL_CURVES
100
AcDbLine
 62
40
  6
CONTINUOUS
 10
5.1239438872
 20
5.1742959326
 11
5.1344813872
 21
5.1602459309
  0
LINE
  5
320
100
AcDbEntity
  8
THREAD
100
AcDbLine
 62
7
  6
CONTINUOUS
 10
6.0019519474
 20
3.7172639326
 11
5.983765414
 21
3.7487639326
  0
LINE
  5
321
100
AcDbEntity
  8
THREAD
100
AcDbLine
 62
7
  6
CONTINUOUS
 10
5.8390126372
 20
3.6987639326
 11
5.8390126372
 21
4.7277639326
  0
LINE
  5
322
100
AcDbEntity
  8
03__ASM_ALL_CURVES
100
AcDbLine
 62
40
  6
CONTINUOUS
 10
5.8931726372
 20
5.0731359326
 11
5.8931726372
 21
5.0394159326
  0
LINE
  5
323
100
AcDbEntity
  8
0
100
AcDbLine
 62
7
  6
CONTINUOUS
 10
5.9090126372
 20
3.7012639326
 11
5.9090126372
 21
4.7252639326
  0
LINE
  5
324
100
AcDbEntity
  8
03__ASM_ALL_CURVES
100
AcDbLine
 62
40
  6
CONTINUOUS
 10
5.9268926381
 20
5.1742959326
 11
5.9268926381
 21
5.0899959326
  0
LINE
  5
325
100
AcDbEntity
  8
0
100
AcDbLine
 62
7
  6
CONTINUOUS
 10
5.9590126372
 20
3.7012639326
 11
5.9590126372
 21
4.7252639326
  0
LINE
  5
326
100
AcDbEntity
  8
03__ASM_ALL_CURVES
100
AcDbLine
 62
40
  6
CONTINUOUS
 10
6.0638801381
 20
5.1321459326
 11
6.0586113881
 21
5.1110709326
  0
LINE
  5
327
100
AcDbEntity
  8
03__ASM_ALL_CURVES
100
AcDbLine
 62
40
  6
CONTINUOUS
 10
6.0849551381
 20
5.1321459326
 11
6.0902238881
 21
5.1532209326
  0
LINE
  5
328
100
AcDbEntity
  8
03__ASM_ALL_CURVES
100
AcDbLine
 62
40
  6
CONTINUOUS
 10
6.1745238881
 20
5.0899959326
 11
6.2008676381
 21
5.1742959326
  0
LINE
  5
329
100
AcDbEntity
  8
03__ASM_ALL_CURVES
100
AcDbLine
 62
40
  6
CONTINUOUS
 10
6.5117238881
 20
5.1532209326
 11
6.5222613881
 21
5.1672709343
  0
LINE
  5
32A
100
AcDbEntity
  8
03__ASM_ALL_CURVES
100
AcDbLine
 62
40
  6
CONTINUOUS
 10
6.5591426381
 20
5.104045933
 11
6.5538738881
 21
5.0970209328
  0
LINE
  5
32B
100
AcDbEntity
  8
03__ASM_ALL_CURVES
100
AcDbLine
 62
40
  6
CONTINUOUS
 10
7.1387051381
 20
5.0970209328
 11
7.1281676381
 21
5.0899959326
  0
LINE
  5
32C
100
AcDbEntity
  8
03__ASM_ALL_CURVES
100
AcDbLine
 62
40
  6
CONTINUOUS
 10
7.3125738881
 20
5.1391709309
 11
7.3020363881
 21
5.1321459326
  0
LINE
  5
32D
100
AcDbEntity
  8
03__ASM_ALL_CURVES
100
AcDbLine
 62
40
  6
CONTINUOUS
 10
4.6234126372
 20
5.1742959326
 11
4.6339501372
 21
5.1672709343
  0
LINE
  5
32E
100
AcDbEntity
  8
03__ASM_ALL_CURVES
100
AcDbLine
 62
40
  6
CONTINUOUS
 10
4.7867438872
 20
5.0899959326
 11
4.7762063872
 21
5.0970209328
  0
LINE
  5
32F
100
AcDbEntity
  8
03__ASM_ALL_CURVES
100
AcDbLine
 62
40
  6
CONTINUOUS
 10
4.8763126372
 20
5.0899959326
 11
4.8657751372
 21
5.0970209328
  0
LINE
  5
330
100
AcDbEntity
  8
03__ASM_ALL_CURVES
100
AcDbLine
 62
40
  6
CONTINUOUS
 10
4.7972813872
 20
5.1461959343
 11
4.8078188872
 21
5.1391709309
  0
LINE
  5
331
100
AcDbEntity
  8
03__ASM_ALL_CURVES
100
AcDbLine
 62
40
  6
CONTINUOUS
 10
6.5169329395
 20
3.4053076828
 11
6.5090298145
 21
3.4158451826
  0
LINE
  5
332
100
AcDbEntity
  8
03__ASM_ALL_CURVES
100
AcDbLine
 62
40
  6
CONTINUOUS
 10
6.4774173145
 20
3.4579951839
 11
6.481368877
 21
3.4527264313
  0
LINE
  5
333
100
AcDbEntity
  8
03__ASM_ALL_CURVES
100
AcDbLine
 62
40
  6
CONTINUOUS
 10
6.5406423145
 20
3.4579951839
 11
6.5485454395
 21
3.4474576826
  0
LINE
  5
334
100
AcDbEntity
  8
03__ASM_ALL_CURVES
100
AcDbLine
 62
40
  6
CONTINUOUS
 10
6.6038673145
 20
3.4579951839
 11
6.607818877
 21
3.4527264313
  0
LINE
  5
335
100
AcDbEntity
  8
THREAD
100
AcDbLine
 62
7
  6
CONTINUOUS
 10
5.9725070837
 20
3.7552639326
 11
5.9725070837
 21
4.6712639326
  0
LINE
  5
336
100
AcDbEntity
  8
THREAD
100
AcDbLine
 62
7
  6
CONTINUOUS
 10
5.983765414
 20
3.7487639326
 11
5.983765414
 21
4.6777639326
  0
LINE
  5
337
100
AcDbEntity
  8
THREAD
100
AcDbLine
 62
7
  6
CONTINUOUS
 10
6.0019519474
 20
3.7172639326
 11
6.0019519474
 21
4.7092639326
  0
LINE
  5
338
100
AcDbEntity
  8
03__ASM_ALL_CURVES
100
AcDbLine
 62
40
  6
CONTINUOUS
 10
6.6908613881
 20
5.1672709343
 11
6.6855926381
 21
5.1602459309
  0
LINE
  5
339
100
AcDbEntity
  8
03__ASM_ALL_CURVES
100
AcDbLine
 62
40
  6
CONTINUOUS
 10
5.4093931041
 20
3.4421889339
 11
5.4054415416
 21
3.4369201813
  0
LINE
  5
33A
100
AcDbEntity
  8
03__ASM_ALL_CURVES
100
AcDbLine
 62
40
  6
CONTINUOUS
 10
5.4370540416
 20
3.4474576826
 11
5.4449571666
 21
3.4579951839
  0
LINE
  5
33B
100
AcDbEntity
  8
03__ASM_ALL_CURVES
100
AcDbLine
 62
40
  6
CONTINUOUS
 10
6.7277426381
 20
5.104045933
 11
6.7224738881
 21
5.0970209328
  0
LINE
  5
33C
100
AcDbEntity
  8
03__ASM_ALL_CURVES
100
AcDbLine
 62
40
  6
CONTINUOUS
 10
5.4765696666
 20
3.4158451826
 11
5.4686665416
 21
3.4053076828
  0
LINE
  5
33D
100
AcDbEntity
  8
03__ASM_ALL_CURVES
100
AcDbLine
 62
40
  6
CONTINUOUS
 10
5.5358431041
 20
3.4421889339
 11
5.5318915416
 21
3.4369201813
  0
LINE
  5
33E
100
AcDbEntity
  8
0
100
AcDbLine
 62
7
  6
CONTINUOUS
 10
4.9245870114
 20
4.5057845515
 11
4.3376233085
 21
4.5057845515
  0
LINE
  5
33F
100
AcDbEntity
  8
0
100
AcDbLine
 62
7
  6
CONTINUOUS
 10
4.9245870114
 20
4.5541286231
 11
4.3376233085
 21
4.5541286231
  0
LINE
  5
340
100
AcDbEntity
  8
0
100
AcDbLine
 62
7
  6
CONTINUOUS
 10
6.5634220398
 20
4.5572639326
 11
6.5520126372
 21
4.5572639326
  0
LINE
  5
341
100
AcDbEntity
  8
0
100
AcDbLine
 62
7
  6
CONTINUOUS
 10
6.5220126372
 20
4.5872639326
 11
6.4770126372
 21
4.5872639326
  0
LINE
  5
342
100
AcDbEntity
  8
0
100
AcDbLine
 62
7
  6
CONTINUOUS
 10
7.1070126372
 20
4.5952639326
 11
7.0790126372
 21
4.5952639326
  0
LINE
  5
343
100
AcDbEntity
  8
03__ASM_ALL_CURVES
100
AcDbLine
 62
40
  6
CONTINUOUS
 10
4.8763126372
 20
5.1742959326
 11
4.8868501372
 21
5.1672709343
  0
LINE
  5
344
100
AcDbEntity
  8
03__ASM_ALL_CURVES
100
AcDbLine
 62
40
  6
CONTINUOUS
 10
5.0396438872
 20
5.0899959326
 11
5.0291063872
 21
5.0970209328
  0
LINE
  5
345
100
AcDbEntity
  8
03__ASM_ALL_CURVES
100
AcDbLine
 62
40
  6
CONTINUOUS
 10
5.0396438872
 20
5.1391709309
 11
5.0291063872
 21
5.1461959343
  0
LINE
  5
346
100
AcDbEntity
  8
03__ASM_ALL_CURVES
100
AcDbLine
 62
40
  6
CONTINUOUS
 10
5.0501813872
 20
5.1391709309
 11
5.0607188872
 21
5.1321459326
  0
LINE
  5
347
100
AcDbEntity
  8
03__ASM_ALL_CURVES
100
AcDbLine
 62
40
  6
CONTINUOUS
 10
6.7303173145
 20
3.4579951839
 11
6.734268877
 21
3.4527264313
  0
LINE
  5
348
100
AcDbEntity
  8
03__ASM_ALL_CURVES
100
AcDbLine
 62
40
  6
CONTINUOUS
 10
6.8489238881
 20
5.1532209326
 11
6.8594613881
 21
5.1672709343
  0
LINE
  5
349
100
AcDbEntity
  8
03__ASM_ALL_CURVES
100
AcDbLine
 62
40
  6
CONTINUOUS
 10
6.9016113881
 20
5.1110709326
 11
6.8910738881
 21
5.0970209328
  0
LINE
  5
34A
100
AcDbEntity
  8
03__ASM_ALL_CURVES
100
AcDbLine
 62
40
  6
CONTINUOUS
 10
5.6622931041
 20
3.4474576826
 11
5.6583415416
 21
3.4421889339
  0
LINE
  5
34B
100
AcDbEntity
  8
03__ASM_ALL_CURVES
100
AcDbLine
 62
40
  6
CONTINUOUS
 10
5.6662446666
 20
3.4158451826
 11
5.6583415416
 21
3.4053076828
  0
LINE
  5
34C
100
AcDbEntity
  8
03__ASM_ALL_CURVES
100
AcDbLine
 62
40
  6
CONTINUOUS
 10
6.9806426381
 20
5.104045933
 11
6.9753738881
 21
5.0970209328
  0
LINE
  5
34D
100
AcDbEntity
  8
0
100
AcDbLine
 62
7
  6
CONTINUOUS
 10
6.9090126372
 20
4.6492639326
 11
6.9590126372
 21
4.6492639326
  0
LINE
  5
34E
100
AcDbEntity
  8
0
100
AcDbLine
 62
7
  6
CONTINUOUS
 10
7.0290126372
 20
4.6492639326
 11
7.0790126372
 21
4.6492639326
  0
LINE
  5
34F
100
AcDbEntity
  8
0
100
AcDbLine
 62
7
  6
CONTINUOUS
 10
6.8520126372
 20
4.6497639326
 11
6.9090126372
 21
4.6497639326
  0
LINE
  5
350
100
AcDbEntity
  8
0
100
AcDbLine
 62
7
  6
CONTINUOUS
 10
7.1070126372
 20
4.6497639326
 11
7.1490126372
 21
4.6497639326
  0
LINE
  5
351
100
AcDbEntity
  8
THREAD
100
AcDbLine
 62
7
  6
CONTINUOUS
 10
6.4010126372
 20
4.6652639326
 11
6.3170126372
 21
4.6652639326
  0
LINE
  5
352
100
AcDbEntity
  8
THREAD
100
AcDbLine
 62
7
  6
CONTINUOUS
 10
5.9725070837
 20
4.6712639326
 11
5.9590126372
 21
4.6712639326
  0
LINE
  5
353
100
AcDbEntity
  8
0
100
AcDbLine
 62
7
  6
CONTINUOUS
 10
5.7055767018
 20
4.6712639326
 11
5.3744485726
 21
4.6712639326
  0
LINE
  5
354
100
AcDbEntity
  8
0
100
AcDbLine
 62
7
  6
CONTINUOUS
 10
5.3080126372
 20
4.6957639326
 11
5.2870126372
 21
4.6957639326
  0
LINE
  5
355
100
AcDbEntity
  8
THREAD
100
AcDbLine
 62
7
  6
CONTINUOUS
 10
6.2730126372
 20
4.7092639326
 11
6.0019519474
 21
4.7092639326
  0
LINE
  5
356
100
AcDbEntity
  8
0
100
AcDbLine
 62
7
  6
CONTINUOUS
 10
4.2920126372
 20
4.7102639326
 11
3.8540126372
 21
4.7102639326
  0
LINE
  5
357
100
AcDbEntity
  8
0
100
AcDbLine
 62
7
  6
CONTINUOUS
 10
5.9090126372
 20
4.7252639326
 11
5.9590126372
 21
4.7252639326
  0
LINE
  5
358
100
AcDbEntity
  8
THREAD
100
AcDbLine
 62
7
  6
CONTINUOUS
 10
5.8390126372
 20
4.7277639326
 11
5.8158690437
 21
4.7277639326
  0
LINE
  5
359
100
AcDbEntity
  8
03__ASM_ALL_CURVES
100
AcDbLine
 62
40
  6
CONTINUOUS
 10
3.8931726372
 20
5.0394159326
 11
3.7920126372
 21
5.0562759326
  0
LINE
  5
35A
100
AcDbEntity
  8
0
100
AcDbLine
 62
7
  6
CONTINUOUS
 10
5.8133690437
 20
4.7284338056
 11
5.8158690437
 21
4.7277639326
  0
LINE
  5
35B
100
AcDbEntity
  8
THREAD
100
AcDbLine
 62
7
  6
CONTINUOUS
 10
5.8133690437
 20
4.7284338056
 11
5.7945126372
 21
4.7393205569
  0
LINE
  5
35C
100
AcDbEntity
  8
03__ASM_ALL_CURVES
100
AcDbLine
 62
40
  6
CONTINUOUS
 10
5.0501813872
 20
5.1742959326
 11
5.0607188872
 21
5.1672709343
  0
LINE
  5
35D
100
AcDbEntity
  8
03__ASM_ALL_CURVES
100
AcDbLine
 62
40
  6
CONTINUOUS
 10
6.5959641895
 20
3.4316514326
 11
6.607818877
 21
3.4000389326
  0
LINE
  5
35E
100
AcDbEntity
  8
03__ASM_ALL_CURVES
100
AcDbLine
 62
40
  6
CONTINUOUS
 10
6.0059238881
 20
5.1110709326
 11
6.0006551381
 21
5.1321459326
  0
LINE
  5
35F
100
AcDbEntity
  8
THREAD
100
AcDbLine
 62
7
  6
CONTINUOUS
 10
6.2730126372
 20
3.7172639326
 11
6.2730126372
 21
4.7092639326
  0
LINE
  5
360
100
AcDbEntity
  8
03__ASM_ALL_CURVES
100
AcDbLine
 62
40
  6
CONTINUOUS
 10
6.2851676381
 20
5.1742959326
 11
6.2851676381
 21
5.0899959326
  0
LINE
  5
361
100
AcDbEntity
  8
THREAD
100
AcDbLine
 62
7
  6
CONTINUOUS
 10
6.3170126372
 20
3.7612639326
 11
6.3170126372
 21
4.6652639326
  0
LINE
  5
362
100
AcDbEntity
  8
03__ASM_ALL_CURVES
100
AcDbLine
 62
40
  6
CONTINUOUS
 10
6.3694676381
 20
5.1742959326
 11
6.3694676381
 21
5.0899959326
  0
LINE
  5
363
100
AcDbEntity
  8
0
100
AcDbLine
 62
7
  6
CONTINUOUS
 10
6.4010126372
 20
3.7612639326
 11
6.4010126372
 21
4.6652639326
  0
LINE
  5
364
100
AcDbEntity
  8
03__ASM_ALL_CURVES
100
AcDbLine
 62
40
  6
CONTINUOUS
 10
6.5064551381
 20
5.1321459326
 11
6.5117238881
 21
5.1532209326
  0
LINE
  5
365
100
AcDbEntity
  8
03__ASM_ALL_CURVES
100
AcDbLine
 62
40
  6
CONTINUOUS
 10
7.1492426381
 20
5.1110709326
 11
7.1387051381
 21
5.0970209328
  0
LINE
  5
366
100
AcDbEntity
  8
03__ASM_ALL_CURVES
100
AcDbLine
 62
40
  6
CONTINUOUS
 10
5.4054415416
 20
3.4369201813
 11
5.3975384166
 21
3.4316514326
  0
LINE
  5
367
100
AcDbEntity
  8
03__ASM_ALL_CURVES
100
AcDbLine
 62
40
  6
CONTINUOUS
 10
5.4449571666
 20
3.4579951839
 11
5.4528602916
 21
3.4632639326
  0
LINE
  5
368
100
AcDbEntity
  8
03__ASM_ALL_CURVES
100
AcDbLine
 62
40
  6
CONTINUOUS
 10
5.4686665416
 20
3.4053076828
 11
5.4607634166
 21
3.4000389326
  0
LINE
  5
369
100
AcDbEntity
  8
03__ASM_ALL_CURVES
100
AcDbLine
 62
40
  6
CONTINUOUS
 10
5.5318915416
 20
3.4369201813
 11
5.5239884166
 21
3.4316514326
  0
LINE
  5
36A
100
AcDbEntity
  8
03__ASM_ALL_CURVES
100
AcDbLine
 62
40
  6
CONTINUOUS
 10
5.6346321666
 20
3.4579951839
 11
5.6425352916
 21
3.4632639326
  0
LINE
  5
36B
100
AcDbEntity
  8
THREAD
100
AcDbLine
 62
7
  6
CONTINUOUS
 10
5.8133690437
 20
3.6980940596
 11
5.7945126372
 21
3.6872073083
  0
LINE
  5
36C
100
AcDbEntity
  8
0
100
AcDbLine
 62
7
  6
CONTINUOUS
 10
5.1670126372
 20
4.7497639326
 11
5.2170126372
 21
4.7497639326
  0
LINE
  5
36D
100
AcDbEntity
  8
0
100
AcDbLine
 62
7
  6
CONTINUOUS
 10
5.7890126372
 20
4.7512639326
 11
5.7270126372
 21
4.7512639326
  0
LINE
  5
36E
100
AcDbEntity
  8
0
100
AcDbLine
 62
7
  6
CONTINUOUS
 10
5.3530126372
 20
4.7512639326
 11
5.3080126372
 21
4.7512639326
  0
LINE
  5
36F
100
AcDbEntity
  8
0
100
AcDbLine
 62
7
  6
CONTINUOUS
 10
5.1670126372
 20
4.7512639326
 11
4.9800126372
 21
4.7512639326
  0
LINE
  5
370
100
AcDbEntity
  8
0
100
AcDbLine
 62
7
  6
CONTINUOUS
 10
4.9245870114
 20
4.8466492421
 11
4.3376233085
 21
4.8466492421
  0
LINE
  5
371
100
AcDbEntity
  8
0
100
AcDbLine
 62
7
  6
CONTINUOUS
 10
4.9245870114
 20
4.8472639326
 11
4.3376233085
 21
4.8472639326
  0
LINE
  5
372
100
AcDbEntity
  8
03__ASM_ALL_CURVES
100
AcDbLine
 62
40
  6
CONTINUOUS
 10
3.8931726372
 20
5.0478459326
 11
3.7920126372
 21
5.0562759326
  0
LINE
  5
373
100
AcDbEntity
  8
03__ASM_ALL_CURVES
100
AcDbLine
 62
40
  6
CONTINUOUS
 10
3.8931726372
 20
5.0450359326
 11
3.7920126372
 21
5.0562759326
  0
LINE
  5
374
100
AcDbEntity
  8
03__ASM_ALL_CURVES
100
AcDbLine
 62
40
  6
CONTINUOUS
 10
3.8931726372
 20
5.0422259326
 11
3.7920126372
 21
5.0562759326
  0
LINE
  5
375
100
AcDbEntity
  8
03__ASM_ALL_CURVES
100
AcDbLine
 62
40
  6
CONTINUOUS
 10
6.0586113881
 20
5.1532209326
 11
6.0638801381
 21
5.1321459326
  0
LINE
  5
376
100
AcDbEntity
  8
03__ASM_ALL_CURVES
100
AcDbLine
 62
40
  6
CONTINUOUS
 10
6.5090298145
 20
3.4158451826
 11
6.505078252
 21
3.4316514326
  0
LINE
  5
377
100
AcDbEntity
  8
03__ASM_ALL_CURVES
100
AcDbLine
 62
40
  6
CONTINUOUS
 10
6.0902238881
 20
5.1110709326
 11
6.0849551381
 21
5.1321459326
  0
LINE
  5
378
100
AcDbEntity
  8
03__ASM_ALL_CURVES
100
AcDbLine
 62
40
  6
CONTINUOUS
 10
6.5485454395
 20
3.4474576826
 11
6.552497002
 21
3.4316514326
  0
LINE
  5
379
100
AcDbEntity
  8
0
100
AcDbLine
 62
7
  6
CONTINUOUS
 10
6.4170126372
 20
3.7772639326
 11
6.4170126372
 21
4.6492639326
  0
LINE
  5
37A
100
AcDbEntity
  8
03__ASM_ALL_CURVES
100
AcDbLine
 62
40
  6
CONTINUOUS
 10
6.4326926381
 20
5.0899959326
 11
6.4326926381
 21
5.1742959326
  0
LINE
  5
37B
100
AcDbEntity
  8
03__ASM_ALL_CURVES
100
AcDbLine
 62
40
  6
CONTINUOUS
 10
6.449756377
 20
3.4000389326
 11
6.449756377
 21
3.4632639326
  0
LINE
  5
37C
100
AcDbEntity
  8
03__ASM_ALL_CURVES
100
AcDbLine
 62
40
  6
CONTINUOUS
 10
6.4748426381
 20
5.0899959326
 11
6.4748426381
 21
5.1742959326
  0
LINE
  5
37D
100
AcDbEntity
  8
03__ASM_ALL_CURVES
100
AcDbLine
 62
40
  6
CONTINUOUS
 10
6.481368877
 20
3.4527264313
 11
6.481368877
 21
3.4421889339
  0
LINE
  5
37E
100
AcDbEntity
  8
0
100
AcDbLine
 62
7
  6
CONTINUOUS
 10
6.5220126372
 20
3.8392639326
 11
6.5220126372
 21
4.5872639326
  0
LINE
  5
37F
100
AcDbEntity
  8
0
100
AcDbLine
 62
7
  6
CONTINUOUS
 10
6.5520126372
 20
3.8692639326
 11
6.5520126372
 21
4.5572639326
  0
LINE
  5
380
100
AcDbEntity
  8
03__ASM_ALL_CURVES
100
AcDbLine
 62
40
  6
CONTINUOUS
 10
7.3178426381
 20
5.1461959343
 11
7.3125738881
 21
5.1391709309
  0
LINE
  5
381
100
AcDbEntity
  8
THREAD
100
AcDbLine
 62
7
  6
CONTINUOUS
 10
6.3170126372
 20
3.7612639326
 11
6.2730126372
 21
3.7172639326
  0
LINE
  5
382
100
AcDbEntity
  8
03__ASM_ALL_CURVES
100
AcDbLine
 62
40
  6
CONTINUOUS
 10
5.6583415416
 20
3.4421889339
 11
5.6504384166
 21
3.4369201813
  0
LINE
  5
383
100
AcDbEntity
  8
03__ASM_ALL_CURVES
100
AcDbLine
 62
40
  6
CONTINUOUS
 10
5.6583415416
 20
3.4053076828
 11
5.6504384166
 21
3.4000389326
  0
LINE
  5
384
100
AcDbEntity
  8
03__ASM_ALL_CURVES
100
AcDbLine
 62
40
  6
CONTINUOUS
 10
3.8931726372
 20
5.0534659326
 11
3.7920126372
 21
5.0562759326
  0
LINE
  5
385
100
AcDbEntity
  8
03__ASM_ALL_CURVES
100
AcDbLine
 62
40
  6
CONTINUOUS
 10
3.8931726372
 20
5.0506559326
 11
3.7920126372
 21
5.0562759326
  0
LINE
  5
386
100
AcDbEntity
  8
THREAD
100
AcDbLine
 62
7
  6
CONTINUOUS
 10
6.3170126372
 20
4.6652639326
 11
6.2730126372
 21
4.7092639326
  0
LINE
  5
387
100
AcDbEntity
  8
0
100
AcDbLine
 62
7
  6
CONTINUOUS
 10
6.4170126372
 20
4.6492639326
 11
6.4010126372
 21
4.6652639326
  0
LINE
  5
388
100
AcDbEntity
  8
0
100
AcDbLine
 62
7
  6
CONTINUOUS
 10
6.5520126372
 20
4.5572639326
 11
6.5220126372
 21
4.5872639326
  0
LINE
  5
389
100
AcDbEntity
  8
03__ASM_ALL_CURVES
100
AcDbLine
 62
40
  6
CONTINUOUS
 10
6.0164613881
 20
5.0970209328
 11
6.0059238881
 21
5.1110709326
  0
LINE
  5
38A
100
AcDbEntity
  8
03__ASM_ALL_CURVES
100
AcDbLine
 62
40
  6
CONTINUOUS
 10
6.1007613881
 20
5.0970209328
 11
6.0902238881
 21
5.1110709326
  0
LINE
  5
38B
100
AcDbEntity
  8
03__ASM_ALL_CURVES
100
AcDbLine
 62
40
  6
CONTINUOUS
 10
6.0480738881
 20
5.1672709343
 11
6.0586113881
 21
5.1532209326
  0
LINE
  5
38C
100
AcDbEntity
  8
03__ASM_ALL_CURVES
100
AcDbLine
 62
40
  6
CONTINUOUS
 10
6.2008676381
 20
5.1742959326
 11
6.2272113881
 21
5.0899959326
  0
LINE
  5
38D
100
AcDbEntity
  8
03__ASM_ALL_CURVES
100
AcDbLine
 62
40
  6
CONTINUOUS
 10
6.5591426381
 20
5.1321459326
 11
6.5591426381
 21
5.104045933
  0
LINE
  5
38E
100
AcDbEntity
  8
03__ASM_ALL_CURVES
100
AcDbLine
 62
40
  6
CONTINUOUS
 10
6.576206377
 20
3.4000389326
 11
6.576206377
 21
3.4632639326
  0
LINE
  5
38F
100
AcDbEntity
  8
03__ASM_ALL_CURVES
100
AcDbLine
 62
40
  6
CONTINUOUS
 10
6.607818877
 20
3.4527264313
 11
6.607818877
 21
3.4421889339
  0
LINE
  5
390
100
AcDbEntity
  8
03__ASM_ALL_CURVES
100
AcDbLine
 62
40
  6
CONTINUOUS
 10
6.655237627
 20
3.4632639326
 11
6.655237627
 21
3.4000389326
  0
LINE
  5
391
100
AcDbEntity
  8
03__ASM_ALL_CURVES
100
AcDbLine
 62
40
  6
CONTINUOUS
 10
6.6855926381
 20
5.1602459309
 11
6.6855926381
 21
5.1532209326
  0
LINE
  5
392
100
AcDbEntity
  8
03__ASM_ALL_CURVES
100
AcDbLine
 62
40
  6
CONTINUOUS
 10
6.8436551381
 20
5.1321459326
 11
6.8489238881
 21
5.1532209326
  0
LINE
  5
393
100
AcDbEntity
  8
03__ASM_ALL_CURVES
100
AcDbLine
 62
40
  6
CONTINUOUS
 10
6.9068801381
 20
5.1321459326
 11
6.9016113881
 21
5.1110709326
  0
LINE
  5
394
100
AcDbEntity
  8
03__ASM_ALL_CURVES
100
AcDbLine
 62
40
  6
CONTINUOUS
 10
6.505078252
 20
3.4316514326
 11
6.5090298145
 21
3.4474576826
  0
LINE
  5
395
100
AcDbEntity
  8
0
100
AcDbLine
 62
7
  6
CONTINUOUS
 10
6.4170126372
 20
3.7772639326
 11
6.4010126372
 21
3.7612639326
  0
LINE
  5
396
100
AcDbEntity
  8
0
100
AcDbLine
 62
7
  6
CONTINUOUS
 10
6.5520126372
 20
3.8692639326
 11
6.5220126372
 21
3.8392639326
  0
LINE
  5
397
100
AcDbEntity
  8
03__ASM_ALL_CURVES
100
AcDbLine
 62
40
  6
CONTINUOUS
 10
5.6908526372
 20
5.0394159326
 11
5.8931726372
 21
5.0731359326
  0
LINE
  5
398
100
AcDbEntity
  8
03__ASM_ALL_CURVES
100
AcDbLine
 62
40
  6
CONTINUOUS
 10
5.6908526372
 20
5.0422259326
 11
5.8931726372
 21
5.0703259326
  0
LINE
  5
399
100
AcDbEntity
  8
03__ASM_ALL_CURVES
100
AcDbLine
 62
40
  6
CONTINUOUS
 10
5.6908526372
 20
5.0450359326
 11
5.8931726372
 21
5.0675159326
  0
LINE
  5
39A
100
AcDbEntity
  8
03__ASM_ALL_CURVES
100
AcDbLine
 62
40
  6
CONTINUOUS
 10
5.6908526372
 20
5.0478459326
 11
5.8931726372
 21
5.0647059326
  0
LINE
  5
39B
100
AcDbEntity
  8
03__ASM_ALL_CURVES
100
AcDbLine
 62
40
  6
CONTINUOUS
 10
5.6908526372
 20
5.0506559326
 11
5.8931726372
 21
5.0618959326
  0
LINE
  5
39C
100
AcDbEntity
  8
03__ASM_ALL_CURVES
100
AcDbLine
 62
40
  6
CONTINUOUS
 10
3.8931726372
 20
5.0618959326
 11
3.7920126372
 21
5.0562759326
  0
LINE
  5
39D
100
AcDbEntity
  8
03__ASM_ALL_CURVES
100
AcDbLine
 62
40
  6
CONTINUOUS
 10
5.6908526372
 20
5.0534659326
 11
5.8931726372
 21
5.0590859326
  0
LINE
  5
39E
100
AcDbEntity
  8
03__ASM_ALL_CURVES
100
AcDbLine
 62
40
  6
CONTINUOUS
 10
3.8931726372
 20
5.0590859326
 11
3.7920126372
 21
5.0562759326
  0
LINE
  5
39F
100
AcDbEntity
  8
03__ASM_ALL_CURVES
100
AcDbLine
 62
40
  6
CONTINUOUS
 10
3.7920126372
 20
5.0562759326
 11
7.4105726372
 21
5.0562759326
  0
LINE
  5
3A0
100
AcDbEntity
  8
03__ASM_ALL_CURVES
100
AcDbLine
 62
40
  6
CONTINUOUS
 10
7.2335426381
 20
5.0899959326
 11
7.1913926381
 21
5.0899959326
  0
LINE
  5
3A1
100
AcDbEntity
  8
03__ASM_ALL_CURVES
100
AcDbLine
 62
40
  6
CONTINUOUS
 10
7.1281676381
 20
5.0899959326
 11
7.1070926381
 21
5.0899959326
  0
LINE
  5
3A2
100
AcDbEntity
  8
03__ASM_ALL_CURVES
100
AcDbLine
 62
40
  6
CONTINUOUS
 10
6.9648363881
 20
5.0899959326
 11
6.9542988881
 21
5.0899959326
  0
LINE
  5
3A3
100
AcDbEntity
  8
03__ASM_ALL_CURVES
100
AcDbLine
 62
40
  6
CONTINUOUS
 10
6.8805363881
 20
5.0899959326
 11
6.8699988881
 21
5.0899959326
  0
LINE
  5
3A4
100
AcDbEntity
  8
03__ASM_ALL_CURVES
100
AcDbLine
 62
40
  6
CONTINUOUS
 10
6.7119363881
 20
5.0899959326
 11
6.7013988881
 21
5.0899959326
  0
LINE
  5
3A5
100
AcDbEntity
  8
03__ASM_ALL_CURVES
100
AcDbLine
 62
40
  6
CONTINUOUS
 10
6.5433363881
 20
5.0899959326
 11
6.5327988881
 21
5.0899959326
  0
LINE
  5
3A6
100
AcDbEntity
  8
03__ASM_ALL_CURVES
100
AcDbLine
 62
40
  6
CONTINUOUS
 10
6.1218363881
 20
5.0899959326
 11
6.1112988881
 21
5.0899959326
  0
LINE
  5
3A7
100
AcDbEntity
  8
03__ASM_ALL_CURVES
100
AcDbLine
 62
40
  6
CONTINUOUS
 10
6.0375363881
 20
5.0899959326
 11
6.0269988881
 21
5.0899959326
  0
LINE
  5
3A8
100
AcDbEntity
  8
03__ASM_ALL_CURVES
100
AcDbLine
 62
40
  6
CONTINUOUS
 10
5.0501813872
 20
5.0899959326
 11
5.0396438872
 21
5.0899959326
  0
LINE
  5
3A9
100
AcDbEntity
  8
03__ASM_ALL_CURVES
100
AcDbLine
 62
40
  6
CONTINUOUS
 10
4.9606126372
 20
5.0899959326
 11
4.9553438872
 21
5.0899959326
  0
LINE
  5
3AA
100
AcDbEntity
  8
03__ASM_ALL_CURVES
100
AcDbLine
 62
40
  6
CONTINUOUS
 10
4.7972813872
 20
5.0899959326
 11
4.7867438872
 21
5.0899959326
  0
LINE
  5
3AB
100
AcDbEntity
  8
03__ASM_ALL_CURVES
100
AcDbLine
 62
40
  6
CONTINUOUS
 10
4.5391126372
 20
5.0899959326
 11
4.5338438872
 21
5.0899959326
  0
LINE
  5
3AC
100
AcDbEntity
  8
03__ASM_ALL_CURVES
100
AcDbLine
 62
40
  6
CONTINUOUS
 10
4.4337376372
 20
5.0899959326
 11
4.4758876372
 21
5.0899959326
  0
LINE
  5
3AD
100
AcDbEntity
  8
03__ASM_ALL_CURVES
100
AcDbLine
 62
40
  6
CONTINUOUS
 10
5.9268926381
 20
5.0899959326
 11
5.9690426381
 21
5.0899959326
  0
LINE
  5
3AE
100
AcDbEntity
  8
03__ASM_ALL_CURVES
100
AcDbLine
 62
40
  6
CONTINUOUS
 10
7.0227926381
 20
5.0899959326
 11
7.0649426381
 21
5.0899959326
  0
LINE
  5
3AF
100
AcDbEntity
  8
03__ASM_ALL_CURVES
100
AcDbLine
 62
40
  6
CONTINUOUS
 10
6.1850613881
 20
5.1180959334
 11
6.2166738881
 21
5.1180959334
  0
LINE
  5
3B0
100
AcDbEntity
  8
03__ASM_ALL_CURVES
100
AcDbLine
 62
40
  6
CONTINUOUS
 10
7.3020363881
 20
5.1321459326
 11
7.2756926381
 21
5.1321459326
  0
LINE
  5
3B1
100
AcDbEntity
  8
03__ASM_ALL_CURVES
100
AcDbLine
 62
40
  6
CONTINUOUS
 10
6.5380676381
 20
5.1321459326
 11
6.5591426381
 21
5.1321459326
  0
LINE
  5
3B2
100
AcDbEntity
  8
03__ASM_ALL_CURVES
100
AcDbLine
 62
40
  6
CONTINUOUS
 10
6.7698926381
 20
5.1321459326
 11
6.8120426381
 21
5.1321459326
  0
LINE
  5
3B3
100
AcDbEntity
  8
03__ASM_ALL_CURVES
100
AcDbLine
 62
40
  6
CONTINUOUS
 10
7.1913926381
 20
5.1321459326
 11
7.2177363881
 21
5.1321459326
  0
LINE
  5
3B4
100
AcDbEntity
  8
03__ASM_ALL_CURVES
100
AcDbLine
 62
40
  6
CONTINUOUS
 10
5.0396438872
 20
5.1391709309
 11
5.0501813872
 21
5.1391709309
  0
LINE
  5
3B5
100
AcDbEntity
  8
03__ASM_ALL_CURVES
100
AcDbLine
 62
40
  6
CONTINUOUS
 10
4.7867438872
 20
5.1461959343
 11
4.7972813872
 21
5.1461959343
  0
LINE
  5
3B6
100
AcDbEntity
  8
03__ASM_ALL_CURVES
100
AcDbLine
 62
40
  6
CONTINUOUS
 10
6.7119363881
 20
5.1742959326
 11
6.7013988881
 21
5.1742959326
  0
LINE
  5
3B7
100
AcDbEntity
  8
03__ASM_ALL_CURVES
100
AcDbLine
 62
40
  6
CONTINUOUS
 10
4.8130876372
 20
5.1742959326
 11
4.7814751372
 21
5.1742959326
  0
LINE
  5
3B8
100
AcDbEntity
  8
03__ASM_ALL_CURVES
100
AcDbLine
 62
40
  6
CONTINUOUS
 10
4.4495438872
 20
5.1742959326
 11
4.4600813872
 21
5.1742959326
  0
LINE
  5
3B9
100
AcDbEntity
  8
03__ASM_ALL_CURVES
100
AcDbLine
 62
40
  6
CONTINUOUS
 10
5.0396438872
 20
5.1742959326
 11
5.0501813872
 21
5.1742959326
  0
LINE
  5
3BA
100
AcDbEntity
  8
03__ASM_ALL_CURVES
100
AcDbLine
 62
40
  6
CONTINUOUS
 10
6.0269988881
 20
5.1742959326
 11
6.0375363881
 21
5.1742959326
  0
LINE
  5
3BB
100
AcDbEntity
  8
03__ASM_ALL_CURVES
100
AcDbLine
 62
40
  6
CONTINUOUS
 10
6.1112988881
 20
5.1742959326
 11
6.1218363881
 21
5.1742959326
  0
LINE
  5
3BC
100
AcDbEntity
  8
03__ASM_ALL_CURVES
100
AcDbLine
 62
40
  6
CONTINUOUS
 10
6.2588238881
 20
5.1742959326
 11
6.3115113881
 21
5.1742959326
  0
LINE
  5
3BD
100
AcDbEntity
  8
03__ASM_ALL_CURVES
100
AcDbLine
 62
40
  6
CONTINUOUS
 10
6.5327988881
 20
5.1742959326
 11
6.5433363881
 21
5.1742959326
  0
LINE
  5
3BE
100
AcDbEntity
  8
03__ASM_ALL_CURVES
100
AcDbLine
 62
40
  6
CONTINUOUS
 10
6.8699988881
 20
5.1742959326
 11
6.8805363881
 21
5.1742959326
  0
LINE
  5
3BF
100
AcDbEntity
  8
03__ASM_ALL_CURVES
100
AcDbLine
 62
40
  6
CONTINUOUS
 10
7.1070926381
 20
5.1742959326
 11
7.1281676381
 21
5.1742959326
  0
LINE
  5
3C0
100
AcDbEntity
  8
03__ASM_ALL_CURVES
100
AcDbLine
 62
40
  6
CONTINUOUS
 10
7.1913926381
 20
5.1742959326
 11
7.2335426381
 21
5.1742959326
  0
LINE
  5
3C1
100
AcDbEntity
  8
03__ASM_ALL_CURVES
100
AcDbLine
 62
40
  6
CONTINUOUS
 10
7.2756926381
 20
5.1742959326
 11
7.3020363881
 21
5.1742959326
  0
LINE
  5
3C2
100
AcDbEntity
  8
03__ASM_ALL_CURVES
100
AcDbLine
 62
40
  6
CONTINUOUS
 10
5.6908526372
 20
5.0590859326
 11
5.8931726372
 21
5.0534659326
  0
LINE
  5
3C3
100
AcDbEntity
  8
03__ASM_ALL_CURVES
100
AcDbLine
 62
40
  6
CONTINUOUS
 10
5.6908526372
 20
5.0618959326
 11
5.8931726372
 21
5.0506559326
  0
LINE
  5
3C4
100
AcDbEntity
  8
03__ASM_ALL_CURVES
100
AcDbLine
 62
40
  6
CONTINUOUS
 10
5.6908526372
 20
5.0647059326
 11
5.8931726372
 21
5.0478459326
  0
LINE
  5
3C5
100
AcDbEntity
  8
03__ASM_ALL_CURVES
100
AcDbLine
 62
40
  6
CONTINUOUS
 10
5.6908526372
 20
5.0675159326
 11
5.8931726372
 21
5.0450359326
  0
LINE
  5
3C6
100
AcDbEntity
  8
03__ASM_ALL_CURVES
100
AcDbLine
 62
40
  6
CONTINUOUS
 10
5.6908526372
 20
5.0703259326
 11
5.8931726372
 21
5.0422259326
  0
LINE
  5
3C7
100
AcDbEntity
  8
03__ASM_ALL_CURVES
100
AcDbLine
 62
40
  6
CONTINUOUS
 10
5.8931726372
 20
5.0394159326
 11
5.6908526372
 21
5.0731359326
  0
LINE
  5
3C8
100
AcDbEntity
  8
03__ASM_ALL_CURVES
100
AcDbLine
 62
40
  6
CONTINUOUS
 10
6.0269988881
 20
5.0899959326
 11
6.0164613881
 21
5.0970209328
  0
LINE
  5
3C9
100
AcDbEntity
  8
03__ASM_ALL_CURVES
100
AcDbLine
 62
40
  6
CONTINUOUS
 10
6.1112988881
 20
5.0899959326
 11
6.1007613881
 21
5.0970209328
  0
LINE
  5
3CA
100
AcDbEntity
  8
03__ASM_ALL_CURVES
100
AcDbLine
 62
40
  6
CONTINUOUS
 10
6.0375363881
 20
5.1742959326
 11
6.0480738881
 21
5.1672709343
  0
LINE
  5
3CB
100
AcDbEntity
  8
03__ASM_ALL_CURVES
100
AcDbLine
 62
40
  6
CONTINUOUS
 10
6.1323738881
 20
5.1672709343
 11
6.1376426381
 21
5.1602459309
  0
LINE
  5
3CC
100
AcDbEntity
  8
03__ASM_ALL_CURVES
100
AcDbLine
 62
40
  6
CONTINUOUS
 10
6.5117238881
 20
5.1110709326
 11
6.5064551381
 21
5.1321459326
  0
LINE
  5
3CD
100
AcDbEntity
  8
03__ASM_ALL_CURVES
100
AcDbLine
 62
40
  6
CONTINUOUS
 10
6.7277426381
 20
5.1180959334
 11
6.7277426381
 21
5.104045933
  0
LINE
  5
3CE
100
AcDbEntity
  8
03__ASM_ALL_CURVES
100
AcDbLine
 62
40
  6
CONTINUOUS
 10
6.734268877
 20
3.4527264313
 11
6.734268877
 21
3.4421889339
  0
LINE
  5
3CF
100
AcDbEntity
  8
0
100
AcDbLine
 62
7
  6
CONTINUOUS
 10
6.7450126372
 20
4.2971034079
 11
6.7450126372
 21
4.2272451289
  0
LINE
  5
3D0
100
AcDbEntity
  8
0
100
AcDbLine
 62
7
  6
CONTINUOUS
 10
6.7450126372
 20
4.1992827363
 11
6.7450126372
 21
4.1294244573
  0
LINE
  5
3D1
100
AcDbEntity
  8
0
100
AcDbLine
 62
7
  6
CONTINUOUS
 10
6.7650128539
 20
4.1327639326
 11
6.7650128539
 21
4.2937639326
  0
LINE
  5
3D2
100
AcDbEntity
  8
03__ASM_ALL_CURVES
100
AcDbLine
 62
40
  6
CONTINUOUS
 10
6.7698926381
 20
5.1742959326
 11
6.7698926381
 21
5.0899959326
  0
LINE
  5
3D3
100
AcDbEntity
  8
03__ASM_ALL_CURVES
100
AcDbLine
 62
40
  6
CONTINUOUS
 10
6.8120426381
 20
5.1742959326
 11
6.8120426381
 21
5.0899959326
  0
LINE
  5
3D4
100
AcDbEntity
  8
03__ASM_ALL_CURVES
100
AcDbLine
 62
40
  6
CONTINUOUS
 10
6.552497002
 20
3.4316514326
 11
6.5485454395
 21
3.4158451826
  0
LINE
  5
3D5
100
AcDbEntity
  8
03__ASM_ALL_CURVES
100
AcDbLine
 62
40
  6
CONTINUOUS
 10
7.5696735744
 20
4.2670051813
 11
7.5617704494
 21
4.2617364326
  0
LINE
  5
3D6
100
AcDbEntity
  8
03__ASM_ALL_CURVES
100
AcDbLine
 62
40
  6
CONTINUOUS
 10
7.6091891994
 20
4.2880801839
 11
7.6170923244
 21
4.2933489326
  0
LINE
  5
3D7
100
AcDbEntity
  8
03__ASM_ALL_CURVES
100
AcDbLine
 62
40
  6
CONTINUOUS
 10
3.8931726372
 20
5.0703259326
 11
3.7920126372
 21
5.0562759326
  0
LINE
  5
3D8
100
AcDbEntity
  8
03__ASM_ALL_CURVES
100
AcDbLine
 62
40
  6
CONTINUOUS
 10
3.8931726372
 20
5.0675159326
 11
3.7920126372
 21
5.0562759326
  0
LINE
  5
3D9
100
AcDbEntity
  8
03__ASM_ALL_CURVES
100
AcDbLine
 62
40
  6
CONTINUOUS
 10
3.8931726372
 20
5.0647059326
 11
3.7920126372
 21
5.0562759326
  0
LINE
  5
3DA
100
AcDbEntity
  8
03__ASM_ALL_CURVES
100
AcDbLine
 62
40
  6
CONTINUOUS
 10
6.1218363881
 20
5.1742959326
 11
6.1323738881
 21
5.1672709343
  0
LINE
  5
3DB
100
AcDbEntity
  8
03__ASM_ALL_CURVES
100
AcDbLine
 62
40
  6
CONTINUOUS
 10
7.6170923244
 20
4.2301239326
 11
7.6091891994
 21
4.2353926828
  0
LINE
  5
3DC
100
AcDbEntity
  8
03__ASM_ALL_CURVES
100
AcDbLine
 62
40
  6
CONTINUOUS
 10
7.5617704494
 20
4.2933489326
 11
7.5696735744
 21
4.2880801839
  0
LINE
  5
3DD
100
AcDbEntity
  8
03__ASM_ALL_CURVES
100
AcDbLine
 62
40
  6
CONTINUOUS
 10
7.6249954494
 20
4.2933489326
 11
7.6328985744
 21
4.2880801839
  0
LINE
  5
3DE
100
AcDbEntity
  8
03__ASM_ALL_CURVES
100
AcDbLine
 62
40
  6
CONTINUOUS
 10
6.4326926381
 20
5.1742959326
 11
6.4748426381
 21
5.0899959326
  0
LINE
  5
3DF
100
AcDbEntity
  8
0
100
AcDbLine
 62
7
  6
CONTINUOUS
 10
6.8520126372
 20
4.649758818
 11
6.8520126372
 21
3.7767690472
  0
LINE
  5
3E0
100
AcDbEntity
  8
0
100
AcDbLine
 62
7
  6
CONTINUOUS
 10
6.9090126372
 20
4.649758818
 11
6.9090126372
 21
3.7767690472
  0
LINE
  5
3E1
100
AcDbEntity
  8
03__ASM_ALL_CURVES
100
AcDbLine
 62
40
  6
CONTINUOUS
 10
6.9384926381
 20
5.104045933
 11
6.9384926381
 21
5.1742959326
  0
LINE
  5
3E2
100
AcDbEntity
  8
0
100
AcDbLine
 62
7
  6
CONTINUOUS
 10
6.9590126372
 20
3.7772645955
 11
6.9590126372
 21
4.6492632697
  0
LINE
  5
3E3
100
AcDbEntity
  8
03__ASM_ALL_CURVES
100
AcDbLine
 62
40
  6
CONTINUOUS
 10
6.9806426381
 20
5.1742959326
 11
6.9806426381
 21
5.104045933
  0
LINE
  5
3E4
100
AcDbEntity
  8
03__ASM_ALL_CURVES
100
AcDbLine
 62
40
  6
CONTINUOUS
 10
6.7066079395
 20
3.4158451826
 11
6.702656377
 21
3.4000389326
  0
LINE
  5
3E5
100
AcDbEntity
  8
03__ASM_ALL_CURVES
100
AcDbLine
 62
40
  6
CONTINUOUS
 10
7.1545113881
 20
5.1321459326
 11
7.1492426381
 21
5.1110709326
  0
LINE
  5
3E6
100
AcDbEntity
  8
03__ASM_ALL_CURVES
100
AcDbLine
 62
40
  6
CONTINUOUS
 10
6.481368877
 20
3.4421889339
 11
6.4774173145
 21
3.4369201813
  0
LINE
  5
3E7
100
AcDbEntity
  8
03__ASM_ALL_CURVES
100
AcDbLine
 62
40
  6
CONTINUOUS
 10
6.5090298145
 20
3.4474576826
 11
6.5169329395
 21
3.4579951839
  0
LINE
  5
3E8
100
AcDbEntity
  8
03__ASM_ALL_CURVES
100
AcDbLine
 62
40
  6
CONTINUOUS
 10
6.5485454395
 20
3.4158451826
 11
6.5406423145
 21
3.4053076828
  0
LINE
  5
3E9
100
AcDbEntity
  8
03__ASM_ALL_CURVES
100
AcDbLine
 62
40
  6
CONTINUOUS
 10
6.607818877
 20
3.4421889339
 11
6.6038673145
 21
3.4369201813
  0
LINE
  5
3EA
100
AcDbEntity
  8
03__ASM_ALL_CURVES
100
AcDbLine
 62
40
  6
CONTINUOUS
 10
7.6328985744
 20
4.2353926828
 11
7.6249954494
 21
4.2301239326
  0
LINE
  5
3EB
100
AcDbEntity
  8
03__ASM_ALL_CURVES
100
AcDbLine
 62
40
  6
CONTINUOUS
 10
7.6961235744
 20
4.2670051813
 11
7.6882204494
 21
4.2617364326
  0
LINE
  5
3EC
100
AcDbEntity
  8
03__ASM_ALL_CURVES
100
AcDbLine
 62
40
  6
CONTINUOUS
 10
6.4774173145
 20
3.4369201813
 11
6.4695141895
 21
3.4316514326
  0
LINE
  5
3ED
100
AcDbEntity
  8
03__ASM_ALL_CURVES
100
AcDbLine
 62
40
  6
CONTINUOUS
 10
6.5169329395
 20
3.4579951839
 11
6.5248360645
 21
3.4632639326
  0
LINE
  5
3EE
100
AcDbEntity
  8
03__ASM_ALL_CURVES
100
AcDbLine
 62
40
  6
CONTINUOUS
 10
6.5406423145
 20
3.4053076828
 11
6.5327391895
 21
3.4000389326
  0
LINE
  5
3EF
100
AcDbEntity
  8
03__ASM_ALL_CURVES
100
AcDbLine
 62
40
  6
CONTINUOUS
 10
6.6038673145
 20
3.4369201813
 11
6.5959641895
 21
3.4316514326
  0
LINE
  5
3F0
100
AcDbEntity
  8
03__ASM_ALL_CURVES
100
AcDbLine
 62
40
  6
CONTINUOUS
 10
3.7920126372
 20
5.0562759326
 11
3.8931726372
 21
5.0731359326
  0
LINE
  5
3F1
100
AcDbEntity
  8
03__ASM_ALL_CURVES
100
AcDbLine
 62
40
  6
CONTINUOUS
 10
7.6882204494
 20
4.2933489326
 11
7.6961235744
 21
4.2880801839
  0
LINE
  5
3F2
100
AcDbEntity
  8
03__ASM_ALL_CURVES
100
AcDbLine
 62
40
  6
CONTINUOUS
 10
6.5327988881
 20
5.0899959326
 11
6.5222613881
 21
5.0970209328
  0
LINE
  5
3F3
100
AcDbEntity
  8
03__ASM_ALL_CURVES
100
AcDbLine
 62
40
  6
CONTINUOUS
 10
6.5433363881
 20
5.1742959326
 11
6.5538738881
 21
5.1672709343
  0
LINE
  5
3F4
100
AcDbEntity
  8
03__ASM_ALL_CURVES
100
AcDbLine
 62
40
  6
CONTINUOUS
 10
6.7013988881
 20
5.0899959326
 11
6.6908613881
 21
5.0970209328
  0
LINE
  5
3F5
100
AcDbEntity
  8
03__ASM_ALL_CURVES
100
AcDbLine
 62
40
  6
CONTINUOUS
 10
6.5222613881
 20
5.0970209328
 11
6.5117238881
 21
5.1110709326
  0
LINE
  5
3F6
100
AcDbEntity
  8
03__ASM_ALL_CURVES
100
AcDbLine
 62
40
  6
CONTINUOUS
 10
6.5538738881
 20
5.1672709343
 11
6.5591426381
 21
5.1602459309
  0
LINE
  5
3F7
100
AcDbEntity
  8
03__ASM_ALL_CURVES
100
AcDbLine
 62
40
  6
CONTINUOUS
 10
7.0227926381
 20
5.1742959326
 11
7.0227926381
 21
5.0899959326
  0
LINE
  5
3F8
100
AcDbEntity
  8
0
100
AcDbLine
 62
7
  6
CONTINUOUS
 10
7.0290126372
 20
3.7772645955
 11
7.0290126372
 21
4.6492632697
  0
LINE
  5
3F9
100
AcDbEntity
  8
0
100
AcDbLine
 62
7
  6
CONTINUOUS
 10
7.0790126372
 20
3.7772645955
 11
7.0790126372
 21
4.6492632697
  0
LINE
  5
3FA
100
AcDbEntity
  8
0
100
AcDbLine
 62
7
  6
CONTINUOUS
 10
7.1070126372
 20
4.649758818
 11
7.1070126372
 21
3.7767690472
  0
LINE
  5
3FB
100
AcDbEntity
  8
03__ASM_ALL_CURVES
100
AcDbLine
 62
40
  6
CONTINUOUS
 10
7.1070926381
 20
5.0899959326
 11
7.1070926381
 21
5.1742959326
  0
LINE
  5
3FC
100
AcDbEntity
  8
03__ASM_ALL_CURVES
100
AcDbLine
 62
40
  6
CONTINUOUS
 10
6.702656377
 20
3.4527264313
 11
6.7066079395
 21
3.4579951839
  0
LINE
  5
3FD
100
AcDbEntity
  8
03__ASM_ALL_CURVES
100
AcDbLine
 62
40
  6
CONTINUOUS
 10
6.7145110645
 20
3.426382682
 11
6.7066079395
 21
3.4158451826
  0
LINE
  5
3FE
100
AcDbEntity
  8
03__ASM_ALL_CURVES
100
AcDbLine
 62
40
  6
CONTINUOUS
 10
6.734268877
 20
3.4421889339
 11
6.7303173145
 21
3.4369201813
  0
LINE
  5
3FF
100
AcDbEntity
  8
0
100
AcDbLine
 62
7
  6
CONTINUOUS
 10
7.1490126372
 20
3.7767639326
 11
7.1640126372
 21
3.7917639326
  0
LINE
  5
400
100
AcDbEntity
  8
03__ASM_ALL_CURVES
100
AcDbLine
 62
40
  6
CONTINUOUS
 10
6.7066079395
 20
3.4579951839
 11
6.7145110645
 21
3.4632639326
  0
LINE
  5
401
100
AcDbEntity
  8
03__ASM_ALL_CURVES
100
AcDbLine
 62
40
  6
CONTINUOUS
 10
6.7303173145
 20
3.4369201813
 11
6.7145110645
 21
3.426382682
  0
LINE
  5
402
100
AcDbEntity
  8
03__ASM_ALL_CURVES
100
AcDbLine
 62
40
  6
CONTINUOUS
 10
6.6908613881
 20
5.1461959343
 11
6.7224738881
 21
5.1251209318
  0
LINE
  5
403
100
AcDbEntity
  8
03__ASM_ALL_CURVES
100
AcDbLine
 62
40
  6
CONTINUOUS
 10
6.7224738881
 20
5.1672709343
 11
6.7119363881
 21
5.1742959326
  0
LINE
  5
404
100
AcDbEntity
  8
03__ASM_ALL_CURVES
100
AcDbLine
 62
40
  6
CONTINUOUS
 10
6.8699988881
 20
5.0899959326
 11
6.8594613881
 21
5.0970209328
  0
LINE
  5
405
100
AcDbEntity
  8
03__ASM_ALL_CURVES
100
AcDbLine
 62
40
  6
CONTINUOUS
 10
6.9542988881
 20
5.0899959326
 11
6.9437613881
 21
5.0970209328
  0
LINE
  5
406
100
AcDbEntity
  8
03__ASM_ALL_CURVES
100
AcDbLine
 62
40
  6
CONTINUOUS
 10
6.8805363881
 20
5.1742959326
 11
6.8910738881
 21
5.1672709343
  0
LINE
  5
407
100
AcDbEntity
  8
0
100
AcDbLine
 62
7
  6
CONTINUOUS
 10
7.1490126372
 20
4.6497639326
 11
7.1640126372
 21
4.6347639326
  0
LINE
  5
408
100
AcDbEntity
  8
03__ASM_ALL_CURVES
100
AcDbLine
 62
40
  6
CONTINUOUS
 10
6.6908613881
 20
5.0970209328
 11
6.6803238881
 21
5.1110709326
  0
LINE
  5
409
100
AcDbEntity
  8
03__ASM_ALL_CURVES
100
AcDbLine
 62
40
  6
CONTINUOUS
 10
6.6855926381
 20
5.1532209326
 11
6.6908613881
 21
5.1461959343
  0
LINE
  5
40A
100
AcDbEntity
  8
03__ASM_ALL_CURVES
100
AcDbLine
 62
40
  6
CONTINUOUS
 10
6.7224738881
 20
5.1251209318
 11
6.7277426381
 21
5.1180959334
  0
LINE
  5
40B
100
AcDbEntity
  8
03__ASM_ALL_CURVES
100
AcDbLine
 62
40
  6
CONTINUOUS
 10
6.7277426381
 20
5.1602459309
 11
6.7224738881
 21
5.1672709343
  0
LINE
  5
40C
100
AcDbEntity
  8
03__ASM_ALL_CURVES
100
AcDbLine
 62
40
  6
CONTINUOUS
 10
6.8594613881
 20
5.0970209328
 11
6.8489238881
 21
5.1110709326
  0
LINE
  5
40D
100
AcDbEntity
  8
03__ASM_ALL_CURVES
100
AcDbLine
 62
40
  6
CONTINUOUS
 10
6.8489238881
 20
5.1110709326
 11
6.8436551381
 21
5.1321459326
  0
LINE
  5
40E
100
AcDbEntity
  8
03__ASM_ALL_CURVES
100
AcDbLine
 62
40
  6
CONTINUOUS
 10
6.9016113881
 20
5.1532209326
 11
6.9068801381
 21
5.1321459326
  0
LINE
  5
40F
100
AcDbEntity
  8
0
100
AcDbLine
 62
7
  6
CONTINUOUS
 10
7.1490126372
 20
3.7767639326
 11
7.1490126372
 21
4.6497639326
  0
LINE
  5
410
100
AcDbEntity
  8
0
100
AcDbLine
 62
7
  6
CONTINUOUS
 10
7.1640126372
 20
3.7917712998
 11
7.1640126372
 21
4.6347565654
  0
LINE
  5
411
100
AcDbEntity
  8
03__ASM_ALL_CURVES
100
AcDbLine
 62
40
  6
CONTINUOUS
 10
7.1913926381
 20
5.0899959326
 11
7.1913926381
 21
5.1742959326
  0
LINE
  5
412
100
AcDbEntity
  8
03__ASM_ALL_CURVES
100
AcDbLine
 62
40
  6
CONTINUOUS
 10
7.2756926381
 20
5.0899959326
 11
7.2756926381
 21
5.1742959326
  0
LINE
  5
413
100
AcDbEntity
  8
03__ASM_ALL_CURVES
100
AcDbLine
 62
40
  6
CONTINUOUS
 10
7.5736251369
 20
4.2722739339
 11
7.5696735744
 21
4.2670051813
  0
LINE
  5
414
100
AcDbEntity
  8
03__ASM_ALL_CURVES
100
AcDbLine
 62
40
  6
CONTINUOUS
 10
7.6012860744
 20
4.2775426826
 11
7.6091891994
 21
4.2880801839
  0
LINE
  5
415
100
AcDbEntity
  8
03__ASM_ALL_CURVES
100
AcDbLine
 62
40
  6
CONTINUOUS
 10
7.1281676381
 20
5.1742959326
 11
7.1387051381
 21
5.1672709343
  0
LINE
  5
416
100
AcDbEntity
  8
03__ASM_ALL_CURVES
100
AcDbLine
 62
40
  6
CONTINUOUS
 10
6.8910738881
 20
5.1672709343
 11
6.9016113881
 21
5.1532209326
  0
LINE
  5
417
100
AcDbEntity
  8
03__ASM_ALL_CURVES
100
AcDbLine
 62
40
  6
CONTINUOUS
 10
6.9437613881
 20
5.0970209328
 11
6.9384926381
 21
5.104045933
  0
LINE
  5
418
100
AcDbEntity
  8
03__ASM_ALL_CURVES
100
AcDbLine
 62
40
  6
CONTINUOUS
 10
7.6091891994
 20
4.2353926828
 11
7.6012860744
 21
4.2459301826
  0
LINE
  5
419
100
AcDbEntity
  8
03__ASM_ALL_CURVES
100
AcDbLine
 62
40
  6
CONTINUOUS
 10
7.5696735744
 20
4.2880801839
 11
7.5736251369
 21
4.2828114313
  0
LINE
  5
41A
100
AcDbEntity
  8
03__ASM_ALL_CURVES
100
AcDbLine
 62
40
  6
CONTINUOUS
 10
7.6328985744
 20
4.2880801839
 11
7.6408016994
 21
4.2775426826
  0
LINE
  5
41B
100
AcDbEntity
  8
03__ASM_ALL_CURVES
100
AcDbLine
 62
40
  6
CONTINUOUS
 10
7.3178426381
 20
5.1602459309
 11
7.3178426381
 21
5.1461959343
  0
LINE
  5
41C
100
AcDbEntity
  8
03__ASM_ALL_CURVES
100
AcDbLine
 62
40
  6
CONTINUOUS
 10
7.6408016994
 20
4.2459301826
 11
7.6328985744
 21
4.2353926828
  0
LINE
  5
41D
100
AcDbEntity
  8
03__ASM_ALL_CURVES
100
AcDbLine
 62
40
  6
CONTINUOUS
 10
7.7000751369
 20
4.2722739339
 11
7.6961235744
 21
4.2670051813
  0
LINE
  5
41E
100
AcDbEntity
  8
03__ASM_ALL_CURVES
100
AcDbLine
 62
40
  6
CONTINUOUS
 10
7.3020363881
 20
5.1742959326
 11
7.3125738881
 21
5.1672709343
  0
LINE
  5
41F
100
AcDbEntity
  8
03__ASM_ALL_CURVES
100
AcDbLine
 62
40
  6
CONTINUOUS
 10
7.6961235744
 20
4.2880801839
 11
7.7000751369
 21
4.2828114313
  0
LINE
  5
420
100
AcDbEntity
  8
03__ASM_ALL_CURVES
100
AcDbLine
 62
40
  6
CONTINUOUS
 10
7.1387051381
 20
5.1672709343
 11
7.1492426381
 21
5.1532209326
  0
LINE
  5
421
100
AcDbEntity
  8
03__ASM_ALL_CURVES
100
AcDbLine
 62
40
  6
CONTINUOUS
 10
7.1492426381
 20
5.1532209326
 11
7.1545113881
 21
5.1321459326
  0
LINE
  5
422
100
AcDbEntity
  8
03__ASM_ALL_CURVES
100
AcDbLine
 62
40
  6
CONTINUOUS
 10
7.5420126369
 20
4.2301239326
 11
7.5420126369
 21
4.2933489326
  0
LINE
  5
423
100
AcDbEntity
  8
03__ASM_ALL_CURVES
100
AcDbLine
 62
40
  6
CONTINUOUS
 10
7.5736251369
 20
4.2828114313
 11
7.5736251369
 21
4.2722739339
  0
LINE
  5
424
100
AcDbEntity
  8
03__ASM_ALL_CURVES
100
AcDbLine
 62
40
  6
CONTINUOUS
 10
7.5973345119
 20
4.2617364326
 11
7.6012860744
 21
4.2775426826
  0
LINE
  5
425
100
AcDbEntity
  8
03__ASM_ALL_CURVES
100
AcDbLine
 62
40
  6
CONTINUOUS
 10
7.3125738881
 20
5.1672709343
 11
7.3178426381
 21
5.1602459309
  0
LINE
  5
426
100
AcDbEntity
  8
03__ASM_ALL_CURVES
100
AcDbLine
 62
40
  6
CONTINUOUS
 10
7.3020363881
 20
5.1321459326
 11
7.3178426381
 21
5.0899959326
  0
LINE
  5
427
100
AcDbEntity
  8
03__ASM_ALL_CURVES
100
AcDbLine
 62
40
  6
CONTINUOUS
 10
7.6882204494
 20
4.2617364326
 11
7.7000751369
 21
4.2301239326
  0
LINE
  5
428
100
AcDbEntity
  8
03__ASM_ALL_CURVES
100
AcDbLine
 62
40
  6
CONTINUOUS
 10
7.6012860744
 20
4.2459301826
 11
7.5973345119
 21
4.2617364326
  0
LINE
  5
429
100
AcDbEntity
  8
03__ASM_ALL_CURVES
100
AcDbLine
 62
40
  6
CONTINUOUS
 10
7.6684626369
 20
4.2301239326
 11
7.6684626369
 21
4.2933489326
  0
LINE
  5
42A
100
AcDbEntity
  8
03__ASM_ALL_CURVES
100
AcDbLine
 62
40
  6
CONTINUOUS
 10
7.7000751369
 20
4.2828114313
 11
7.7000751369
 21
4.2722739339
  0
LINE
  5
42B
100
AcDbEntity
  8
03__ASM_ALL_CURVES
100
AcDbLine
 62
40
  6
CONTINUOUS
 10
7.6447532619
 20
4.2617364326
 11
7.6408016994
 21
4.2459301826
  0
LINE
  5
42C
100
AcDbEntity
  8
03__ASM_ALL_CURVES
100
AcDbLine
 62
40
  6
CONTINUOUS
 10
7.6408016994
 20
4.2775426826
 11
7.6447532619
 21
4.2617364326
  0
LINE
  5
42D
100
AcDbEntity
  8
03__ASM_ALL_CURVES
100
AcDbLine
 62
40
  6
CONTINUOUS
 10
7.7474938869
 20
4.2933489326
 11
7.7474938869
 21
4.2301239326
  0
LINE
  5
42E
100
AcDbEntity
  8
03__ASM_ALL_CURVES
100
AcDbLine
 62
40
  6
CONTINUOUS
 10
7.8107188869
 20
4.2933489326
 11
7.8107188869
 21
4.2301239326
  0
ARC
  5
42F
100
AcDbEntity
  8
THREAD
100
AcDbCircle
 62
7
  6
CONTINUOUS
 10
5.9725070837
 20
3.7422639326
 40
0.013
100
AcDbArc
 50
29.9999999933
 51
90.0
  0
ARC
  5
430
100
AcDbEntity
  8
THREAD
100
AcDbCircle
 62
7
  6
CONTINUOUS
 10
5.9725070837
 20
4.6842639326
 40
0.013
100
AcDbArc
 50
270.0
 51
330.0000000082
  0
ARC
  5
431
100
AcDbEntity
  8
0
100
AcDbCircle
 62
7
  6
CONTINUOUS
 10
5.7970126372
 20
3.6828771812
 40
0.005
100
AcDbArc
 50
120.0000000209
 51
179.9999999996
  0
ARC
  5
432
100
AcDbEntity
  8
0
100
AcDbCircle
 62
7
  6
CONTINUOUS
 10
5.7970126372
 20
4.7436506839
 40
0.005
100
AcDbArc
 50
180.0000000003
 51
239.9999999837
  0
ARC
  5
433
100
AcDbEntity
  8
0
100
AcDbCircle
 62
7
  6
CONTINUOUS
 10
5.7890126372
 20
3.6782639326
 40
0.003
100
AcDbArc
 50
270.0
 51
360.0
  0
ARC
  5
434
100
AcDbEntity
  8
0
100
AcDbCircle
 62
7
  6
CONTINUOUS
 10
5.7890126372
 20
4.7482639326
 40
0.003
100
AcDbArc
 50
0.0
 51
90.0
  0
SPLINE
  5
435
100
AcDbEntity
  8
0
100
AcDbSpline
 62
7
  6
CONTINUOUS
 70
0
 71
3
 72
15
 73
11
 74
9
 42
0.0000001
 43
0.0000001
 44
0.0000000001
 12
0.0
 22
0.1099409465
 32
0.0
 13
0.0
 23
-0.1099409465
 33
0.0
 40
0.0
 40
0.0
 40
0.0
 40
0.0
 40
0.125
 40
0.25
 40
0.375
 40
0.5
 40
0.625
 40
0.75
 40
0.875
 40
1.0
 40
1.0
 40
1.0
 40
1.0
 10
7.0290126372
 20
4.6302639326
 30
0.0
 10
7.0290126372
 20
4.6348448054
 30
0.0
 10
7.0271902527
 20
4.6440065509
 30
0.0
 10
7.0194056848
 20
4.6556569802
 30
0.0
 10
7.0077552555
 20
4.6634415481
 30
0.0
 10
6.9940126372
 20
4.6661751248
 30
0.0
 10
6.9802700189
 20
4.6634415481
 30
0.0
 10
6.9686195896
 20
4.6556569802
 30
0.0
 10
6.9608350217
 20
4.6440065509
 30
0.0
 10
6.9590126372
 20
4.6348448054
 30
0.0
 10
6.9590126372
 20
4.6302639326
 30
0.0
 11
7.0290126372
 21
4.6302639326
 31
0.0
 11
7.0263484208
 21
4.6436578527
 31
0.0
 11
7.0187613745
 21
4.6550126699
 31
0.0
 11
7.0074065573
 21
4.6625997162
 31
0.0
 11
6.9940126372
 21
4.6652639326
 31
0.0
 11
6.9806187171
 21
4.6625997162
 31
0.0
 11
6.9692638999
 21
4.6550126699
 31
0.0
 11
6.9616768536
 21
4.6436578527
 31
0.0
 11
6.9590126372
 21
4.6302639326
 31
0.0
  0
SPLINE
  5
436
100
AcDbEntity
  8
0
100
AcDbSpline
 62
7
  6
CONTINUOUS
 70
0
 71
3
 72
15
 73
11
 74
9
 42
0.0000001
 43
0.0000001
 44
0.0000000001
 12
0.0
 22
-0.1099409465
 32
0.0
 13
0.0
 23
0.1099409465
 33
0.0
 40
0.0
 40
0.0
 40
0.0
 40
0.0
 40
0.125
 40
0.25
 40
0.375
 40
0.5
 40
0.625
 40
0.75
 40
0.875
 40
1.0
 40
1.0
 40
1.0
 40
1.0
 10
7.0290126372
 20
3.7962639326
 30
0.0
 10
7.0290126372
 20
3.7916830598
 30
0.0
 10
7.0271902527
 20
3.7825213143
 30
0.0
 10
7.0194056848
 20
3.770870885
 30
0.0
 10
7.0077552555
 20
3.7630863171
 30
0.0
 10
6.9940126372
 20
3.7603527403
 30
0.0
 10
6.9802700189
 20
3.7630863171
 30
0.0
 10
6.9686195896
 20
3.770870885
 30
0.0
 10
6.9608350217
 20
3.7825213143
 30
0.0
 10
6.9590126372
 20
3.7916830598
 30
0.0
 10
6.9590126372
 20
3.7962639326
 30
0.0
 11
7.0290126372
 21
3.7962639326
 31
0.0
 11
7.0263484208
 21
3.7828700125
 31
0.0
 11
7.0187613745
 21
3.7715151953
 31
0.0
 11
7.0074065573
 21
3.763928149
 31
0.0
 11
6.9940126372
 21
3.7612639326
 31
0.0
 11
6.9806187171
 21
3.763928149
 31
0.0
 11
6.9692638999
 21
3.7715151953
 31
0.0
 11
6.9616768536
 21
3.7828700125
 31
0.0
 11
6.9590126372
 21
3.7962639326
 31
0.0
  0
SPLINE
  5
437
100
AcDbEntity
  8
0
100
AcDbSpline
 62
7
  6
CONTINUOUS
 70
0
 71
3
 72
14
 73
10
 74
8
 42
0.0000001
 43
0.0000001
 44
0.0000000001
 12
0.0
 22
0.0916172274
 32
0.0
 13
-0.045846371
 23
-0.079336773
 33
0.0
 40
0.0
 40
0.0
 40
0.0
 40
0.0
 40
0.1500003733
 40
0.3000007465
 40
0.4500011198
 40
0.6000014931
 40
0.7500018663
 40
0.9000022396
 40
1.0
 40
1.0
 40
1.0
 40
1.0
 10
5.9090126372
 20
4.7062639326
 30
0.0
 10
5.9090126372
 20
4.7108448054
 30
0.0
 10
5.9071902527
 20
4.7200065509
 30
0.0
 10
5.8994056848
 20
4.7316569802
 30
0.0
 10
5.8877552555
 20
4.7394415481
 30
0.0
 10
5.8740126372
 20
4.7421751248
 30
0.0
 10
5.8602700189
 20
4.7394415481
 30
0.0
 10
5.8499141462
 20
4.7325219752
 30
0.0
 10
5.8452314649
 20
4.7264075433
 30
0.0
 10
5.8437032868
 20
4.7237630434
 30
0.0
 11
5.9090126372
 21
4.7062639326
 31
0.0
 11
5.9063484208
 21
4.7196578527
 31
0.0
 11
5.8987613745
 21
4.7310126699
 31
0.0
 11
5.8874065573
 21
4.7385997162
 31
0.0
 11
5.8740126372
 21
4.7412639326
 31
0.0
 11
5.8606187171
 21
4.7385997162
 31
0.0
 11
5.8492638999
 21
4.7310126699
 31
0.0
 11
5.8437032868
 21
4.7237630434
 31
0.0
  0
SPLINE
  5
438
100
AcDbEntity
  8
0
100
AcDbSpline
 62
7
  6
CONTINUOUS
 70
0
 71
3
 72
9
 73
5
 74
3
 42
0.0000001
 43
0.0000001
 44
0.0000000001
 12
-0.0091694111
 22
-0.0158675915
 32
0.0
 13
0.0
 23
-0.0183237191
 33
0.0
 40
0.0
 40
0.0
 40
0.0
 40
0.0
 40
0.2500093315
 40
1.0
 40
1.0
 40
1.0
 40
1.0
 10
5.8437032868
 20
4.7237630434
 30
0.0
 10
5.8429391407
 20
4.7224406948
 30
0.0
 10
5.8402275753
 20
4.7169527117
 30
0.0
 10
5.8390126372
 20
4.7108448054
 30
0.0
 10
5.8390126372
 20
4.7062639326
 30
0.0
 11
5.8437032868
 21
4.7237630434
 31
0.0
 11
5.8416768536
 21
4.7196578527
 31
0.0
 11
5.8390126372
 21
4.7062639326
 31
0.0
  0
SPLINE
  5
439
100
AcDbEntity
  8
0
100
AcDbSpline
 62
7
  6
CONTINUOUS
 70
0
 71
3
 72
14
 73
10
 74
8
 42
0.0000001
 43
0.0000001
 44
0.0000000001
 12
0.0
 22
-0.0916172274
 32
0.0
 13
-0.045846371
 23
0.079336773
 33
0.0
 40
0.0
 40
0.0
 40
0.0
 40
0.0
 40
0.1500003733
 40
0.3000007465
 40
0.4500011198
 40
0.6000014931
 40
0.7500018663
 40
0.9000022396
 40
1.0
 40
1.0
 40
1.0
 40
1.0
 10
5.9090126372
 20
3.7202639326
 30
0.0
 10
5.9090126372
 20
3.7156830598
 30
0.0
 10
5.9071902527
 20
3.7065213143
 30
0.0
 10
5.8994056848
 20
3.694870885
 30
0.0
 10
5.8877552555
 20
3.6870863171
 30
0.0
 10
5.8740126372
 20
3.6843527403
 30
0.0
 10
5.8602700189
 20
3.6870863171
 30
0.0
 10
5.8499141462
 20
3.69400589
 30
0.0
 10
5.8452314649
 20
3.7001203219
 30
0.0
 10
5.8437032868
 20
3.7027648218
 30
0.0
 11
5.9090126372
 21
3.7202639326
 31
0.0
 11
5.9063484208
 21
3.7068700125
 31
0.0
 11
5.8987613745
 21
3.6955151953
 31
0.0
 11
5.8874065573
 21
3.687928149
 31
0.0
 11
5.8740126372
 21
3.6852639326
 31
0.0
 11
5.8606187171
 21
3.687928149
 31
0.0
 11
5.8492638999
 21
3.6955151953
 31
0.0
 11
5.8437032868
 21
3.7027648218
 31
0.0
  0
SPLINE
  5
43A
100
AcDbEntity
  8
0
100
AcDbSpline
 62
7
  6
CONTINUOUS
 70
0
 71
3
 72
9
 73
5
 74
3
 42
0.0000001
 43
0.0000001
 44
0.0000000001
 12
-0.0091694111
 22
0.0158675915
 32
0.0
 13
0.0
 23
0.0183237191
 33
0.0
 40
0.0
 40
0.0
 40
0.0
 40
0.0
 40
0.2500093315
 40
1.0
 40
1.0
 40
1.0
 40
1.0
 10
5.8437032868
 20
3.7027648218
 30
0.0
 10
5.8429391407
 20
3.7040871704
 30
0.0
 10
5.8402275753
 20
3.7095751535
 30
0.0
 10
5.8390126372
 20
3.7156830598
 30
0.0
 10
5.8390126372
 20
3.7202639326
 30
0.0
 11
5.8437032868
 21
3.7027648218
 31
0.0
 11
5.8416768536
 21
3.7068700125
 31
0.0
 11
5.8390126372
 21
3.7202639326
 31
0.0
  0
SPLINE
  5
43B
100
AcDbEntity
  8
0
100
AcDbSpline
 62
7
  6
CONTINUOUS
 70
0
 71
3
 72
15
 73
11
 74
9
 42
0.0000001
 43
0.0000001
 44
0.0000000001
 12
0.0
 22
0.1099409465
 32
0.0
 13
-0.0
 23
-0.1099409465
 33
0.0
 40
0.0
 40
0.0
 40
0.0
 40
0.0
 40
0.125
 40
0.25
 40
0.375
 40
0.5
 40
0.625
 40
0.75
 40
0.875
 40
1.0
 40
1.0
 40
1.0
 40
1.0
 10
5.2870126372
 20
4.7307639326
 30
0.0
 10
5.2870126372
 20
4.7353448054
 30
0.0
 10
5.2851902527
 20
4.7445065509
 30
0.0
 10
5.2774056848
 20
4.7561569802
 30
0.0
 10
5.2657552555
 20
4.7639415481
 30
0.0
 10
5.2520126372
 20
4.7666751248
 30
0.0
 10
5.2382700189
 20
4.7639415481
 30
0.0
 10
5.2266195896
 20
4.7561569802
 30
0.0
 10
5.2188350217
 20
4.7445065509
 30
0.0
 10
5.2170126372
 20
4.7353448054
 30
0.0
 10
5.2170126372
 20
4.7307639326
 30
0.0
 11
5.2870126372
 21
4.7307639326
 31
0.0
 11
5.2843484208
 21
4.7441578527
 31
0.0
 11
5.2767613745
 21
4.7555126699
 31
0.0
 11
5.2654065573
 21
4.7630997162
 31
0.0
 11
5.2520126372
 21
4.7657639326
 31
0.0
 11
5.2386187171
 21
4.7630997162
 31
0.0
 11
5.2272638999
 21
4.7555126699
 31
0.0
 11
5.2196768536
 21
4.7441578527
 31
0.0
 11
5.2170126372
 21
4.7307639326
 31
0.0
  0
SPLINE
  5
43C
100
AcDbEntity
  8
0
100
AcDbSpline
 62
7
  6
CONTINUOUS
 70
0
 71
3
 72
15
 73
11
 74
9
 42
0.0000001
 43
0.0000001
 44
0.0000000001
 12
0.0
 22
-0.1099409465
 32
0.0
 13
-0.0
 23
0.1099409465
 33
0.0
 40
0.0
 40
0.0
 40
0.0
 40
0.0
 40
0.125
 40
0.25
 40
0.375
 40
0.5
 40
0.625
 40
0.75
 40
0.875
 40
1.0
 40
1.0
 40
1.0
 40
1.0
 10
5.2870126372
 20
3.6957639326
 30
0.0
 10
5.2870126372
 20
3.6911830598
 30
0.0
 10
5.2851902527
 20
3.6820213143
 30
0.0
 10
5.2774056848
 20
3.670370885
 30
0.0
 10
5.2657552555
 20
3.6625863171
 30
0.0
 10
5.2520126372
 20
3.6598527403
 30
0.0
 10
5.2382700189
 20
3.6625863171
 30
0.0
 10
5.2266195896
 20
3.670370885
 30
0.0
 10
5.2188350217
 20
3.6820213143
 30
0.0
 10
5.2170126372
 20
3.6911830598
 30
0.0
 10
5.2170126372
 20
3.6957639326
 30
0.0
 11
5.2870126372
 21
3.6957639326
 31
0.0
 11
5.2843484208
 21
3.6823700125
 31
0.0
 11
5.2767613745
 21
3.6710151953
 31
0.0
 11
5.2654065573
 21
3.663428149
 31
0.0
 11
5.2520126372
 21
3.6607639326
 31
0.0
 11
5.2386187171
 21
3.663428149
 31
0.0
 11
5.2272638999
 21
3.6710151953
 31
0.0
 11
5.2196768536
 21
3.6823700125
 31
0.0
 11
5.2170126372
 21
3.6957639326
 31
0.0
  0
SPLINE
  5
43D
100
AcDbEntity
  8
0
100
AcDbSpline
 62
7
  6
CONTINUOUS
 70
0
 71
3
 72
18
 73
14
 74
12
 42
0.0000001
 43
0.0000001
 44
0.0000000001
 12
-0.0598587971
 22
-0.0049615627
 32
0.0
 13
-0.059884306
 23
0.0046454611
 33
0.0
 40
0.0
 40
0.0
 40
0.0
 40
0.0
 40
0.0174295689
 40
0.0690239418
 40
0.151231099
 40
0.258365792
 40
0.3830714067
 40
0.5168174133
 40
0.6505205365
 40
0.775130983
 40
0.8821875493
 40
0.9643530165
 40
1.0
 40
1.0
 40
1.0
 40
1.0
 10
6.4770126372
 20
4.5872639326
 30
0.0
 10
6.4766648662
 20
4.5872351066
 30
0.0
 10
6.4752874782
 20
4.5871228459
 30
0.0
 10
6.4722683012
 20
4.586893349
 30
0.0
 10
6.4674545572
 20
4.5865788003
 30
0.0
 10
6.4611744946
 20
4.5862635913
 30
0.0
 10
6.4538581108
 20
4.5860325942
 30
0.0
 10
6.446006481
 20
4.5859481011
 30
0.0
 10
6.4381567599
 20
4.5860328421
 30
0.0
 10
6.4308447085
 20
4.5862638706
 30
0.0
 10
6.4245689484
 20
4.5865789203
 30
0.0
 10
6.4200762163
 20
4.5868724903
 30
0.0
 10
6.4177239931
 20
4.5870482877
 30
0.0
 10
6.4170124281
 20
4.5871034866
 30
0.0
 11
6.4770126372
 21
4.5872639326
 31
0.0
 11
6.4759692058
 21
4.5871788908
 31
0.0
 11
6.4728791496
 21
4.5869440224
 31
0.0
 11
6.4679519556
 21
4.5866221168
 31
0.0
 11
6.4615250929
 21
4.5862996364
 31
0.0
 11
6.4540384908
 21
4.5860633617
 31
0.0
 11
6.446005623
 21
4.585976959
 31
0.0
 11
6.4379753337
 21
4.5860636084
 31
0.0
 11
6.4304944503
 21
4.5862998747
 31
0.0
 11
6.4240722773
 21
4.586622178
 31
0.0
 11
6.4191475818
 21
4.5869439176
 31
0.0
 11
6.4170124281
 21
4.5871034866
 31
0.0
  0
SPLINE
  5
43E
100
AcDbEntity
  8
0
100
AcDbSpline
 62
7
  6
CONTINUOUS
 70
0
 71
3
 72
11
 73
7
 74
5
 42
0.0000001
 43
0.0000001
 44
0.0000000001
 12
0.051399525
 22
-0.0338062643
 32
0.0
 13
0.0582385194
 23
-0.0198466906
 33
0.0
 40
0.0
 40
0.0
 40
0.0
 40
0.0
 40
0.3095658676
 40
0.5871246621
 40
0.8414920952
 40
1.0
 40
1.0
 40
1.0
 40
1.0
 10
6.7450126372
 20
4.1294244573
 30
0.0
 10
6.7503164834
 20
4.1259360354
 30
0.0
 10
6.7606997688
 20
4.119802323
 30
0.0
 10
6.7762092258
 20
4.1122087768
 30
0.0
 10
6.7893034676
 20
4.1068008957
 30
0.0
 10
6.7972714234
 20
4.1039316029
 30
0.0
 10
6.8003485119
 20
4.1028829838
 30
0.0
 11
6.7450126372
 21
4.1294244573
 31
0.0
 11
6.7613875636
 21
4.1197002284
 31
0.0
 11
6.7767140503
 21
4.1121720399
 31
0.0
 11
6.791173724
 21
4.1061884522
 31
0.0
 11
6.8003485119
 21
4.1028829838
 31
0.0
  0
SPLINE
  5
43F
100
AcDbEntity
  8
0
100
AcDbSpline
 62
7
  6
CONTINUOUS
 70
0
 71
3
 72
11
 73
7
 74
5
 42
0.0000001
 43
0.0000001
 44
0.0000000001
 12
-0.0581849109
 22
-0.0198405095
 32
0.0
 13
-0.0513554867
 23
-0.0337772997
 33
0.0
 40
0.0
 40
0.0
 40
0.0
 40
0.0
 40
0.1572229517
 40
0.4120162159
 40
0.6902860799
 40
1.0
 40
1.0
 40
1.0
 40
1.0
 10
6.8002986275
 20
4.323627877
 30
0.0
 10
6.7972492931
 20
4.3225880825
 30
0.0
 10
6.789304847
 20
4.3197269446
 30
0.0
 10
6.7762240488
 20
4.3143262438
 30
0.0
 10
6.7607039152
 20
4.3067281092
 30
0.0
 10
6.7503144736
 20
4.3005905079
 30
0.0
 10
6.7450126372
 20
4.2971034079
 30
0.0
 11
6.8002986275
 21
4.323627877
 31
0.0
 11
6.7912061076
 21
4.3203517226
 31
0.0
 11
6.776734003
 21
4.3143647849
 31
0.0
 11
6.761381198
 21
4.3068242223
 31
0.0
 11
6.7450126372
 21
4.2971034079
 31
0.0
  0
SPLINE
  5
440
100
AcDbEntity
  8
0
100
AcDbSpline
 62
7
  6
CONTINUOUS
 70
0
 71
3
 72
21
 73
17
 74
15
 42
0.0000001
 43
0.0000001
 44
0.0000000001
 12
0.2839147277
 22
-0.0699334879
 32
0.0
 13
0.2784470905
 23
0.0892498025
 33
0.0
 40
0.0
 40
0.0
 40
0.0
 40
0.0
 40
0.0077106121
 40
0.031367026
 40
0.0711936163
 40
0.1291802707
 40
0.2067610245
 40
0.3026759745
 40
0.4102633732
 40
0.5217041132
 40
0.6284433322
 40
0.7272159675
 40
0.8144900098
 40
0.8886713855
 40
0.9503978896
 40
1.0
 40
1.0
 40
1.0
 40
1.0
 10
6.5634220398
 20
4.5572639326
 30
0.0
 10
6.5641517585
 20
4.5570841893
 30
0.0
 10
6.5671210039
 20
4.5563559254
 30
0.0
 10
6.5738670055
 20
4.5547304501
 30
0.0
 10
6.5854003721
 20
4.5520554615
 30
0.0
 10
6.6021065929
 20
4.5484258896
 30
0.0
 10
6.6242528224
 20
4.5441025021
 30
0.0
 10
6.6512947251
 20
4.5396734438
 30
0.0
 10
6.6817782551
 20
4.5359676696
 30
0.0
 10
6.7134729692
 20
4.5337909474
 30
0.0
 10
6.7443861127
 20
4.5335672039
 30
0.0
 10
6.7728950576
 20
4.5352571967
 30
0.0
 10
6.7980748928
 20
4.5384539351
 30
0.0
 10
6.8194532807
 20
4.5425411834
 30
0.0
 10
6.8370067414
 20
4.5469085201
 30
0.0
 10
6.8474087828
 20
4.5500090855
 30
0.0
 10
6.8520126372
 20
4.551484745
 30
0.0
 11
6.5634220398
 21
4.5572639326
 31
0.0
 11
6.5656117314
 21
4.5567268782
 31
0.0
 11
6.5723364888
 21
4.5551067831
 31
0.0
 11
6.5836809838
 21
4.5524769159
 31
0.0
 11
6.6002507201
 21
4.5488813901
 31
0.0
 11
6.6225173155
 21
4.5445462223
 31
0.0
 11
6.6501981889
 21
4.540037771
 31
0.0
 11
6.681431811
 21
4.5362817204
 31
0.0
 11
6.7139440477
 21
4.5340996878
 31
0.0
 11
6.7451541824
 21
4.5339207123
 31
0.0
 11
6.7739826686
 21
4.535665062
 31
0.0
 11
6.7992959127
 21
4.5388991994
 31
0.0
 11
6.8205990963
 21
4.5429809888
 31
0.0
 11
6.8381133514
 21
4.5473414039
 31
0.0
 11
6.8520126372
 21
4.551484745
 31
0.0
  0
SPLINE
  5
441
100
AcDbEntity
  8
0
100
AcDbSpline
 62
7
  6
CONTINUOUS
 70
0
 71
3
 72
19
 73
15
 74
13
 42
0.0000001
 43
0.0000001
 44
0.0000000001
 12
0.1411618607
 22
0.00013383
 32
0.0
 13
0.0707149001
 23
0.1220899631
 33
0.0
 40
0.0
 40
0.0
 40
0.0
 40
0.0
 40
0.0846321994
 40
0.2108014007
 40
0.3220040167
 40
0.4198901172
 40
0.5073410412
 40
0.5866523078
 40
0.6598482807
 40
0.7290868456
 40
0.7966886764
 40
0.8642736863
 40
0.9321294546
 40
1.0
 40
1.0
 40
1.0
 40
1.0
 10
6.7326625506
 20
4.0882639338
 30
0.0
 10
6.7366448301
 20
4.0882677092
 30
0.0
 10
6.7465631344
 20
4.0885956002
 30
0.0
 10
6.7616309586
 20
4.0903736482
 30
0.0
 10
6.7770385535
 20
4.0938499372
 30
0.0
 10
6.7902882226
 20
4.0982731538
 30
0.0
 10
6.8016807086
 20
4.1033301393
 30
0.0
 10
6.8115495337
 20
4.1088344591
 30
0.0
 10
6.8201928685
 20
4.1146920902
 30
0.0
 10
6.8278877976
 20
4.1209036143
 30
0.0
 10
6.8348583225
 20
4.1275403731
 30
0.0
 10
6.8412221547
 20
4.1346743038
 30
0.0
 10
6.8469895027
 20
4.1423136492
 30
0.0
 10
6.8504128176
 20
4.1477110485
 30
0.0
 10
6.8520126372
 20
4.1504731526
 30
0.0
 11
6.7326625506
 21
4.0882639338
 31
0.0
 11
6.7446000815
 21
4.0886657608
 31
0.0
 11
6.7622752085
 21
4.0907813533
 31
0.0
 11
6.7775750511
 21
4.0942569432
 31
0.0
 11
6.790670037
 21
4.0986455384
 31
0.0
 11
6.801943034
 21
4.1036613328
 31
0.0
 11
6.8117124142
 21
4.10911816
 31
0.0
 11
6.8202590137
 21
4.1149154012
 31
0.0
 11
6.8278588452
 21
4.1210533301
 31
0.0
 11
6.8347657364
 21
4.1276311691
 31
0.0
 11
6.8411133277
 21
4.1347470619
 31
0.0
 11
6.8468823958
 21
4.1423874615
 31
0.0
 11
6.8520126372
 21
4.1504731526
 31
0.0
  0
SPLINE
  5
442
100
AcDbEntity
  8
0
100
AcDbSpline
 62
7
  6
CONTINUOUS
 70
0
 71
3
 72
9
 73
5
 74
3
 42
0.0000001
 43
0.0000001
 44
0.0000000001
 12
-0.0024650801
 22
-0.0138322533
 32
0.0
 13
-0.0000000001
 23
-0.0140501905
 33
0.0
 40
0.0
 40
0.0
 40
0.0
 40
0.0
 40
0.5029347968
 40
1.0
 40
1.0
 40
1.0
 40
1.0
 10
6.7450126372
 20
4.2272451289
 30
0.0
 10
6.744599379
 20
4.2249262217
 30
0.0
 10
6.7439766211
 20
4.2202775777
 30
0.0
 10
6.7437679649
 20
4.2155918862
 30
0.0
 10
6.7437679648
 20
4.2132639326
 30
0.0
 11
6.7450126372
 21
4.2272451289
 31
0.0
 11
6.7440777101
 21
4.2202409211
 31
0.0
 11
6.7437679648
 21
4.2132639326
 31
0.0
  0
SPLINE
  5
443
100
AcDbEntity
  8
0
100
AcDbSpline
 62
7
  6
CONTINUOUS
 70
0
 71
3
 72
9
 73
5
 74
3
 42
0.0000001
 43
0.0000001
 44
0.0000000001
 12
-0.0000000001
 22
-0.0140501905
 32
0.0
 13
0.0024650801
 23
-0.0138322533
 33
0.0
 40
0.0
 40
0.0
 40
0.0
 40
0.0
 40
0.4970585429
 40
1.0
 40
1.0
 40
1.0
 40
1.0
 10
6.7437679648
 20
4.2132639326
 30
0.0
 10
6.7437679648
 20
4.2109360102
 30
0.0
 10
6.7439766183
 20
4.2062503188
 30
0.0
 10
6.7445993735
 20
4.2016016742
 30
0.0
 10
6.7450126372
 20
4.1992827363
 30
0.0
 11
6.7437679648
 21
4.2132639326
 31
0.0
 11
6.7440777018
 21
4.2062870374
 31
0.0
 11
6.7450126372
 21
4.1992827363
 31
0.0
  0
SPLINE
  5
444
100
AcDbEntity
  8
0
100
AcDbSpline
 62
7
  6
CONTINUOUS
 70
0
 71
3
 72
21
 73
17
 74
15
 42
0.0000001
 43
0.0000001
 44
0.0000000001
 12
-0.2784473836
 22
0.0892498965
 32
0.0
 13
-0.2839150273
 23
-0.0699335618
 33
0.0
 40
0.0
 40
0.0
 40
0.0
 40
0.0
 40
0.0490335281
 40
0.110062042
 40
0.1831281731
 40
0.2685997233
 40
0.365754635
 40
0.4716811459
 40
0.5833023307
 40
0.6919840238
 40
0.7896054807
 40
0.8686521526
 40
0.9274934422
 40
0.9682827421
 40
0.9923006566
 40
1.0
 40
1.0
 40
1.0
 40
1.0
 10
6.8520126372
 20
3.8750431202
 30
0.0
 10
6.8474615513
 20
3.876501866
 30
0.0
 10
6.8371786384
 20
3.8795695565
 30
0.0
 10
6.8198539415
 20
3.8838938354
 30
0.0
 10
6.7988281079
 20
3.8879454876
 30
0.0
 10
6.7740956712
 20
3.8911480904
 30
0.0
 10
6.7460052669
 20
3.892910872
 30
0.0
 10
6.7153108735
 20
3.8928049017
 30
0.0
 10
6.6835635256
 20
3.8907329662
 30
0.0
 10
6.6527813741
 20
3.8870716862
 30
0.0
 10
6.6253211608
 20
3.8826213461
 30
0.0
 10
6.6027853667
 20
3.8782440528
 30
0.0
 10
6.5857644721
 20
3.8745552817
 30
0.0
 10
6.5740235852
 20
3.8718349658
 30
0.0
 10
6.5671530937
 20
3.8701798139
 30
0.0
 10
6.5641506929
 20
3.8694434134
 30
0.0
 10
6.5634220398
 20
3.8692639326
 30
0.0
 11
6.8520126372
 21
3.8750431202
 31
0.0
 11
6.8382736229
 21
3.8791421911
 31
0.0
 11
6.8209606267
 21
3.8834662558
 31
0.0
 11
6.7999835166
 21
3.8875169562
 31
0.0
 11
6.7752008901
 21
3.8907450956
 31
0.0
 11
6.7468505584
 21
3.8925576912
 31
0.0
 11
6.7158775747
 21
3.8924966139
 31
0.0
 11
6.6833053913
 21
3.8904221869
 31
0.0
 11
6.6517442056
 21
3.8867107239
 31
0.0
 11
6.6235629856
 21
3.8821703418
 31
0.0
 11
6.6008713631
 21
3.8777752299
 31
0.0
 11
6.584055492
 21
3.8741354946
 31
0.0
 11
6.5724361346
 21
3.8714447518
 31
0.0
 11
6.5656085328
 21
3.8698002059
 31
0.0
 11
6.5634220398
 21
3.8692639326
 31
0.0
  0
SPLINE
  5
445
100
AcDbEntity
  8
0
100
AcDbSpline
 62
7
  6
CONTINUOUS
 70
0
 71
3
 72
19
 73
15
 74
13
 42
0.0000001
 43
0.0000001
 44
0.0000000001
 12
-0.0707375517
 22
0.1221290713
 32
0.0
 13
-0.1412101617
 23
0.0001008128
 33
0.0
 40
0.0
 40
0.0
 40
0.0
 40
0.0
 40
0.066445101
 40
0.132820133
 40
0.1990269001
 40
0.2653975597
 40
0.3333636271
 40
0.4049411057
 40
0.481994754
 40
0.5662375636
 40
0.6597057966
 40
0.7655829473
 40
0.8868053851
 40
1.0
 40
1.0
 40
1.0
 40
1.0
 10
6.8520126372
 20
4.2760547126
 30
0.0
 10
6.8504459159
 20
4.2787596721
 30
0.0
 10
6.847099408
 20
4.2840457043
 30
0.0
 10
6.8414712891
 20
4.2915406013
 30
0.0
 10
6.835263931
 20
4.2985593936
 30
0.0
 10
6.8284617832
 20
4.3051115905
 30
0.0
 10
6.820959759
 20
4.3112570763
 30
0.0
 10
6.8125648201
 20
4.3170534251
 30
0.0
 10
6.8030417417
 20
4.3224973576
 30
0.0
 10
6.7921361306
 20
4.3275083763
 30
0.0
 10
6.7795317074
 20
4.3319414202
 30
0.0
 10
6.76486311
 20
4.335549956
 30
0.0
 10
6.7489805983
 20
4.3377787786
 30
0.0
 10
6.7379469937
 20
4.3382600902
 30
0.0
 10
6.7326189171
 20
4.338263894
 30
0.0
 11
6.8520126372
 21
4.2760547126
 31
0.0
 11
6.8469951836
 21
4.2839773353
 31
0.0
 11
6.841369433
 21
4.2914678855
 31
0.0
 11
6.8351791688
 21
4.2984674329
 31
0.0
 11
6.8284334534
 21
4.304966754
 31
0.0
 11
6.8210143494
 21
4.3110472053
 31
0.0
 11
6.8127034594
 21
4.3167902377
 31
0.0
 11
6.8032653201
 21
4.3221928067
 31
0.0
 11
6.7924655619
 21
4.3271656938
 31
0.0
 11
6.7800257406
 21
4.3315556979
 31
0.0
 11
6.7655201307
 21
4.3351448739
 31
0.0
 11
6.7485811312
 21
4.3375494889
 31
0.0
 11
6.7326189171
 21
4.338263894
 31
0.0
  0
SPLINE
  5
446
100
AcDbEntity
  8
0
100
AcDbSpline
 62
7
  6
CONTINUOUS
 70
0
 71
3
 72
20
 73
16
 74
14
 42
0.0000001
 43
0.0000001
 44
0.0000000001
 12
-0.2308645534
 22
0.0001648189
 32
0.0
 13
0.0
 23
-0.2307429634
 33
0.0
 40
0.0
 40
0.0
 40
0.0
 40
0.0
 40
0.0155131345
 40
0.1109829981
 40
0.2133415683
 40
0.3170675126
 40
0.4180435601
 40
0.5111773285
 40
0.5920432154
 40
0.6626156378
 40
0.7282435456
 40
0.7945712791
 40
0.8630195667
 40
0.9320982263
 40
1.0
 40
1.0
 40
1.0
 40
1.0
 10
6.7326189171
 20
4.338263894
 30
0.0
 10
6.7314251061
 20
4.3382647463
 30
0.0
 10
6.7228843534
 20
4.3381887361
 30
0.0
 10
6.7064892399
 20
4.3369324461
 30
0.0
 10
6.6836557155
 20
4.3325898292
 30
0.0
 10
6.6610421007
 20
4.3256085212
 30
0.0
 10
6.6399999808
 20
4.3164300299
 30
0.0
 10
6.6216506998
 20
4.3058210699
 30
0.0
 10
6.6064909751
 20
4.2946187686
 30
0.0
 10
6.5942135111
 20
4.2832557822
 30
0.0
 10
6.5840211943
 20
4.2714301353
 30
0.0
 10
6.5754575797
 20
4.2585596271
 30
0.0
 10
6.5687201187
 20
4.2443292363
 30
0.0
 10
6.5644068595
 20
4.2290471299
 30
0.0
 10
6.5634220398
 20
4.2184865514
 30
0.0
 10
6.5634220398
 20
4.2132639326
 30
0.0
 11
6.7326189171
 21
4.338263894
 31
0.0
 11
6.7290376946
 21
4.3382322131
 31
0.0
 11
6.7070706794
 21
4.3365808335
 31
0.0
 11
6.6838646923
 21
4.3321857635
 31
0.0
 11
6.6609970193
 21
4.3251212461
 31
0.0
 11
6.6396518072
 21
4.3157805181
 31
0.0
 11
6.621068639
 21
4.3049877282
 31
0.0
 11
6.6060871432
 21
4.2938646975
 31
0.0
 11
6.5941618583
 21
4.2827760022
 31
0.0
 11
6.5843042706
 21
4.2712806204
 31
0.0
 11
6.5758642176
 21
4.2585135512
 31
0.0
 11
6.5691515974
 21
4.2442170508
 31
0.0
 11
6.5648631269
 21
4.2288653747
 31
0.0
 11
6.5634220398
 21
4.2132639326
 31
0.0
  0
SPLINE
  5
447
100
AcDbEntity
  8
0
100
AcDbSpline
 62
7
  6
CONTINUOUS
 70
0
 71
3
 72
21
 73
17
 74
15
 42
0.0000001
 43
0.0000001
 44
0.0000000001
 12
0.0
 22
-0.2308154619
 32
0.0
 13
0.2309320471
 23
0.0002189376
 33
0.0
 40
0.0
 40
0.0
 40
0.0
 40
0.0
 40
0.0581447769
 40
0.1168880342
 40
0.1752114726
 40
0.2323031801
 40
0.2893420333
 40
0.3496894802
 40
0.4164218362
 40
0.4922747518
 40
0.5783607453
 40
0.6720237991
 40
0.770126389
 40
0.8695803525
 40
0.9650340036
 40
1.0
 40
1.0
 40
1.0
 40
1.0
 10
6.5634220398
 20
4.2132639326
 30
0.0
 10
6.5634220398
 20
4.2087903614
 30
0.0
 10
6.564139999
 20
4.1997814037
 30
0.0
 10
6.5673032215
 20
4.186625702
 30
0.0
 10
6.5723211248
 20
4.1741535042
 30
0.0
 10
6.5788596953
 20
4.1625699291
 30
0.0
 10
6.5867871617
 20
4.1517032841
 30
0.0
 10
6.5963250911
 20
4.1411954306
 30
0.0
 10
6.6079699633
 20
4.1307543586
 30
0.0
 10
6.6222274229
 20
4.1203929967
 30
0.0
 10
6.639281627
 20
4.1105277057
 30
0.0
 10
6.6588420506
 20
4.1018048897
 30
0.0
 10
6.6801915725
 20
4.094868343
 30
0.0
 10
6.7022956147
 20
4.0902170586
 30
0.0
 10
6.7199310992
 20
4.088469738
 30
0.0
 10
6.7299709608
 20
4.088261382
 30
0.0
 10
6.7326625506
 20
4.0882639338
 30
0.0
 11
6.5634220398
 21
4.2132639326
 31
0.0
 11
6.5644808445
 21
4.1998850506
 31
0.0
 11
6.5676279303
 21
4.1866964828
 31
0.0
 11
6.5726248934
 21
4.174196303
 31
0.0
 11
6.5790764768
 21
4.162705981
 31
0.0
 11
6.5868133229
 21
4.1520537387
 31
0.0
 11
6.5961542355
 21
4.1417208861
 31
0.0
 11
6.6076017038
 21
4.1314153753
 31
0.0
 11
6.6217447561
 21
4.1210952475
 31
0.0
 11
6.6389276733
 21
4.1111171016
 31
0.0
 11
6.6586627253
 21
4.1022907921
 31
0.0
 11
6.6801961236
 21
4.0952875691
 31
0.0
 11
6.702662366
 21
4.0905733876
 31
0.0
 11
6.7245899775
 21
4.0884293853
 31
0.0
 11
6.7326625506
 21
4.0882639338
 31
0.0
  0
SPLINE
  5
448
100
AcDbEntity
  8
127-414_FEATURES
100
AcDbSpline
 62
7
  6
CONTINUOUS
 70
0
 71
3
 72
13
 73
9
 74
7
 42
0.0000001
 43
0.0000001
 44
0.0000000001
 12
0.0316080248
 22
-0.0000208243
 32
0.0
 13
0.0315904129
 23
-0.0010554442
 33
0.0
 40
0.0
 40
0.0
 40
0.0
 40
0.0
 40
0.2049099548
 40
0.406563509
 40
0.5960376511
 40
0.7674311936
 40
0.9114039818
 40
1.0
 40
1.0
 40
1.0
 40
1.0
 10
5.3744485726
 20
3.7558670241
 30
0.0
 10
5.3766075056
 20
3.7558656018
 30
0.0
 10
5.3808910668
 20
3.7558476459
 30
0.0
 10
5.3871705873
 20
3.7557782316
 30
0.0
 10
5.3930964463
 20
3.7556744177
 30
0.0
 10
5.3984140261
 20
3.7555501629
 30
0.0
 10
5.4026684787
 20
3.7554293921
 30
0.0
 10
5.4051175733
 20
3.7553509383
 30
0.0
 10
5.4060505015
 20
3.7553197689
 30
0.0
 11
5.3744485726
 21
3.7558670241
 31
0.0
 11
5.3809253167
 21
3.7558400358
 31
0.0
 11
5.3872988009
 21
3.755769734
 31
0.0
 11
5.393286789
 21
3.7556649552
 31
0.0
 11
5.3987027252
 21
3.7555384921
 31
0.0
 11
5.4032515907
 21
3.7554094165
 31
0.0
 11
5.4060505015
 21
3.7553197689
 31
0.0
  0
SPLINE
  5
449
100
AcDbEntity
  8
127-414_FEATURES
100
AcDbSpline
 62
7
  6
CONTINUOUS
 70
0
 71
3
 72
9
 73
5
 74
3
 42
0.0000001
 43
0.0000001
 44
0.0000000001
 12
0.0004370659
 22
-0.0000146025
 32
0.0
 13
0.0004370596
 23
-0.00001479
 33
0.0
 40
0.0
 40
0.0
 40
0.0
 40
0.0
 40
0.930266288
 40
1.0
 40
1.0
 40
1.0
 40
1.0
 10
5.4060505015
 20
3.7553197689
 30
0.0
 10
5.4061860308
 20
3.7553152408
 30
0.0
 10
5.4063317184
 20
3.7553103442
 30
0.0
 10
5.4064774051
 20
3.7553054164
 30
0.0
 10
5.4064875643
 20
3.7553050726
 30
0.0
 11
5.4060505015
 21
3.7553197689
 31
0.0
 11
5.4064570865
 21
3.7553061035
 31
0.0
 11
5.4064875643
 21
3.7553050726
 31
0.0
  0
SPLINE
  5
44A
100
AcDbEntity
  8
127-414_FEATURES
100
AcDbSpline
 62
7
  6
CONTINUOUS
 70
0
 71
3
 72
8
 73
4
 74
2
 42
0.0000001
 43
0.0000001
 44
0.0000000001
 12
0.0011950511
 22
-0.0000404404
 32
0.0
 13
0.0011950027
 23
-0.0000418387
 33
0.0
 40
0.0
 40
0.0
 40
0.0
 40
0.0
 40
1.0
 40
1.0
 40
1.0
 40
1.0
 10
5.4064875643
 20
3.7553050726
 30
0.0
 10
5.4068859147
 20
3.7552915925
 30
0.0
 10
5.4072842571
 20
3.7552778788
 30
0.0
 10
5.4076825913
 20
3.7552639326
 30
0.0
 11
5.4064875643
 21
3.7553050726
 31
0.0
 11
5.4076825913
 21
3.7552639326
 31
0.0
  0
SPLINE
  5
44B
100
AcDbEntity
  8
127-414_FEATURES
100
AcDbSpline
 62
7
  6
CONTINUOUS
 70
0
 71
3
 72
8
 73
4
 74
2
 42
0.0000001
 43
0.0000001
 44
0.0000000001
 12
0.0003116174
 22
0.0012153748
 32
0.0
 13
0.0003121552
 23
0.0012152368
 33
0.0
 40
0.0
 40
0.0
 40
0.0
 40
0.0
 40
1.0
 40
1.0
 40
1.0
 40
1.0
 10
5.3674253981
 20
3.7290530884
 30
0.0
 10
5.3675292705
 20
3.7294582134
 30
0.0
 10
5.3676332323
 20
3.7298633154
 30
0.0
 10
5.367737284
 20
3.7302683944
 30
0.0
 11
5.3674253981
 21
3.7290530884
 31
0.0
 11
5.367737284
 21
3.7302683944
 31
0.0
  0
SPLINE
  5
44C
100
AcDbEntity
  8
127-414_FEATURES
100
AcDbSpline
 62
7
  6
CONTINUOUS
 70
0
 71
3
 72
11
 73
7
 74
5
 42
0.0000001
 43
0.0000001
 44
0.0000000001
 12
0.0065839793
 22
0.0256317795
 32
0.0
 13
0.006846275
 23
0.025562969
 33
0.0
 40
0.0
 40
0.0
 40
0.0
 40
0.0
 40
0.1442298202
 40
0.3717423708
 40
0.6647118487
 40
1.0
 40
1.0
 40
1.0
 40
1.0
 10
5.367737284
 20
3.7302683944
 30
0.0
 10
5.3680538194
 20
3.7315006833
 30
0.0
 10
5.3688718142
 20
3.7346762716
 30
0.0
 10
5.3703446059
 20
3.7403519176
 30
0.0
 10
5.3722597212
 20
3.747653964
 30
0.0
 10
5.3736834143
 20
3.7530100373
 30
0.0
 10
5.3744485726
 20
3.7558670241
 30
0.0
 11
5.367737284
 21
3.7302683944
 31
0.0
 11
5.3686894093
 21
3.7339646132
 31
0.0
 11
5.3702017819
 21
3.7397924377
 31
0.0
 11
5.3721688712
 21
3.7472918546
 31
0.0
 11
5.3744485726
 21
3.7558670241
 31
0.0
  0
SPLINE
  5
44D
100
AcDbEntity
  8
0
100
AcDbSpline
 62
7
  6
CONTINUOUS
 70
0
 71
3
 72
14
 73
10
 74
8
 42
0.0000001
 43
0.0000001
 44
0.0000000001
 12
0.1442757118
 22
0.2708049707
 32
0.0
 13
-0.1442757118
 23
0.2708049707
 33
0.0
 40
0.0
 40
0.0
 40
0.0
 40
0.0
 40
0.1539652166
 40
0.2964780264
 40
0.4328366592
 40
0.567267274
 40
0.7036195666
 40
0.846074992
 40
1.0
 40
1.0
 40
1.0
 40
1.0
 10
4.9245870114
 20
3.5798786231
 30
0.0
 10
4.9319914918
 20
3.5937768051
 30
0.0
 10
4.9450306209
 20
3.621231145
 30
0.0
 10
4.9589995726
 20
3.6633809281
 30
0.0
 10
4.9661636573
 20
3.7052301314
 30
0.0
 10
4.9661608546
 20
3.7470790949
 30
0.0
 10
4.9589928812
 20
3.7889209324
 30
0.0
 10
4.9450247017
 20
3.8310595692
 30
0.0
 10
4.9319895581
 20
3.8585046896
 30
0.0
 10
4.9245870114
 20
3.8723992421
 30
0.0
 11
4.9245870114
 21
3.5798786231
 31
0.0
 11
4.944598246
 21
3.6226737469
 31
0.0
 11
4.9581101768
 21
3.6642624644
 31
0.0
 11
4.9650063851
 21
3.7055305161
 31
0.0
 11
4.9650036942
 21
3.7467792119
 31
0.0
 11
4.9581029472
 21
3.7880445326
 31
0.0
 11
4.9445936691
 21
3.8296155979
 31
0.0
 11
4.9245870114
 21
3.8723992421
 31
0.0
  0
SPLINE
  5
44E
100
AcDbEntity
  8
0
100
AcDbSpline
 62
7
  6
CONTINUOUS
 70
0
 71
3
 72
14
 73
10
 74
8
 42
0.0000001
 43
0.0000001
 44
0.0000000001
 12
-0.1524912644
 22
0.5724510643
 32
0.0
 13
0.1524912644
 23
0.5724510643
 33
0.0
 40
0.0
 40
0.0
 40
0.0
 40
0.0
 40
0.1483734886
 40
0.2906183378
 40
0.4304255817
 40
0.5696820058
 40
0.7094806994
 40
0.8516660081
 40
1.0
 40
1.0
 40
1.0
 40
1.0
 10
4.3376233085
 20
3.9207433137
 30
0.0
 10
4.3300814215
 20
3.9490555008
 30
0.0
 10
4.3168783022
 20
4.0049508437
 30
0.0
 10
4.303075013
 20
4.0888947
 30
0.0
 10
4.2960437348
 20
4.1718880065
 30
0.0
 10
4.2960464758
 20
4.2547019695
 30
0.0
 10
4.3030816546
 20
4.3376814144
 30
0.0
 10
4.3168843952
 20
4.4216037269
 30
0.0
 10
4.3300834291
 20
4.477479901
 30
0.0
 10
4.3376233085
 20
4.5057845515
 30
0.0
 11
4.3376233085
 21
3.9207433137
 31
0.0
 11
4.3176120738
 21
4.0063335613
 31
0.0
 11
4.304100143
 21
4.0895109961
 31
0.0
 11
4.2972039347
 21
4.1720470997
 31
0.0
 11
4.2972066256
 21
4.2545444913
 31
0.0
 11
4.3041073726
 21
4.3370751325
 31
0.0
 11
4.3176166507
 21
4.4202172632
 31
0.0
 11
4.3376233085
 21
4.5057845515
 31
0.0
  0
SPLINE
  5
44F
100
AcDbEntity
  8
0
100
AcDbSpline
 62
7
  6
CONTINUOUS
 70
0
 71
3
 72
14
 73
10
 74
8
 42
0.0000001
 43
0.0000001
 44
0.0000000001
 12
0.1524912644
 22
0.5724510643
 32
0.0
 13
-0.1524912644
 23
0.5724510643
 33
0.0
 40
0.0
 40
0.0
 40
0.0
 40
0.0
 40
0.1483734886
 40
0.2906183378
 40
0.4304255817
 40
0.5696820058
 40
0.7094806994
 40
0.8516660081
 40
1.0
 40
1.0
 40
1.0
 40
1.0
 10
4.9245870114
 20
3.9207433137
 30
0.0
 10
4.9321288983
 20
3.9490555008
 30
0.0
 10
4.9453320176
 20
4.0049508437
 30
0.0
 10
4.9591353068
 20
4.0888947
 30
0.0
 10
4.966166585
 20
4.1718880065
 30
0.0
 10
4.966163844
 20
4.2547019695
 30
0.0
 10
4.9591286652
 20
4.3376814144
 30
0.0
 10
4.9453259246
 20
4.4216037269
 30
0.0
 10
4.9321268907
 20
4.477479901
 30
0.0
 10
4.9245870114
 20
4.5057845515
 30
0.0
 11
4.9245870114
 21
3.9207433137
 31
0.0
 11
4.944598246
 21
4.0063335613
 31
0.0
 11
4.9581101768
 21
4.0895109961
 31
0.0
 11
4.9650063851
 21
4.1720470997
 31
0.0
 11
4.9650036942
 21
4.2545444913
 31
0.0
 11
4.9581029472
 21
4.3370751325
 31
0.0
 11
4.9445936691
 21
4.4202172632
 31
0.0
 11
4.9245870114
 21
4.5057845515
 31
0.0
  0
SPLINE
  5
450
100
AcDbEntity
  8
0
100
AcDbSpline
 62
7
  6
CONTINUOUS
 70
0
 71
3
 72
14
 73
10
 74
8
 42
0.0000001
 43
0.0000001
 44
0.0000000001
 12
-0.1442757118
 22
0.2708049707
 32
0.0
 13
0.1442757118
 23
0.2708049707
 33
0.0
 40
0.0
 40
0.0
 40
0.0
 40
0.0
 40
0.1539652166
 40
0.2964780264
 40
0.4328366592
 40
0.567267274
 40
0.7036195666
 40
0.846074992
 40
1.0
 40
1.0
 40
1.0
 40
1.0
 10
4.3376233085
 20
4.5541286231
 30
0.0
 10
4.3302188281
 20
4.5680268051
 30
0.0
 10
4.3171796989
 20
4.595481145
 30
0.0
 10
4.3032107472
 20
4.6376309281
 30
0.0
 10
4.2960466626
 20
4.6794801314
 30
0.0
 10
4.2960494652
 20
4.7213290949
 30
0.0
 10
4.3032174386
 20
4.7631709324
 30
0.0
 10
4.3171856181
 20
4.8053095692
 30
0.0
 10
4.3302207618
 20
4.8327546896
 30
0.0
 10
4.3376233085
 20
4.8466492421
 30
0.0
 11
4.3376233085
 21
4.5541286231
 31
0.0
 11
4.3176120738
 21
4.5969237469
 31
0.0
 11
4.304100143
 21
4.6385124644
 31
0.0
 11
4.2972039347
 21
4.6797805161
 31
0.0
 11
4.2972066256
 21
4.7210292119
 31
0.0
 11
4.3041073726
 21
4.7622945326
 31
0.0
 11
4.3176166507
 21
4.8038655979
 31
0.0
 11
4.3376233085
 21
4.8466492421
 31
0.0
  0
SPLINE
  5
451
100
AcDbEntity
  8
0
100
AcDbSpline
 62
7
  6
CONTINUOUS
 70
0
 71
3
 72
14
 73
10
 74
8
 42
0.0000001
 43
0.0000001
 44
0.0000000001
 12
0.1442757118
 22
0.2708049707
 32
0.0
 13
-0.1442757118
 23
0.2708049707
 33
0.0
 40
0.0
 40
0.0
 40
0.0
 40
0.0
 40
0.1539652166
 40
0.2964780264
 40
0.4328366592
 40
0.567267274
 40
0.7036195666
 40
0.846074992
 40
1.0
 40
1.0
 40
1.0
 40
1.0
 10
4.9245870114
 20
4.5541286231
 30
0.0
 10
4.9319914918
 20
4.5680268051
 30
0.0
 10
4.9450306209
 20
4.595481145
 30
0.0
 10
4.9589995726
 20
4.6376309281
 30
0.0
 10
4.9661636573
 20
4.6794801314
 30
0.0
 10
4.9661608546
 20
4.7213290949
 30
0.0
 10
4.9589928812
 20
4.7631709324
 30
0.0
 10
4.9450247017
 20
4.8053095692
 30
0.0
 10
4.9319895581
 20
4.8327546896
 30
0.0
 10
4.9245870114
 20
4.8466492421
 30
0.0
 11
4.9245870114
 21
4.5541286231
 31
0.0
 11
4.944598246
 21
4.5969237469
 31
0.0
 11
4.9581101768
 21
4.6385124644
 31
0.0
 11
4.9650063851
 21
4.6797805161
 31
0.0
 11
4.9650036942
 21
4.7210292119
 31
0.0
 11
4.9581029472
 21
4.7622945326
 31
0.0
 11
4.9445936691
 21
4.8038655979
 31
0.0
 11
4.9245870114
 21
4.8466492421
 31
0.0
  0
SPLINE
  5
452
100
AcDbEntity
  8
0
100
AcDbSpline
 62
7
  6
CONTINUOUS
 70
0
 71
3
 72
14
 73
10
 74
8
 42
0.0000001
 43
0.0000001
 44
0.0000000001
 12
-0.1442757118
 22
0.2708049707
 32
0.0
 13
0.1442757118
 23
0.2708049707
 33
0.0
 40
0.0
 40
0.0
 40
0.0
 40
0.0
 40
0.1539652166
 40
0.2964780264
 40
0.4328366592
 40
0.567267274
 40
0.7036195666
 40
0.846074992
 40
1.0
 40
1.0
 40
1.0
 40
1.0
 10
4.3376233085
 20
3.5798786231
 30
0.0
 10
4.3302188281
 20
3.5937768051
 30
0.0
 10
4.3171796989
 20
3.621231145
 30
0.0
 10
4.3032107472
 20
3.6633809281
 30
0.0
 10
4.2960466626
 20
3.7052301314
 30
0.0
 10
4.2960494652
 20
3.7470790949
 30
0.0
 10
4.3032174386
 20
3.7889209324
 30
0.0
 10
4.3171856181
 20
3.8310595692
 30
0.0
 10
4.3302207618
 20
3.8585046896
 30
0.0
 10
4.3376233085
 20
3.8723992421
 30
0.0
 11
4.3376233085
 21
3.5798786231
 31
0.0
 11
4.3176120738
 21
3.6226737469
 31
0.0
 11
4.304100143
 21
3.6642624644
 31
0.0
 11
4.2972039347
 21
3.7055305161
 31
0.0
 11
4.2972066256
 21
3.7467792119
 31
0.0
 11
4.3041073726
 21
3.7880445326
 31
0.0
 11
4.3176166507
 21
3.8296155979
 31
0.0
 11
4.3376233085
 21
3.8723992421
 31
0.0
  0
ENDSEC
  0
SECTION
  2
OBJECTS
  0
DICTIONARY
  5
C
100
AcDbDictionary
280
0
281
1
  3
ACAD_GROUP
350
D
  3
ACAD_MLINESTYLE
350
17
  3
ACAD_LAYOUT
350
1A
  3
ACAD_PLOTSETTINGS
350
19
  3
ACAD_PLOTSTYLENAME
350
E
  0
DICTIONARY
  5
D
102
{ACAD_REACTORS
330
C
102
}
100
AcDbDictionary
280
0
281
1
  0
ACDBDICTIONARYWDFLT
  5
E
102
{ACAD_REACTORS
330
C
102
}
100
AcDbDictionary
281
1
  3
Normal
350
F
100
AcDbDictionaryWithDefault
340
F
  0
DICTIONARY
  5
17
102
{ACAD_REACTORS
330
C
102
}
100
AcDbDictionary
280
0
281
1
  3
Standard
350
18
  0
DICTIONARY
  5
19
102
{ACAD_REACTORS
330
C
102
}
100
AcDbDictionary
281
1
  0
DICTIONARY
  5
1A
102
{ACAD_REACTORS
330
C
102
}
100
AcDbDictionary
281
1
  3
Layout1
350
1E
  3
Model
350
22
  0
ACDBPLACEHOLDER
  5
F
102
{ACAD_REACTORS
330
E
102
}
  0
MLINESTYLE
  5
18
102
{ACAD_REACTORS
330
17
102
}
100
AcDbMlineStyle
  2
STANDARD
 70
0
  3

 62
256
 51
90.0
 52
90.0
 71
2
 49
0.5
 62
256
  6
BYLAYER
 49
-0.5
 62
256
  6
BYLAYER
  0
LAYOUT
  5
1E
102
{ACAD_REACTORS
330
1A
102
}
100
AcDbPlotSettings
  1

  2

  4

  6

 40
0.0
 41
0.0
 42
0.0
 43
0.0
 44
0.0
 45
0.0
 46
0.0
 47
0.0
 48
0.0
 49
0.0
140
0.0
141
0.0
142
1.0
143
1.0
 70
0
 72
0
 73
0
 74
0
  7

 75
0
147
1.0
148
0.0
149
0.0
100
AcDbLayout
  1
Layout1
 70
0
 71
0
 10
0.0
 20
0.0
 11
0.0
 21
0.0
 12
0.0
 22
0.0
 32
0.0
 14
0.0
 24
0.0
 34
0.0
 15
0.0
 25
0.0
 35
0.0
146
0.0
 13
0.0
 23
0.0
 33
0.0
 16
0.0
 26
0.0
 36
0.0
 17
0.0
 27
0.0
 37
0.0
 76
0
330
1B
331
0
345
0
346
0
  0
LAYOUT
  5
22
102
{ACAD_REACTORS
330
1A
102
}
100
AcDbPlotSettings
  1

  2

  4

  6

 40
0.0
 41
0.0
 42
0.0
 43
0.0
 44
0.0
 45
0.0
 46
0.0
 47
0.0
 48
0.0
 49
0.0
140
0.0
141
0.0
142
1.0
143
1.0
 70
0
 72
0
 73
0
 74
0
  7

 75
0
147
1.0
148
0.0
149
0.0
100
AcDbLayout
  1
Model
 70
0
 71
0
 10
0.0
 20
0.0
 11
0.0
 21
0.0
 12
0.0
 22
0.0
 32
0.0
 14
0.0
 24
0.0
 34
0.0
 15
0.0
 25
0.0
 35
0.0
146
0.0
 13
0.0
 23
0.0
 33
0.0
 16
0.0
 26
0.0
 36
0.0
 17
0.0
 27
0.0
 37
0.0
 76
0
330
1F
331
0
345
0
346
0
  0
ENDSEC
  0
EOF
