999
DXF file: CKEH-VDN.dxf
999
Pro/ENGINEER 2006240 by Parametric Technology Corporation
  0
SECTION
  2
HEADER
  9
$ACADVER
  1
AC1015
  9
$DWGCODEPAGE
  3
ANSI_1252
  9
$EXTMAX
 10
11.0
 20
8.5
 30
0.0
  9
$EXTMIN
 10
0.0
 20
-0.0
 30
0.0
  9
$LIMMIN
 10
0.0
 20
-0.0
  9
$LIMMAX
 10
11.0
 20
8.5
  9
$VIEWCTR
 10
5.5
 20
4.25
  9
$VIEWSIZE
 40
8.5
  9
$CLAYER
  8
0
  9
$LTSCALE
 40
0.605
  9
$CELTYPE
  6
BYLAYER
  9
$DIMSCALE
 40
1.0
  9
$DIMASZ
 40
0.1875
  9
$DIMEXO
 40
0.06875
  9
$DIMDLI
 40
0.418
  9
$DIMEXE
 40
0.198
  9
$DIMCEN
 40
0.099
  9
$DIMLFAC
 40
1.0
  9
$DIMBLK
  1
_CLOSED
  9
$DIMTXT
 40
0.15625
  9
$DIMTOL
 70
0
  9
$DIMLIM
 70
0
  9
$DIMTFAC
 40
1.0
  9
$PDMODE
 70
3
  9
$PDSIZE
 40
0.3125
  9
$HANDSEED
  5
421
  9
$MEASUREMENT
 70
0
  9
$INSUNITS
 70
1
  0
ENDSEC
  0
SECTION
  2
CLASSES
  0
CLASS
  1
ACDBDICTIONARYWDFLT
  2
AcDbDictionaryWithDefault
  3
AutoCAD 2000
 90
0
280
0
281
0
  0
CLASS
  1
ACDBPLACEHOLDER
  2
AcDbPlaceHolder
  3
AutoCAD 2000
 90
0
280
0
281
0
  0
CLASS
  1
LAYOUT
  2
AcDbLayout
  3
AutoCAD 2000
 90
0
280
0
281
0
  0
ENDSEC
  0
SECTION
  2
TABLES
  0
TABLE
  2
VPORT
  5
8
100
AcDbSymbolTable
 70
2
  0
VPORT
  5
1F4
100
AcDbSymbolTableRecord
100
AcDbViewportTableRecord
  2
*ACTIVE
 70
0
 10
0.0
 20
0.0
 11
1.0
 21
1.0
 12
5.5
 22
4.25
 13
0.0
 23
0.0
 14
1.0
 24
1.0
 15
0.0
 25
0.0
 16
0.0
 26
0.0
 36
1.0
 17
0.0
 27
0.0
 37
0.0
 40
8.5
 41
1.2941176471
 42
50.0
 43
0.0
 44
0.0
 50
0.0
 51
0.0
 71
0
 72
100
 73
1
 74
1
 75
0
 76
0
 77
0
 78
0
  0
ENDTAB
  0
TABLE
  2
LTYPE
  5
5
100
AcDbSymbolTable
 70
6
  0
LTYPE
  5
14
100
AcDbSymbolTableRecord
100
AcDbLinetypeTableRecord
  2
BYBLOCK
 70
0
  3

 72
65
 73
0
 40
0.0
  0
LTYPE
  5
15
100
AcDbSymbolTableRecord
100
AcDbLinetypeTableRecord
  2
BYLAYER
 70
0
  3

 72
65
 73
0
 40
0.0
  0
LTYPE
  5
16
100
AcDbSymbolTableRecord
100
AcDbLinetypeTableRecord
  2
CONTINUOUS
 70
64
  3
Solid line
 72
65
 73
0
 40
0.0
  0
LTYPE
  5
1F5
100
AcDbSymbolTableRecord
100
AcDbLinetypeTableRecord
  2
CENTER
 70
64
  3
____ _ ____ _ ____ _ ____ _ ____ _ ____ _ ____
 72
65
 73
4
 40
0.6
 49
0.375
 74
0
 49
-0.075
 74
0
 49
0.075
 74
0
 49
-0.075
 74
0
  0
LTYPE
  5
1F6
100
AcDbSymbolTableRecord
100
AcDbLinetypeTableRecord
  2
HIDDEN
 70
64
  3
- - - - - - - - - - - - - - - - - - - -
 72
65
 73
2
 40
0.2
 49
0.1
 74
0
 49
-0.1
 74
0
  0
LTYPE
  5
1F7
100
AcDbSymbolTableRecord
100
AcDbLinetypeTableRecord
  2
PHANTOM
 70
64
  3
_____ _ _ _____ _ _ _____ _ _ _____
 72
65
 73
6
 40
0.8
 49
0.45
 74
0
 49
-0.05
 74
0
 49
0.1
 74
0
 49
-0.05
 74
0
 49
0.1
 74
0
 49
-0.05
 74
0
  0
LTYPE
  5
1F8
100
AcDbSymbolTableRecord
100
AcDbLinetypeTableRecord
  2
DOT
 70
64
  3
. . . . . . . . . . . . . . . . . . . .
 72
65
 73
2
 40
0.2
 49
0.1
 74
0
 49
-0.1
 74
0
  0
LTYPE
  5
1F9
100
AcDbSymbolTableRecord
100
AcDbLinetypeTableRecord
  2
DASHED
 70
64
  3
- - - - - - - - - - - - - - - - - - - -
 72
65
 73
2
 40
0.2
 49
0.1
 74
0
 49
-0.1
 74
0
  0
ENDTAB
  0
TABLE
  2
LAYER
  5
2
100
AcDbSymbolTable
 70
36
  0
LAYER
  5
10
100
AcDbSymbolTableRecord
100
AcDbLayerTableRecord
  2
0
 70
0
 62
7
  6
CONTINUOUS
370
-3
390
F
  0
LAYER
  5
1FA
100
AcDbSymbolTableRecord
100
AcDbLayerTableRecord
  2
DEFAULT_1
 70
0
 62
7
  6
CENTER
370
-3
390
F
  0
LAYER
  5
1FB
100
AcDbSymbolTableRecord
100
AcDbLayerTableRecord
  2
DEFAULT_2
 70
0
 62
8
  6
HIDDEN
370
-3
390
F
  0
LAYER
  5
1FC
100
AcDbSymbolTableRecord
100
AcDbLayerTableRecord
  2
DEFAULT_3
 70
0
 62
7
  6
PHANTOM
370
-3
390
F
  0
LAYER
  5
1FD
100
AcDbSymbolTableRecord
100
AcDbLayerTableRecord
  2
_BLACK_HOLE
 70
0
 62
7
  6
CONTINUOUS
370
-3
390
F
  0
LAYER
  5
1FE
100
AcDbSymbolTableRecord
100
AcDbLayerTableRecord
  2
01_ALL_DTM_PLN
 70
0
 62
7
  6
CONTINUOUS
370
-3
390
F
  0
LAYER
  5
1FF
100
AcDbSymbolTableRecord
100
AcDbLayerTableRecord
  2
01__ASM_ALL_DTM_PLN
 70
0
 62
7
  6
CONTINUOUS
370
-3
390
F
  0
LAYER
  5
200
100
AcDbSymbolTableRecord
100
AcDbLayerTableRecord
  2
01__ASM_DEF_DTM_PLN
 70
0
 62
7
  6
CONTINUOUS
370
-3
390
F
  0
LAYER
  5
201
100
AcDbSymbolTableRecord
100
AcDbLayerTableRecord
  2
01___PRT_ALL_DTM_PLN
 70
0
 62
7
  6
CONTINUOUS
370
-3
390
F
  0
LAYER
  5
202
100
AcDbSymbolTableRecord
100
AcDbLayerTableRecord
  2
01___PRT_DEF_DTM_PLN
 70
0
 62
7
  6
CONTINUOUS
370
-3
390
F
  0
LAYER
  5
203
100
AcDbSymbolTableRecord
100
AcDbLayerTableRecord
  2
02_ALL_AXES
 70
0
 62
7
  6
CONTINUOUS
370
-3
390
F
  0
LAYER
  5
204
100
AcDbSymbolTableRecord
100
AcDbLayerTableRecord
  2
02__ASM_ALL_AXES
 70
0
 62
7
  6
CONTINUOUS
370
-3
390
F
  0
LAYER
  5
205
100
AcDbSymbolTableRecord
100
AcDbLayerTableRecord
  2
02___PRT_ALL_AXES
 70
0
 62
7
  6
CONTINUOUS
370
-3
390
F
  0
LAYER
  5
206
100
AcDbSymbolTableRecord
100
AcDbLayerTableRecord
  2
03_ALL_CURVES
 70
0
 62
7
  6
CONTINUOUS
370
-3
390
F
  0
LAYER
  5
207
100
AcDbSymbolTableRecord
100
AcDbLayerTableRecord
  2
03__ASM_ALL_CURVES
 70
0
 62
7
  6
CONTINUOUS
370
-3
390
F
  0
LAYER
  5
208
100
AcDbSymbolTableRecord
100
AcDbLayerTableRecord
  2
03___PRT_ALL_CURVES
 70
0
 62
7
  6
CONTINUOUS
370
-3
390
F
  0
LAYER
  5
209
100
AcDbSymbolTableRecord
100
AcDbLayerTableRecord
  2
04_ALL_DTM_PNT
 70
0
 62
7
  6
CONTINUOUS
370
-3
390
F
  0
LAYER
  5
20A
100
AcDbSymbolTableRecord
100
AcDbLayerTableRecord
  2
04__ASM_ALL_DTM_PNT
 70
0
 62
7
  6
CONTINUOUS
370
-3
390
F
  0
LAYER
  5
20B
100
AcDbSymbolTableRecord
100
AcDbLayerTableRecord
  2
04___PRT_ALL_DTM_PNT
 70
0
 62
7
  6
CONTINUOUS
370
-3
390
F
  0
LAYER
  5
20C
100
AcDbSymbolTableRecord
100
AcDbLayerTableRecord
  2
05_ALL_DTM_CSYS
 70
0
 62
7
  6
CONTINUOUS
370
-3
390
F
  0
LAYER
  5
20D
100
AcDbSymbolTableRecord
100
AcDbLayerTableRecord
  2
05__ASM_ALL_DTM_CSYS
 70
0
 62
7
  6
CONTINUOUS
370
-3
390
F
  0
LAYER
  5
20E
100
AcDbSymbolTableRecord
100
AcDbLayerTableRecord
  2
05__ASM_DEF_DTM_CSYS
 70
0
 62
7
  6
CONTINUOUS
370
-3
390
F
  0
LAYER
  5
20F
100
AcDbSymbolTableRecord
100
AcDbLayerTableRecord
  2
05___PRT_ALL_DTM_CSYS
 70
0
 62
7
  6
CONTINUOUS
370
-3
390
F
  0
LAYER
  5
210
100
AcDbSymbolTableRecord
100
AcDbLayerTableRecord
  2
05___PRT_DEF_DTM_CSYS
 70
0
 62
7
  6
CONTINUOUS
370
-3
390
F
  0
LAYER
  5
211
100
AcDbSymbolTableRecord
100
AcDbLayerTableRecord
  2
06_ALL_SURFS
 70
0
 62
7
  6
CONTINUOUS
370
-3
390
F
  0
LAYER
  5
212
100
AcDbSymbolTableRecord
100
AcDbLayerTableRecord
  2
06__ASM_ALL_SURFS
 70
0
 62
7
  6
CONTINUOUS
370
-3
390
F
  0
LAYER
  5
213
100
AcDbSymbolTableRecord
100
AcDbLayerTableRecord
  2
06___PRT_ALL_SURFS
 70
0
 62
7
  6
CONTINUOUS
370
-3
390
F
  0
LAYER
  5
214
100
AcDbSymbolTableRecord
100
AcDbLayerTableRecord
  2
07__ASM_ALL_SKELETONS
 70
0
 62
7
  6
CONTINUOUS
370
-3
390
F
  0
LAYER
  5
215
100
AcDbSymbolTableRecord
100
AcDbLayerTableRecord
  2
125-021_FEATURES
 70
0
 62
7
  6
CONTINUOUS
370
-3
390
F
  0
LAYER
  5
216
100
AcDbSymbolTableRecord
100
AcDbLayerTableRecord
  2
125-021_REF_GEOMETRY
 70
0
 62
7
  6
CONTINUOUS
370
-3
390
F
  0
LAYER
  5
217
100
AcDbSymbolTableRecord
100
AcDbLayerTableRecord
  2
125-089_FEATURES
 70
0
 62
7
  6
CONTINUOUS
370
-3
390
F
  0
LAYER
  5
218
100
AcDbSymbolTableRecord
100
AcDbLayerTableRecord
  2
125-089_REF_GEOMETRY
 70
0
 62
7
  6
CONTINUOUS
370
-3
390
F
  0
LAYER
  5
219
100
AcDbSymbolTableRecord
100
AcDbLayerTableRecord
  2
125-094_FEATURES
 70
0
 62
7
  6
CONTINUOUS
370
-3
390
F
  0
LAYER
  5
21A
100
AcDbSymbolTableRecord
100
AcDbLayerTableRecord
  2
125-094_REF_GEOMETRY
 70
0
 62
7
  6
CONTINUOUS
370
-3
390
F
  0
LAYER
  5
21B
100
AcDbSymbolTableRecord
100
AcDbLayerTableRecord
  2
127-310_FEATURES
 70
0
 62
7
  6
CONTINUOUS
370
-3
390
F
  0
LAYER
  5
21C
100
AcDbSymbolTableRecord
100
AcDbLayerTableRecord
  2
127-310_REF_GEOMETRY
 70
0
 62
7
  6
CONTINUOUS
370
-3
390
F
  0
LAYER
  5
21D
100
AcDbSymbolTableRecord
100
AcDbLayerTableRecord
  2
127-311_FEATURES
 70
0
 62
7
  6
CONTINUOUS
370
-3
390
F
  0
LAYER
  5
21E
100
AcDbSymbolTableRecord
100
AcDbLayerTableRecord
  2
127-311_REF_GEOMETRY
 70
0
 62
7
  6
CONTINUOUS
370
-3
390
F
  0
LAYER
  5
21F
100
AcDbSymbolTableRecord
100
AcDbLayerTableRecord
  2
127-312_FEATURES
 70
0
 62
7
  6
CONTINUOUS
370
-3
390
F
  0
LAYER
  5
220
100
AcDbSymbolTableRecord
100
AcDbLayerTableRecord
  2
127-312_REF_GEOMETRY
 70
0
 62
7
  6
CONTINUOUS
370
-3
390
F
  0
LAYER
  5
221
100
AcDbSymbolTableRecord
100
AcDbLayerTableRecord
  2
COPY_GEO_FET
 70
0
 62
7
  6
CONTINUOUS
370
-3
390
F
  0
LAYER
  5
222
100
AcDbSymbolTableRecord
100
AcDbLayerTableRecord
  2
COSMETIC
 70
0
 62
7
  6
CONTINUOUS
370
-3
390
F
  0
LAYER
  5
223
100
AcDbSymbolTableRecord
100
AcDbLayerTableRecord
  2
CURVES
 70
0
 62
7
  6
CONTINUOUS
370
-3
390
F
  0
LAYER
  5
224
100
AcDbSymbolTableRecord
100
AcDbLayerTableRecord
  2
CUT_REF_SURF
 70
0
 62
7
  6
CONTINUOUS
370
-3
390
F
  0
LAYER
  5
225
100
AcDbSymbolTableRecord
100
AcDbLayerTableRecord
  2
DATUM
 70
0
 62
7
  6
CONTINUOUS
370
-3
390
F
  0
LAYER
  5
226
100
AcDbSymbolTableRecord
100
AcDbLayerTableRecord
  2
DATUMCURVES
 70
0
 62
7
  6
CONTINUOUS
370
-3
390
F
  0
LAYER
  5
227
100
AcDbSymbolTableRecord
100
AcDbLayerTableRecord
  2
DIMENSIONS
 70
0
 62
7
  6
CONTINUOUS
370
-3
390
F
  0
LAYER
  5
228
100
AcDbSymbolTableRecord
100
AcDbLayerTableRecord
  2
DRAWINGNOTES
 70
0
 62
7
  6
CONTINUOUS
370
-3
390
F
  0
LAYER
  5
229
100
AcDbSymbolTableRecord
100
AcDbLayerTableRecord
  2
DTM
 70
0
 62
7
  6
CONTINUOUS
370
-3
390
F
  0
LAYER
  5
22A
100
AcDbSymbolTableRecord
100
AcDbLayerTableRecord
  2
DTM230
 70
0
 62
7
  6
CONTINUOUS
370
-3
390
F
  0
LAYER
  5
22B
100
AcDbSymbolTableRecord
100
AcDbLayerTableRecord
  2
DTM_500001
 70
0
 62
7
  6
CONTINUOUS
370
-3
390
F
  0
LAYER
  5
22C
100
AcDbSymbolTableRecord
100
AcDbLayerTableRecord
  2
DTM_500002
 70
0
 62
7
  6
CONTINUOUS
370
-3
390
F
  0
LAYER
  5
22D
100
AcDbSymbolTableRecord
100
AcDbLayerTableRecord
  2
DTM_515002
 70
0
 62
7
  6
CONTINUOUS
370
-3
390
F
  0
LAYER
  5
22E
100
AcDbSymbolTableRecord
100
AcDbLayerTableRecord
  2
DTM_525001
 70
0
 62
7
  6
CONTINUOUS
370
-3
390
F
  0
LAYER
  5
22F
100
AcDbSymbolTableRecord
100
AcDbLayerTableRecord
  2
DTM_530-102
 70
0
 62
7
  6
CONTINUOUS
370
-3
390
F
  0
LAYER
  5
230
100
AcDbSymbolTableRecord
100
AcDbLayerTableRecord
  2
DTM_SPRING_LH
 70
0
 62
7
  6
CONTINUOUS
370
-3
390
F
  0
LAYER
  5
231
100
AcDbSymbolTableRecord
100
AcDbLayerTableRecord
  2
DTM_SPRING_RH
 70
0
 62
7
  6
CONTINUOUS
370
-3
390
F
  0
LAYER
  5
232
100
AcDbSymbolTableRecord
100
AcDbLayerTableRecord
  2
DTM_SP_LH_CONSTR
 70
0
 62
7
  6
CONTINUOUS
370
-3
390
F
  0
LAYER
  5
233
100
AcDbSymbolTableRecord
100
AcDbLayerTableRecord
  2
DTM_SP_RH_CONSTR
 70
0
 62
7
  6
CONTINUOUS
370
-3
390
F
  0
LAYER
  5
234
100
AcDbSymbolTableRecord
100
AcDbLayerTableRecord
  2
GEOMETRICTOLERANCES
 70
0
 62
7
  6
CONTINUOUS
370
-3
390
F
  0
LAYER
  5
235
100
AcDbSymbolTableRecord
100
AcDbLayerTableRecord
  2
PARAMETERDIMENSIONS
 70
0
 62
7
  6
CONTINUOUS
370
-3
390
F
  0
LAYER
  5
236
100
AcDbSymbolTableRecord
100
AcDbLayerTableRecord
  2
PART
 70
0
 62
7
  6
CONTINUOUS
370
-3
390
F
  0
LAYER
  5
237
100
AcDbSymbolTableRecord
100
AcDbLayerTableRecord
  2
PLANE
 70
0
 62
7
  6
CONTINUOUS
370
-3
390
F
  0
LAYER
  5
238
100
AcDbSymbolTableRecord
100
AcDbLayerTableRecord
  2
S-151_METRIC_ORING_BOSS_PORT
 70
0
 62
7
  6
CONTINUOUS
370
-3
390
F
  0
LAYER
  5
239
100
AcDbSymbolTableRecord
100
AcDbLayerTableRecord
  2
S-164_NPTF_PORT
 70
0
 62
7
  6
CONTINUOUS
370
-3
390
F
  0
LAYER
  5
23A
100
AcDbSymbolTableRecord
100
AcDbLayerTableRecord
  2
S-186_BSPP_PORT
 70
0
 62
7
  6
CONTINUOUS
370
-3
390
F
  0
LAYER
  5
23B
100
AcDbSymbolTableRecord
100
AcDbLayerTableRecord
  2
SUN_STD_SAE-4_PORT
 70
0
 62
7
  6
CONTINUOUS
370
-3
390
F
  0
LAYER
  5
23C
100
AcDbSymbolTableRecord
100
AcDbLayerTableRecord
  2
T-8A_CAVITY
 70
0
 62
7
  6
CONTINUOUS
370
-3
390
F
  0
LAYER
  5
23D
100
AcDbSymbolTableRecord
100
AcDbLayerTableRecord
  2
T-8A_CAVITY-INCOMPLETE
 70
0
 62
7
  6
CONTINUOUS
370
-3
390
F
  0
LAYER
  5
23E
100
AcDbSymbolTableRecord
100
AcDbLayerTableRecord
  2
T-8A_CAVITY-INCOMPLETE_REF_GEOM
 70
0
 62
7
  6
CONTINUOUS
370
-3
390
F
  0
LAYER
  5
23F
100
AcDbSymbolTableRecord
100
AcDbLayerTableRecord
  2
T-8A_CAVITY_REF_GEOMETRY
 70
0
 62
7
  6
CONTINUOUS
370
-3
390
F
  0
LAYER
  5
240
100
AcDbSymbolTableRecord
100
AcDbLayerTableRecord
  2
TEXT
 70
0
 62
7
  6
CONTINUOUS
370
-3
390
F
  0
LAYER
  5
241
100
AcDbSymbolTableRecord
100
AcDbLayerTableRecord
  2
THREAD
 70
0
 62
7
  6
CONTINUOUS
370
-3
390
F
  0
ENDTAB
  0
TABLE
  2
STYLE
  5
3
100
AcDbSymbolTable
 70
1
  0
STYLE
  5
11
100
AcDbSymbolTableRecord
100
AcDbTextStyleTableRecord
  2
STANDARD
 70
0
 40
0.0
 41
0.8
 50
0.0
 71
0
 42
0.2
  3
txt
  4

  0
ENDTAB
  0
TABLE
  2
VIEW
  5
6
100
AcDbSymbolTable
 70
0
  0
ENDTAB
  0
TABLE
  2
UCS
  5
7
100
AcDbSymbolTable
 70
0
  0
ENDTAB
  0
TABLE
  2
APPID
  5
9
100
AcDbSymbolTable
 70
1
  0
APPID
  5
242
100
AcDbSymbolTableRecord
100
AcDbRegAppTableRecord
  2
ACAD
 70
0
  0
ENDTAB
  0
TABLE
  2
BLOCK_RECORD
  5
1
100
AcDbSymbolTable
 70
0
  0
BLOCK_RECORD
  5
1F
100
AcDbSymbolTableRecord
100
AcDbBlockTableRecord
  2
*MODEL_SPACE
  0
BLOCK_RECORD
  5
1B
100
AcDbSymbolTableRecord
100
AcDbBlockTableRecord
  2
*PAPER_SPACE
  0
ENDTAB
  0
TABLE
  2
DIMSTYLE
  5
A
100
AcDbSymbolTable
 70
1
100
AcDbDimStyleTable
 71
0
  0
DIMSTYLE
105
243
100
AcDbSymbolTableRecord
100
AcDbDimStyleTableRecord
  2
STANDARD
 70
0
  3

  4

 40
1.0
 41
0.1875
 42
0.0625
 43
0.38
 44
0.18
 45
0.0
 46
0.0
 47
0.01
 48
0.01
140
0.15625
141
0.09
142
0.0
143
25.4
144
1.0
145
0.0
146
1.0
147
0.09
 71
0.0
 72
0.0
 73
1
 74
1
 75
0
 76
0
 77
0
 78
4
170
0
171
2
172
0
173
0
174
0
175
0
176
0
177
0
178
0
270
2
271
2
272
2
273
2
274
2
275
0
280
0
281
0
282
0
283
1
284
4
285
0
286
0
287
3
288
0
340
11
  0
ENDTAB
  0
ENDSEC
  0
SECTION
  2
BLOCKS
  0
BLOCK
  5
20
100
AcDbEntity
  8
0
100
AcDbBlockBegin
  2
*MODEL_SPACE
 70
0
 10
0.0
 20
0.0
 30
0.0
  3
*MODEL_SPACE
  1

  0
ENDBLK
  5
21
100
AcDbEntity
  8
0
100
AcDbBlockEnd
  0
BLOCK
  5
1C
100
AcDbEntity
  8
0
100
AcDbBlockBegin
  2
*PAPER_SPACE
 70
0
 10
0.0
 20
0.0
 30
0.0
  3
*PAPER_SPACE
  1

  0
ENDBLK
  5
1D
100
AcDbEntity
  8
0
100
AcDbBlockEnd
  0
ENDSEC
  0
SECTION
  2
ENTITIES
  0
LINE
  5
244
100
AcDbEntity
  8
0
100
AcDbLine
 62
7
  6
CONTINUOUS
 10
4.0494805771
 20
3.5934402005
 11
4.0041360746
 21
3.6719791826
  0
LINE
  5
245
100
AcDbEntity
  8
0
100
AcDbLine
 62
7
  6
CONTINUOUS
 10
4.0041360746
 20
3.6719791826
 11
4.0041360746
 21
4.7819791826
  0
LINE
  5
246
100
AcDbEntity
  8
03__ASM_ALL_CURVES
100
AcDbLine
 62
40
  6
CONTINUOUS
 10
4.0041360746
 20
4.7819791826
 11
4.0041360746
 21
5.0801431826
  0
LINE
  5
247
100
AcDbEntity
  8
0
100
AcDbLine
 62
7
  6
CONTINUOUS
 10
4.0497467459
 20
3.5929791826
 11
4.0497467459
 21
3.5935938731
  0
LINE
  5
248
100
AcDbEntity
  8
0
100
AcDbLine
 62
7
  6
CONTINUOUS
 10
4.0497467459
 20
3.8861144921
 11
4.0497467459
 21
3.9344585637
  0
LINE
  5
249
100
AcDbEntity
  8
0
100
AcDbLine
 62
7
  6
CONTINUOUS
 10
4.0497467459
 20
4.5194998015
 11
4.0497467459
 21
4.5678438731
  0
LINE
  5
24A
100
AcDbEntity
  8
0
100
AcDbLine
 62
7
  6
CONTINUOUS
 10
4.0497467459
 20
4.8603644921
 11
4.0497467459
 21
4.8609791826
  0
LINE
  5
24B
100
AcDbEntity
  8
03__ASM_ALL_CURVES
100
AcDbLine
 62
40
  6
CONTINUOUS
 10
4.0867560746
 20
5.0663731826
 11
4.0867560746
 21
5.0388331826
  0
LINE
  5
24C
100
AcDbEntity
  8
0
100
AcDbLine
 62
7
  6
CONTINUOUS
 10
4.0494805771
 20
4.8605181647
 11
4.0041360746
 21
4.7819791826
  0
LINE
  5
24D
100
AcDbEntity
  8
03__ASM_ALL_CURVES
100
AcDbLine
 62
40
  6
CONTINUOUS
 10
4.3473860746
 20
5.1489931826
 11
4.3473860746
 21
5.0801431826
  0
LINE
  5
24E
100
AcDbEntity
  8
03__ASM_ALL_CURVES
100
AcDbLine
 62
40
  6
CONTINUOUS
 10
4.5625423246
 20
5.126043184
 11
4.5711485746
 21
5.1489931826
  0
LINE
  5
24F
100
AcDbEntity
  8
03__ASM_ALL_CURVES
100
AcDbLine
 62
40
  6
CONTINUOUS
 10
4.5022985746
 20
5.1317806826
 11
4.4979954496
 21
5.126043184
  0
LINE
  5
250
100
AcDbEntity
  8
03__ASM_ALL_CURVES
100
AcDbLine
 62
40
  6
CONTINUOUS
 10
4.5066016996
 20
5.0973556826
 11
4.4979954496
 21
5.0858806828
  0
LINE
  5
251
100
AcDbEntity
  8
03__ASM_ALL_CURVES
100
AcDbLine
 62
40
  6
CONTINUOUS
 10
4.6270891996
 20
5.1489931826
 11
4.6184829496
 21
5.1375181812
  0
LINE
  5
252
100
AcDbEntity
  8
03__ASM_ALL_CURVES
100
AcDbLine
 62
40
  6
CONTINUOUS
 10
4.4721766996
 20
5.143255684
 11
4.4807829496
 21
5.1489931826
  0
LINE
  5
253
100
AcDbEntity
  8
03__ASM_ALL_CURVES
100
AcDbLine
 62
40
  6
CONTINUOUS
 10
4.4119329496
 20
5.0801431826
 11
4.4119329496
 21
5.0858806828
  0
LINE
  5
254
100
AcDbEntity
  8
03__ASM_ALL_CURVES
100
AcDbLine
 62
40
  6
CONTINUOUS
 10
4.5539360746
 20
5.0801431826
 11
4.5582391996
 21
5.1088306819
  0
LINE
  5
255
100
AcDbEntity
  8
03__ASM_ALL_CURVES
100
AcDbLine
 62
40
  6
CONTINUOUS
 10
4.5582391996
 20
5.1088306819
 11
4.5625423246
 21
5.126043184
  0
LINE
  5
256
100
AcDbEntity
  8
03__ASM_ALL_CURVES
100
AcDbLine
 62
40
  6
CONTINUOUS
 10
4.6184829496
 20
5.1375181812
 11
4.6141798246
 21
5.1203056812
  0
LINE
  5
257
100
AcDbEntity
  8
03__ASM_ALL_CURVES
100
AcDbLine
 62
40
  6
CONTINUOUS
 10
4.7733954496
 20
5.1489931826
 11
4.7432735746
 21
5.0973556826
  0
LINE
  5
258
100
AcDbEntity
  8
03__ASM_ALL_CURVES
100
AcDbLine
 62
40
  6
CONTINUOUS
 10
4.7088485746
 20
5.1317806826
 11
4.7045454496
 21
5.126043184
  0
LINE
  5
259
100
AcDbEntity
  8
03__ASM_ALL_CURVES
100
AcDbLine
 62
40
  6
CONTINUOUS
 10
4.7131516996
 20
5.0973556826
 11
4.7045454496
 21
5.0858806828
  0
LINE
  5
25A
100
AcDbEntity
  8
03__ASM_ALL_CURVES
100
AcDbLine
 62
40
  6
CONTINUOUS
 10
4.4979954496
 20
5.126043184
 11
4.4893891996
 21
5.1203056812
  0
LINE
  5
25B
100
AcDbEntity
  8
03__ASM_ALL_CURVES
100
AcDbLine
 62
40
  6
CONTINUOUS
 10
4.4979954496
 20
5.0858806828
 11
4.4893891996
 21
5.0801431826
  0
LINE
  5
25C
100
AcDbEntity
  8
03__ASM_ALL_CURVES
100
AcDbLine
 62
40
  6
CONTINUOUS
 10
4.6787266996
 20
5.143255684
 11
4.6873329496
 21
5.1489931826
  0
LINE
  5
25D
100
AcDbEntity
  8
03__ASM_ALL_CURVES
100
AcDbLine
 62
40
  6
CONTINUOUS
 10
4.5022985746
 20
5.1375181812
 11
4.5022985746
 21
5.1317806826
  0
LINE
  5
25E
100
AcDbEntity
  8
03__ASM_ALL_CURVES
100
AcDbLine
 62
40
  6
CONTINUOUS
 10
4.5066016996
 20
5.1030931833
 11
4.5066016996
 21
5.0973556826
  0
LINE
  5
25F
100
AcDbEntity
  8
0
100
AcDbLine
 62
7
  6
CONTINUOUS
 10
4.5117104488
 20
3.5929791826
 11
4.5117104488
 21
3.5935938731
  0
LINE
  5
260
100
AcDbEntity
  8
0
100
AcDbLine
 62
7
  6
CONTINUOUS
 10
4.5117104488
 20
3.8861144921
 11
4.5117104488
 21
3.9344585637
  0
LINE
  5
261
100
AcDbEntity
  8
0
100
AcDbLine
 62
7
  6
CONTINUOUS
 10
4.5117104488
 20
4.5194998015
 11
4.5117104488
 21
4.5678438731
  0
LINE
  5
262
100
AcDbEntity
  8
0
100
AcDbLine
 62
7
  6
CONTINUOUS
 10
4.5117104488
 20
4.8603644921
 11
4.5117104488
 21
4.8609791826
  0
LINE
  5
263
100
AcDbEntity
  8
0
100
AcDbLine
 62
7
  6
CONTINUOUS
 10
4.5671360746
 20
3.6889791826
 11
4.5671360746
 21
4.7649791826
  0
LINE
  5
264
100
AcDbEntity
  8
03__ASM_ALL_CURVES
100
AcDbLine
 62
40
  6
CONTINUOUS
 10
4.6141798246
 20
5.1203056812
 11
4.6141798246
 21
5.1088306819
  0
LINE
  5
265
100
AcDbEntity
  8
03__ASM_ALL_CURVES
100
AcDbLine
 62
40
  6
CONTINUOUS
 10
4.9541266996
 20
5.1375181812
 11
4.9584298246
 21
5.143255684
  0
LINE
  5
266
100
AcDbEntity
  8
03__ASM_ALL_CURVES
100
AcDbLine
 62
40
  6
CONTINUOUS
 10
4.7045454496
 20
5.126043184
 11
4.6959391996
 21
5.1203056812
  0
LINE
  5
267
100
AcDbEntity
  8
03__ASM_ALL_CURVES
100
AcDbLine
 62
40
  6
CONTINUOUS
 10
4.7045454496
 20
5.0858806828
 11
4.6959391996
 21
5.0801431826
  0
LINE
  5
268
100
AcDbEntity
  8
03__ASM_ALL_CURVES
100
AcDbLine
 62
40
  6
CONTINUOUS
 10
4.9584298246
 20
5.143255684
 11
4.9670360746
 21
5.1489931826
  0
LINE
  5
269
100
AcDbEntity
  8
03__ASM_ALL_CURVES
100
AcDbLine
 62
40
  6
CONTINUOUS
 10
4.7088485746
 20
5.1375181812
 11
4.7088485746
 21
5.1317806826
  0
LINE
  5
26A
100
AcDbEntity
  8
03__ASM_ALL_CURVES
100
AcDbLine
 62
40
  6
CONTINUOUS
 10
4.7131516996
 20
5.1030931833
 11
4.7131516996
 21
5.0973556826
  0
LINE
  5
26B
100
AcDbEntity
  8
0
100
AcDbLine
 62
7
  6
CONTINUOUS
 10
4.7541360746
 20
3.6889791826
 11
4.7541360746
 21
4.7649791826
  0
LINE
  5
26C
100
AcDbEntity
  8
03__ASM_ALL_CURVES
100
AcDbLine
 62
40
  6
CONTINUOUS
 10
4.9024891996
 20
5.1088306819
 11
4.9067923246
 21
5.126043184
  0
LINE
  5
26D
100
AcDbEntity
  8
03__ASM_ALL_CURVES
100
AcDbLine
 62
40
  6
CONTINUOUS
 10
4.9067923246
 20
5.126043184
 11
4.9153985746
 21
5.1489931826
  0
LINE
  5
26E
100
AcDbEntity
  8
03__ASM_ALL_CURVES
100
AcDbLine
 62
40
  6
CONTINUOUS
 10
4.9498235746
 20
5.126043184
 11
4.9541266996
 21
5.1375181812
  0
LINE
  5
26F
100
AcDbEntity
  8
03__ASM_ALL_CURVES
100
AcDbLine
 62
40
  6
CONTINUOUS
 10
4.9842485746
 20
5.126043184
 11
4.9799454496
 21
5.1145681826
  0
LINE
  5
270
100
AcDbEntity
  8
03__ASM_ALL_CURVES
100
AcDbLine
 62
40
  6
CONTINUOUS
 10
4.9842485746
 20
5.1030931833
 11
4.9799454496
 21
5.0916181829
  0
LINE
  5
271
100
AcDbEntity
  8
03__ASM_ALL_CURVES
100
AcDbLine
 62
40
  6
CONTINUOUS
 10
4.9799454496
 20
5.0916181829
 11
4.9756423246
 21
5.0858806828
  0
LINE
  5
272
100
AcDbEntity
  8
03__ASM_ALL_CURVES
100
AcDbLine
 62
40
  6
CONTINUOUS
 10
5.0401891996
 20
5.0916181829
 11
5.0315829496
 21
5.0801431826
  0
LINE
  5
273
100
AcDbEntity
  8
03__ASM_ALL_CURVES
100
AcDbLine
 62
40
  6
CONTINUOUS
 10
4.9756423246
 20
5.0858806828
 11
4.9670360746
 21
5.0801431826
  0
LINE
  5
274
100
AcDbEntity
  8
03__ASM_ALL_CURVES
100
AcDbLine
 62
40
  6
CONTINUOUS
 10
4.9799454496
 20
5.1145681826
 11
4.9670360746
 21
5.1088306819
  0
LINE
  5
275
100
AcDbEntity
  8
03__ASM_ALL_CURVES
100
AcDbLine
 62
40
  6
CONTINUOUS
 10
5.1726575605
 20
3.4253416826
 11
5.166202873
 21
3.4296448077
  0
LINE
  5
276
100
AcDbEntity
  8
03__ASM_ALL_CURVES
100
AcDbLine
 62
40
  6
CONTINUOUS
 10
5.127474748
 20
3.4769791826
 11
5.1339294355
 21
3.4726760586
  0
LINE
  5
277
100
AcDbEntity
  8
03__ASM_ALL_CURVES
100
AcDbLine
 62
40
  6
CONTINUOUS
 10
4.7733954496
 20
5.0801431826
 11
4.7733954496
 21
5.1489931826
  0
LINE
  5
278
100
AcDbEntity
  8
0
100
AcDbLine
 62
7
  6
CONTINUOUS
 10
4.8041360746
 20
3.6904791826
 11
4.8041360746
 21
4.7634791826
  0
LINE
  5
279
100
AcDbEntity
  8
03__ASM_ALL_CURVES
100
AcDbLine
 62
40
  6
CONTINUOUS
 10
4.8250329496
 20
5.0801431826
 11
4.8250329496
 21
5.0858806828
  0
LINE
  5
27A
100
AcDbEntity
  8
0
100
AcDbLine
 62
7
  6
CONTINUOUS
 10
4.8741360746
 20
4.7444791826
 11
4.8741360746
 21
3.7094791826
  0
LINE
  5
27B
100
AcDbEntity
  8
03__ASM_ALL_CURVES
100
AcDbLine
 62
40
  6
CONTINUOUS
 10
4.8981860746
 20
5.0801431826
 11
4.9024891996
 21
5.1088306819
  0
LINE
  5
27C
100
AcDbEntity
  8
03__ASM_ALL_CURVES
100
AcDbLine
 62
40
  6
CONTINUOUS
 10
5.0444923246
 20
5.1088306819
 11
5.0401891996
 21
5.0916181829
  0
LINE
  5
27D
100
AcDbEntity
  8
03__ASM_ALL_CURVES
100
AcDbLine
 62
40
  6
CONTINUOUS
 10
5.179112248
 20
3.4769791826
 11
5.1855669355
 21
3.4726760586
  0
LINE
  5
27E
100
AcDbEntity
  8
03__ASM_ALL_CURVES
100
AcDbLine
 62
40
  6
CONTINUOUS
 10
5.230749748
 20
3.4769791826
 11
5.2372044355
 21
3.4726760586
  0
LINE
  5
27F
100
AcDbEntity
  8
03__ASM_ALL_CURVES
100
AcDbLine
 62
40
  6
CONTINUOUS
 10
5.3275700605
 20
3.4253416826
 11
5.321115373
 21
3.4296448077
  0
LINE
  5
280
100
AcDbEntity
  8
03__ASM_ALL_CURVES
100
AcDbLine
 62
40
  6
CONTINUOUS
 10
5.334024748
 20
3.4554635566
 11
5.3404794355
 21
3.4511604326
  0
LINE
  5
281
100
AcDbEntity
  8
03__ASM_ALL_CURVES
100
AcDbLine
 62
40
  6
CONTINUOUS
 10
5.334024748
 20
3.4769791826
 11
5.3404794355
 21
3.4726760586
  0
LINE
  5
282
100
AcDbEntity
  8
03__ASM_ALL_CURVES
100
AcDbLine
 62
40
  6
CONTINUOUS
 10
5.166202873
 20
3.4296448077
 11
5.1597481855
 21
3.4382510576
  0
LINE
  5
283
100
AcDbEntity
  8
03__ASM_ALL_CURVES
100
AcDbLine
 62
40
  6
CONTINUOUS
 10
5.1339294355
 20
3.4726760586
 11
5.1371567792
 21
3.4683729316
  0
LINE
  5
284
100
AcDbEntity
  8
03__ASM_ALL_CURVES
100
AcDbLine
 62
40
  6
CONTINUOUS
 10
5.1855669355
 20
3.4726760586
 11
5.192021623
 21
3.4640698076
  0
LINE
  5
285
100
AcDbEntity
  8
03__ASM_ALL_CURVES
100
AcDbLine
 62
40
  6
CONTINUOUS
 10
5.2372044355
 20
3.4726760586
 11
5.2404317792
 21
3.4683729316
  0
LINE
  5
286
100
AcDbEntity
  8
03__ASM_ALL_CURVES
100
AcDbLine
 62
40
  6
CONTINUOUS
 10
4.6141798246
 20
5.1088306819
 11
4.6184829496
 21
5.0916181829
  0
LINE
  5
287
100
AcDbEntity
  8
0
100
AcDbLine
 62
7
  6
CONTINUOUS
 10
4.8951360746
 20
3.6892291826
 11
4.8951360746
 21
4.7647291826
  0
LINE
  5
288
100
AcDbEntity
  8
0
100
AcDbLine
 62
7
  6
CONTINUOUS
 10
4.9401360746
 20
3.6892291826
 11
4.9401360746
 21
4.7647291826
  0
LINE
  5
289
100
AcDbEntity
  8
0
100
AcDbLine
 62
7
  6
CONTINUOUS
 10
4.9615050227
 20
3.7689791826
 11
4.9615050227
 21
4.6849791826
  0
LINE
  5
28A
100
AcDbEntity
  8
03__ASM_ALL_CURVES
100
AcDbLine
 62
40
  6
CONTINUOUS
 10
4.9842485746
 20
5.126043184
 11
4.9842485746
 21
5.1030931833
  0
LINE
  5
28B
100
AcDbEntity
  8
03__ASM_ALL_CURVES
100
AcDbLine
 62
40
  6
CONTINUOUS
 10
5.5624491988
 20
5.143255684
 11
5.5710554488
 21
5.1489931826
  0
LINE
  5
28C
100
AcDbEntity
  8
03__ASM_ALL_CURVES
100
AcDbLine
 62
40
  6
CONTINUOUS
 10
5.6312991988
 20
5.143255684
 11
5.6399054488
 21
5.1489931826
  0
LINE
  5
28D
100
AcDbEntity
  8
03__ASM_ALL_CURVES
100
AcDbLine
 62
40
  6
CONTINUOUS
 10
5.5882679488
 20
5.0858806828
 11
5.5796616988
 21
5.0801431826
  0
LINE
  5
28E
100
AcDbEntity
  8
03__ASM_ALL_CURVES
100
AcDbLine
 62
40
  6
CONTINUOUS
 10
6.2997259394
 20
3.4253416826
 11
6.2932712519
 21
3.4253416826
  0
LINE
  5
28F
100
AcDbEntity
  8
03__ASM_ALL_CURVES
100
AcDbLine
 62
40
  6
CONTINUOUS
 10
5.334024748
 20
3.4253416826
 11
5.3275700605
 21
3.4253416826
  0
LINE
  5
290
100
AcDbEntity
  8
03__ASM_ALL_CURVES
100
AcDbLine
 62
40
  6
CONTINUOUS
 10
5.179112248
 20
3.4253416826
 11
5.1726575605
 21
3.4253416826
  0
LINE
  5
291
100
AcDbEntity
  8
03__ASM_ALL_CURVES
100
AcDbLine
 62
40
  6
CONTINUOUS
 10
6.4385017207
 20
3.4253416826
 11
6.4643204707
 21
3.4253416826
  0
LINE
  5
292
100
AcDbEntity
  8
03__ASM_ALL_CURVES
100
AcDbLine
 62
40
  6
CONTINUOUS
 10
6.3513634394
 20
3.4511604326
 11
6.3352267207
 21
3.4511604326
  0
LINE
  5
293
100
AcDbEntity
  8
03__ASM_ALL_CURVES
100
AcDbLine
 62
40
  6
CONTINUOUS
 10
6.2480884394
 20
3.4511604326
 11
6.2319517207
 21
3.4511604326
  0
LINE
  5
294
100
AcDbEntity
  8
03__ASM_ALL_CURVES
100
AcDbLine
 62
40
  6
CONTINUOUS
 10
5.230749748
 20
3.4511604326
 11
5.2146130292
 21
3.4511604326
  0
LINE
  5
295
100
AcDbEntity
  8
03__ASM_ALL_CURVES
100
AcDbLine
 62
40
  6
CONTINUOUS
 10
5.127474748
 20
3.4511604326
 11
5.1113380292
 21
3.4511604326
  0
LINE
  5
296
100
AcDbEntity
  8
03__ASM_ALL_CURVES
100
AcDbLine
 62
40
  6
CONTINUOUS
 10
5.3275700605
 20
3.4554635566
 11
5.334024748
 21
3.4554635566
  0
LINE
  5
297
100
AcDbEntity
  8
03__ASM_ALL_CURVES
100
AcDbLine
 62
40
  6
CONTINUOUS
 10
5.1113380292
 20
3.4769791826
 11
5.127474748
 21
3.4769791826
  0
LINE
  5
298
100
AcDbEntity
  8
03__ASM_ALL_CURVES
100
AcDbLine
 62
40
  6
CONTINUOUS
 10
5.1726575605
 20
3.4769791826
 11
5.179112248
 21
3.4769791826
  0
LINE
  5
299
100
AcDbEntity
  8
03__ASM_ALL_CURVES
100
AcDbLine
 62
40
  6
CONTINUOUS
 10
5.2146130292
 20
3.4769791826
 11
5.230749748
 21
3.4769791826
  0
LINE
  5
29A
100
AcDbEntity
  8
03__ASM_ALL_CURVES
100
AcDbLine
 62
40
  6
CONTINUOUS
 10
5.2630231855
 20
3.4769791826
 11
5.295296623
 21
3.4769791826
  0
LINE
  5
29B
100
AcDbEntity
  8
03__ASM_ALL_CURVES
100
AcDbLine
 62
40
  6
CONTINUOUS
 10
5.3275700605
 20
3.4769791826
 11
5.334024748
 21
3.4769791826
  0
LINE
  5
29C
100
AcDbEntity
  8
03__ASM_ALL_CURVES
100
AcDbLine
 62
40
  6
CONTINUOUS
 10
6.2319517207
 20
3.4769791826
 11
6.2480884394
 21
3.4769791826
  0
LINE
  5
29D
100
AcDbEntity
  8
03__ASM_ALL_CURVES
100
AcDbLine
 62
40
  6
CONTINUOUS
 10
6.2932712519
 20
3.4769791826
 11
6.2997259394
 21
3.4769791826
  0
LINE
  5
29E
100
AcDbEntity
  8
03__ASM_ALL_CURVES
100
AcDbLine
 62
40
  6
CONTINUOUS
 10
6.3352267207
 20
3.4769791826
 11
6.3513634394
 21
3.4769791826
  0
LINE
  5
29F
100
AcDbEntity
  8
03__ASM_ALL_CURVES
100
AcDbLine
 62
40
  6
CONTINUOUS
 10
6.3836368769
 20
3.4769791826
 11
6.4159103144
 21
3.4769791826
  0
LINE
  5
2A0
100
AcDbEntity
  8
03__ASM_ALL_CURVES
100
AcDbLine
 62
40
  6
CONTINUOUS
 10
6.4481837519
 20
3.4769791826
 11
6.4546384394
 21
3.4769791826
  0
LINE
  5
2A1
100
AcDbEntity
  8
03__ASM_ALL_CURVES
100
AcDbLine
 62
40
  6
CONTINUOUS
 10
5.321115373
 20
3.4296448077
 11
5.3178880292
 21
3.4339479329
  0
LINE
  5
2A2
100
AcDbEntity
  8
03__ASM_ALL_CURVES
100
AcDbLine
 62
40
  6
CONTINUOUS
 10
5.3404794355
 20
3.4511604326
 11
5.346934123
 21
3.4425541831
  0
LINE
  5
2A3
100
AcDbEntity
  8
03__ASM_ALL_CURVES
100
AcDbLine
 62
40
  6
CONTINUOUS
 10
5.3404794355
 20
3.4726760586
 11
5.3437067792
 21
3.4683729316
  0
LINE
  5
2A4
100
AcDbEntity
  8
0
100
AcDbLine
 62
7
  6
CONTINUOUS
 10
4.5671360746
 20
4.7649791826
 11
4.5119766176
 21
4.8605181647
  0
LINE
  5
2A5
100
AcDbEntity
  8
03__ASM_ALL_CURVES
100
AcDbLine
 62
40
  6
CONTINUOUS
 10
5.230749748
 20
3.4511604326
 11
5.2404317792
 21
3.4253416826
  0
LINE
  5
2A6
100
AcDbEntity
  8
03__ASM_ALL_CURVES
100
AcDbLine
 62
40
  6
CONTINUOUS
 10
5.1597481855
 20
3.4382510576
 11
5.1565208417
 21
3.4511604326
  0
LINE
  5
2A7
100
AcDbEntity
  8
03__ASM_ALL_CURVES
100
AcDbLine
 62
40
  6
CONTINUOUS
 10
5.192021623
 20
3.4640698076
 11
5.1952489667
 21
3.4511604326
  0
LINE
  5
2A8
100
AcDbEntity
  8
03__ASM_ALL_CURVES
100
AcDbLine
 62
40
  6
CONTINUOUS
 10
5.0444923246
 20
5.1203056812
 11
5.0444923246
 21
5.1088306819
  0
LINE
  5
2A9
100
AcDbEntity
  8
03__ASM_ALL_CURVES
100
AcDbLine
 62
40
  6
CONTINUOUS
 10
5.1113380292
 20
3.4253416826
 11
5.1113380292
 21
3.4769791826
  0
LINE
  5
2AA
100
AcDbEntity
  8
03__ASM_ALL_CURVES
100
AcDbLine
 62
40
  6
CONTINUOUS
 10
5.1371567792
 20
3.4683729316
 11
5.1371567792
 21
3.4597666836
  0
LINE
  5
2AB
100
AcDbEntity
  8
0
100
AcDbLine
 62
7
  6
CONTINUOUS
 10
4.9615050227
 20
3.7689791826
 11
4.9401360746
 21
3.6892291826
  0
LINE
  5
2AC
100
AcDbEntity
  8
0
100
AcDbLine
 62
7
  6
CONTINUOUS
 10
4.5671360746
 20
3.6889791826
 11
4.5119766176
 21
3.5934402005
  0
LINE
  5
2AD
100
AcDbEntity
  8
03__ASM_ALL_CURVES
100
AcDbLine
 62
40
  6
CONTINUOUS
 10
5.5538429488
 20
5.1317806826
 11
5.5624491988
 21
5.143255684
  0
LINE
  5
2AE
100
AcDbEntity
  8
03__ASM_ALL_CURVES
100
AcDbLine
 62
40
  6
CONTINUOUS
 10
5.5968741988
 20
5.0973556826
 11
5.5882679488
 21
5.0858806828
  0
LINE
  5
2AF
100
AcDbEntity
  8
03__ASM_ALL_CURVES
100
AcDbLine
 62
40
  6
CONTINUOUS
 10
5.6226929488
 20
5.1317806826
 11
5.6312991988
 21
5.143255684
  0
LINE
  5
2B0
100
AcDbEntity
  8
03__ASM_ALL_CURVES
100
AcDbLine
 62
40
  6
CONTINUOUS
 10
5.6571179488
 20
5.0858806828
 11
5.6485116988
 21
5.0801431826
  0
LINE
  5
2B1
100
AcDbEntity
  8
0
100
AcDbLine
 62
7
  6
CONTINUOUS
 10
4.5117104488
 20
3.5929791826
 11
4.0497467459
 21
3.5929791826
  0
LINE
  5
2B2
100
AcDbEntity
  8
0
100
AcDbLine
 62
7
  6
CONTINUOUS
 10
4.5117104488
 20
3.5935938731
 11
4.0497467459
 21
3.5935938731
  0
LINE
  5
2B3
100
AcDbEntity
  8
0
100
AcDbLine
 62
7
  6
CONTINUOUS
 10
4.9615050227
 20
4.6849791826
 11
4.9401360746
 21
4.7647291826
  0
LINE
  5
2B4
100
AcDbEntity
  8
03__ASM_ALL_CURVES
100
AcDbLine
 62
40
  6
CONTINUOUS
 10
5.2146130292
 20
3.4253416826
 11
5.2146130292
 21
3.4769791826
  0
LINE
  5
2B5
100
AcDbEntity
  8
03__ASM_ALL_CURVES
100
AcDbLine
 62
40
  6
CONTINUOUS
 10
5.2404317792
 20
3.4683729316
 11
5.2404317792
 21
3.4597666836
  0
LINE
  5
2B6
100
AcDbEntity
  8
03__ASM_ALL_CURVES
100
AcDbLine
 62
40
  6
CONTINUOUS
 10
5.2791599042
 20
3.4769791826
 11
5.2791599042
 21
3.4253416826
  0
LINE
  5
2B7
100
AcDbEntity
  8
0
100
AcDbLine
 62
7
  6
CONTINUOUS
 10
5.3141360746
 20
4.7649791826
 11
5.2927001392
 21
4.6849791826
  0
LINE
  5
2B8
100
AcDbEntity
  8
03__ASM_ALL_CURVES
100
AcDbLine
 62
40
  6
CONTINUOUS
 10
5.6614210738
 20
5.0916181829
 11
5.6571179488
 21
5.0858806828
  0
LINE
  5
2B9
100
AcDbEntity
  8
03__ASM_ALL_CURVES
100
AcDbLine
 62
40
  6
CONTINUOUS
 10
5.9755491988
 20
5.143255684
 11
5.9841554488
 21
5.1489931826
  0
LINE
  5
2BA
100
AcDbEntity
  8
03__ASM_ALL_CURVES
100
AcDbLine
 62
40
  6
CONTINUOUS
 10
6.0013679488
 20
5.0858806828
 11
5.9927616988
 21
5.0801431826
  0
LINE
  5
2BB
100
AcDbEntity
  8
03__ASM_ALL_CURVES
100
AcDbLine
 62
40
  6
CONTINUOUS
 10
6.1218554488
 20
5.1489931826
 11
6.1132491988
 21
5.143255684
  0
LINE
  5
2BC
100
AcDbEntity
  8
0
100
AcDbLine
 62
7
  6
CONTINUOUS
 10
5.3791360746
 20
3.6889791826
 11
5.3141360746
 21
3.6889791826
  0
LINE
  5
2BD
100
AcDbEntity
  8
0
100
AcDbLine
 62
7
  6
CONTINUOUS
 10
4.7541360746
 20
3.6889791826
 11
4.5671360746
 21
3.6889791826
  0
LINE
  5
2BE
100
AcDbEntity
  8
0
100
AcDbLine
 62
7
  6
CONTINUOUS
 10
4.9401360746
 20
3.6892291826
 11
4.8951360746
 21
3.6892291826
  0
LINE
  5
2BF
100
AcDbEntity
  8
0
100
AcDbLine
 62
7
  6
CONTINUOUS
 10
4.7541360746
 20
3.6904791826
 11
4.8041360746
 21
3.6904791826
  0
LINE
  5
2C0
100
AcDbEntity
  8
THREAD
100
AcDbLine
 62
7
  6
CONTINUOUS
 10
5.4261360746
 20
3.7124791826
 11
5.3947245319
 21
3.7124791826
  0
LINE
  5
2C1
100
AcDbEntity
  8
0
100
AcDbLine
 62
7
  6
CONTINUOUS
 10
5.4961360746
 20
3.7149791826
 11
5.5461360746
 21
3.7149791826
  0
LINE
  5
2C2
100
AcDbEntity
  8
THREAD
100
AcDbLine
 62
7
  6
CONTINUOUS
 10
5.8601360746
 20
3.7309791826
 11
5.5890753849
 21
3.7309791826
  0
LINE
  5
2C3
100
AcDbEntity
  8
0
100
AcDbLine
 62
7
  6
CONTINUOUS
 10
4.8951360746
 20
3.7444791826
 11
4.8741360746
 21
3.7444791826
  0
LINE
  5
2C4
100
AcDbEntity
  8
THREAD
100
AcDbLine
 62
7
  6
CONTINUOUS
 10
5.5599191963
 20
3.7689791826
 11
5.5461360746
 21
3.7689791826
  0
LINE
  5
2C5
100
AcDbEntity
  8
0
100
AcDbLine
 62
7
  6
CONTINUOUS
 10
5.2488595188
 20
3.7689791826
 11
4.9615050227
 21
3.7689791826
  0
LINE
  5
2C6
100
AcDbEntity
  8
03__ASM_ALL_CURVES
100
AcDbLine
 62
40
  6
CONTINUOUS
 10
4.4119329496
 20
5.0858806828
 11
4.4162360746
 21
5.0801431826
  0
LINE
  5
2C7
100
AcDbEntity
  8
03__ASM_ALL_CURVES
100
AcDbLine
 62
40
  6
CONTINUOUS
 10
4.4721766996
 20
5.0858806828
 11
4.4678735746
 21
5.0916181829
  0
LINE
  5
2C8
100
AcDbEntity
  8
03__ASM_ALL_CURVES
100
AcDbLine
 62
40
  6
CONTINUOUS
 10
4.4979954496
 20
5.1145681826
 11
4.5066016996
 21
5.1030931833
  0
LINE
  5
2C9
100
AcDbEntity
  8
03__ASM_ALL_CURVES
100
AcDbLine
 62
40
  6
CONTINUOUS
 10
4.4979954496
 20
5.143255684
 11
4.5022985746
 21
5.1375181812
  0
LINE
  5
2CA
100
AcDbEntity
  8
0
100
AcDbLine
 62
7
  6
CONTINUOUS
 10
5.3141360746
 20
3.6889791826
 11
5.3019647525
 21
3.7344031754
  0
LINE
  5
2CB
100
AcDbEntity
  8
03__ASM_ALL_CURVES
100
AcDbLine
 62
40
  6
CONTINUOUS
 10
5.0401891996
 20
5.1375181812
 11
5.0444923246
 21
5.1203056812
  0
LINE
  5
2CC
100
AcDbEntity
  8
127-310_FEATURES
100
AcDbLine
 62
7
  6
CONTINUOUS
 10
5.2927001392
 20
3.7700289107
 11
5.2927001392
 21
4.6849791826
  0
LINE
  5
2CD
100
AcDbEntity
  8
03__ASM_ALL_CURVES
100
AcDbLine
 62
40
  6
CONTINUOUS
 10
5.2965160746
 20
5.0663731826
 11
5.2965160746
 21
5.0388331826
  0
LINE
  5
2CE
100
AcDbEntity
  8
0
100
AcDbLine
 62
7
  6
CONTINUOUS
 10
5.3141360746
 20
3.6889791826
 11
5.3141360746
 21
4.7649791826
  0
LINE
  5
2CF
100
AcDbEntity
  8
03__ASM_ALL_CURVES
100
AcDbLine
 62
40
  6
CONTINUOUS
 10
5.3437067792
 20
3.4683729316
 11
5.3437067792
 21
3.4640698076
  0
LINE
  5
2D0
100
AcDbEntity
  8
03__ASM_ALL_CURVES
100
AcDbLine
 62
40
  6
CONTINUOUS
 10
5.346934123
 20
3.4425541831
 11
5.346934123
 21
3.4382510576
  0
LINE
  5
2D1
100
AcDbEntity
  8
0
100
AcDbLine
 62
7
  6
CONTINUOUS
 10
5.3791360746
 20
3.6889791826
 11
5.3791360746
 21
4.7649791826
  0
LINE
  5
2D2
100
AcDbEntity
  8
03__ASM_ALL_CURVES
100
AcDbLine
 62
40
  6
CONTINUOUS
 10
5.3791360746
 20
4.7787491826
 11
5.3791360746
 21
5.0801431826
  0
LINE
  5
2D3
100
AcDbEntity
  8
THREAD
100
AcDbLine
 62
7
  6
CONTINUOUS
 10
5.3947245319
 20
3.7124791826
 11
5.3947245319
 21
4.7414791826
  0
LINE
  5
2D4
100
AcDbEntity
  8
03__ASM_ALL_CURVES
100
AcDbLine
 62
40
  6
CONTINUOUS
 10
5.5495398238
 20
5.1145681826
 11
5.5538429488
 21
5.1317806826
  0
LINE
  5
2D5
100
AcDbEntity
  8
03__ASM_ALL_CURVES
100
AcDbLine
 62
40
  6
CONTINUOUS
 10
5.1565208417
 20
3.4511604326
 11
5.1597481855
 21
3.4640698076
  0
LINE
  5
2D6
100
AcDbEntity
  8
03__ASM_ALL_CURVES
100
AcDbLine
 62
40
  6
CONTINUOUS
 10
5.6011773238
 20
5.1145681826
 11
5.5968741988
 21
5.0973556826
  0
LINE
  5
2D7
100
AcDbEntity
  8
03__ASM_ALL_CURVES
100
AcDbLine
 62
40
  6
CONTINUOUS
 10
5.1952489667
 20
3.4511604326
 11
5.192021623
 21
3.4382510576
  0
LINE
  5
2D8
100
AcDbEntity
  8
THREAD
100
AcDbLine
 62
7
  6
CONTINUOUS
 10
5.5890753849
 20
4.7229791826
 11
5.5707445138
 21
4.6912291826
  0
LINE
  5
2D9
100
AcDbEntity
  8
03__ASM_ALL_CURVES
100
AcDbLine
 62
40
  6
CONTINUOUS
 10
6.1390679488
 20
5.0858806828
 11
6.1304616988
 21
5.0801431826
  0
LINE
  5
2DA
100
AcDbEntity
  8
03__ASM_ALL_CURVES
100
AcDbLine
 62
40
  6
CONTINUOUS
 10
6.2509491988
 20
5.143255684
 11
6.2595554488
 21
5.1489931826
  0
LINE
  5
2DB
100
AcDbEntity
  8
03__ASM_ALL_CURVES
100
AcDbLine
 62
40
  6
CONTINUOUS
 10
6.2767679488
 20
5.0858806828
 11
6.2681616988
 21
5.0801431826
  0
LINE
  5
2DC
100
AcDbEntity
  8
THREAD
100
AcDbLine
 62
7
  6
CONTINUOUS
 10
5.9881360746
 20
3.7749791826
 11
5.9041360746
 21
3.7749791826
  0
LINE
  5
2DD
100
AcDbEntity
  8
0
100
AcDbLine
 62
7
  6
CONTINUOUS
 10
6.4461360746
 20
3.7904791826
 11
6.5031360746
 21
3.7904791826
  0
LINE
  5
2DE
100
AcDbEntity
  8
0
100
AcDbLine
 62
7
  6
CONTINUOUS
 10
6.7011360746
 20
3.7904791826
 11
6.7421360746
 21
3.7904791826
  0
LINE
  5
2DF
100
AcDbEntity
  8
0
100
AcDbLine
 62
7
  6
CONTINUOUS
 10
6.5031360746
 20
3.7909791826
 11
6.5531360746
 21
3.7909791826
  0
LINE
  5
2E0
100
AcDbEntity
  8
0
100
AcDbLine
 62
7
  6
CONTINUOUS
 10
6.6231360746
 20
3.7909791826
 11
6.6731360746
 21
3.7909791826
  0
LINE
  5
2E1
100
AcDbEntity
  8
0
100
AcDbLine
 62
7
  6
CONTINUOUS
 10
6.7011360746
 20
3.8449791826
 11
6.6731360746
 21
3.8449791826
  0
LINE
  5
2E2
100
AcDbEntity
  8
0
100
AcDbLine
 62
7
  6
CONTINUOUS
 10
6.4461360746
 20
3.8524791826
 11
6.2891360746
 21
3.8524791826
  0
LINE
  5
2E3
100
AcDbEntity
  8
0
100
AcDbLine
 62
7
  6
CONTINUOUS
 10
6.0391360746
 20
3.8524791826
 11
6.0041360746
 21
3.8524791826
  0
LINE
  5
2E4
100
AcDbEntity
  8
0
100
AcDbLine
 62
7
  6
CONTINUOUS
 10
4.5117104488
 20
3.8861144921
 11
4.0497467459
 21
3.8861144921
  0
LINE
  5
2E5
100
AcDbEntity
  8
03__ASM_ALL_CURVES
100
AcDbLine
 62
40
  6
CONTINUOUS
 10
6.2932712519
 20
3.4253416826
 11
6.2868165644
 21
3.4296448077
  0
LINE
  5
2E6
100
AcDbEntity
  8
03__ASM_ALL_CURVES
100
AcDbLine
 62
40
  6
CONTINUOUS
 10
6.2480884394
 20
3.4769791826
 11
6.2545431269
 21
3.4726760586
  0
LINE
  5
2E7
100
AcDbEntity
  8
03__ASM_ALL_CURVES
100
AcDbLine
 62
40
  6
CONTINUOUS
 10
6.2997259394
 20
3.4769791826
 11
6.3061806269
 21
3.4726760586
  0
LINE
  5
2E8
100
AcDbEntity
  8
03__ASM_ALL_CURVES
100
AcDbLine
 62
40
  6
CONTINUOUS
 10
4.6184829496
 20
5.0916181829
 11
4.6270891996
 21
5.0801431826
  0
LINE
  5
2E9
100
AcDbEntity
  8
03__ASM_ALL_CURVES
100
AcDbLine
 62
40
  6
CONTINUOUS
 10
4.6787266996
 20
5.0858806828
 11
4.6744235746
 21
5.0916181829
  0
LINE
  5
2EA
100
AcDbEntity
  8
03__ASM_ALL_CURVES
100
AcDbLine
 62
40
  6
CONTINUOUS
 10
4.7045454496
 20
5.1145681826
 11
4.7131516996
 21
5.1030931833
  0
LINE
  5
2EB
100
AcDbEntity
  8
THREAD
100
AcDbLine
 62
7
  6
CONTINUOUS
 10
5.5890753849
 20
3.7309791826
 11
5.5707445138
 21
3.7627291826
  0
LINE
  5
2EC
100
AcDbEntity
  8
03__ASM_ALL_CURVES
100
AcDbLine
 62
40
  6
CONTINUOUS
 10
4.9541266996
 20
5.1145681826
 11
4.9498235746
 21
5.126043184
  0
LINE
  5
2ED
100
AcDbEntity
  8
03__ASM_ALL_CURVES
100
AcDbLine
 62
40
  6
CONTINUOUS
 10
4.9799454496
 20
5.1375181812
 11
4.9842485746
 21
5.126043184
  0
LINE
  5
2EE
100
AcDbEntity
  8
THREAD
100
AcDbLine
 62
7
  6
CONTINUOUS
 10
5.4261360746
 20
3.7124791826
 11
5.4261360746
 21
4.7414791826
  0
LINE
  5
2EF
100
AcDbEntity
  8
03__ASM_ALL_CURVES
100
AcDbLine
 62
40
  6
CONTINUOUS
 10
5.4617560746
 20
5.0663731826
 11
5.4617560746
 21
5.0388331826
  0
LINE
  5
2F0
100
AcDbEntity
  8
03__ASM_ALL_CURVES
100
AcDbLine
 62
40
  6
CONTINUOUS
 10
5.4892960738
 20
5.1489931826
 11
5.4892960738
 21
5.0801431826
  0
LINE
  5
2F1
100
AcDbEntity
  8
0
100
AcDbLine
 62
7
  6
CONTINUOUS
 10
5.4961360746
 20
3.7149791826
 11
5.4961360746
 21
4.7389791826
  0
LINE
  5
2F2
100
AcDbEntity
  8
0
100
AcDbLine
 62
7
  6
CONTINUOUS
 10
5.5461360746
 20
3.7149791826
 11
5.5461360746
 21
4.7389791826
  0
LINE
  5
2F3
100
AcDbEntity
  8
03__ASM_ALL_CURVES
100
AcDbLine
 62
40
  6
CONTINUOUS
 10
5.6183898238
 20
5.1145681826
 11
5.6226929488
 21
5.1317806826
  0
LINE
  5
2F4
100
AcDbEntity
  8
03__ASM_ALL_CURVES
100
AcDbLine
 62
40
  6
CONTINUOUS
 10
5.6915429488
 20
5.0801431826
 11
5.7130585738
 21
5.1489931826
  0
LINE
  5
2F5
100
AcDbEntity
  8
03__ASM_ALL_CURVES
100
AcDbLine
 62
40
  6
CONTINUOUS
 10
5.9669429488
 20
5.1317806826
 11
5.9755491988
 21
5.143255684
  0
LINE
  5
2F6
100
AcDbEntity
  8
03__ASM_ALL_CURVES
100
AcDbLine
 62
40
  6
CONTINUOUS
 10
6.0056710738
 20
5.0916181829
 11
6.0013679488
 21
5.0858806828
  0
LINE
  5
2F7
100
AcDbEntity
  8
03__ASM_ALL_CURVES
100
AcDbLine
 62
40
  6
CONTINUOUS
 10
6.1132491988
 20
5.143255684
 11
6.1089460738
 21
5.1375181812
  0
LINE
  5
2F8
100
AcDbEntity
  8
03__ASM_ALL_CURVES
100
AcDbLine
 62
40
  6
CONTINUOUS
 10
6.3456179488
 20
5.0858806828
 11
6.3370116988
 21
5.0801431826
  0
LINE
  5
2F9
100
AcDbEntity
  8
03__ASM_ALL_CURVES
100
AcDbLine
 62
40
  6
CONTINUOUS
 10
6.4790148238
 20
5.0858806828
 11
6.4704085738
 21
5.0801431826
  0
LINE
  5
2FA
100
AcDbEntity
  8
0
100
AcDbLine
 62
7
  6
CONTINUOUS
 10
4.5117104488
 20
3.9344585637
 11
4.0497467459
 21
3.9344585637
  0
LINE
  5
2FB
100
AcDbEntity
  8
03__ASM_ALL_CURVES
100
AcDbLine
 62
40
  6
CONTINUOUS
 10
6.3513634394
 20
3.4769791826
 11
6.3578181269
 21
3.4726760586
  0
LINE
  5
2FC
100
AcDbEntity
  8
03__ASM_ALL_CURVES
100
AcDbLine
 62
40
  6
CONTINUOUS
 10
6.4546384394
 20
3.4769791826
 11
6.4610931269
 21
3.4726760586
  0
LINE
  5
2FD
100
AcDbEntity
  8
03__ASM_ALL_CURVES
100
AcDbLine
 62
40
  6
CONTINUOUS
 10
4.7045454496
 20
5.143255684
 11
4.7088485746
 21
5.1375181812
  0
LINE
  5
2FE
100
AcDbEntity
  8
03__ASM_ALL_CURVES
100
AcDbLine
 62
40
  6
CONTINUOUS
 10
4.8250329496
 20
5.0858806828
 11
4.8293360746
 21
5.0801431826
  0
LINE
  5
2FF
100
AcDbEntity
  8
THREAD
100
AcDbLine
 62
7
  6
CONTINUOUS
 10
5.5599191963
 20
3.7689791826
 11
5.5599191963
 21
4.6849791826
  0
LINE
  5
300
100
AcDbEntity
  8
THREAD
100
AcDbLine
 62
7
  6
CONTINUOUS
 10
5.5707445138
 20
3.7627291826
 11
5.5707445138
 21
4.6912291826
  0
LINE
  5
301
100
AcDbEntity
  8
THREAD
100
AcDbLine
 62
7
  6
CONTINUOUS
 10
5.5890753849
 20
3.7309791826
 11
5.5890753849
 21
4.7229791826
  0
LINE
  5
302
100
AcDbEntity
  8
03__ASM_ALL_CURVES
100
AcDbLine
 62
40
  6
CONTINUOUS
 10
6.1433710738
 20
5.0916181829
 11
6.1390679488
 21
5.0858806828
  0
LINE
  5
303
100
AcDbEntity
  8
03__ASM_ALL_CURVES
100
AcDbLine
 62
40
  6
CONTINUOUS
 10
6.2423429488
 20
5.1317806826
 11
6.2509491988
 21
5.143255684
  0
LINE
  5
304
100
AcDbEntity
  8
03__ASM_ALL_CURVES
100
AcDbLine
 62
40
  6
CONTINUOUS
 10
6.6210179488
 20
5.1203056812
 11
6.6124116988
 21
5.1145681826
  0
LINE
  5
305
100
AcDbEntity
  8
0
100
AcDbLine
 62
7
  6
CONTINUOUS
 10
6.2596797968
 20
4.1469791826
 11
6.192843872
 21
4.1469791826
  0
LINE
  5
306
100
AcDbEntity
  8
0
100
AcDbLine
 62
7
  6
CONTINUOUS
 10
6.192843872
 20
4.1492791826
 11
6.0668261609
 21
4.1492791826
  0
LINE
  5
307
100
AcDbEntity
  8
03__ASM_ALL_CURVES
100
AcDbLine
 62
40
  6
CONTINUOUS
 10
4.9584298246
 20
5.0858806828
 11
4.9541266996
 21
5.0916181829
  0
LINE
  5
308
100
AcDbEntity
  8
03__ASM_ALL_CURVES
100
AcDbLine
 62
40
  6
CONTINUOUS
 10
4.9756423246
 20
5.143255684
 11
4.9799454496
 21
5.1375181812
  0
LINE
  5
309
100
AcDbEntity
  8
03__ASM_ALL_CURVES
100
AcDbLine
 62
40
  6
CONTINUOUS
 10
6.2868165644
 20
3.4296448077
 11
6.2803618769
 21
3.4382510576
  0
LINE
  5
30A
100
AcDbEntity
  8
03__ASM_ALL_CURVES
100
AcDbLine
 62
40
  6
CONTINUOUS
 10
6.2545431269
 20
3.4726760586
 11
6.2577704707
 21
3.4683729316
  0
LINE
  5
30B
100
AcDbEntity
  8
03__ASM_ALL_CURVES
100
AcDbLine
 62
40
  6
CONTINUOUS
 10
5.7819085738
 20
5.1489931826
 11
5.7819085738
 21
5.0801431826
  0
LINE
  5
30C
100
AcDbEntity
  8
03__ASM_ALL_CURVES
100
AcDbLine
 62
40
  6
CONTINUOUS
 10
5.9626398238
 20
5.1145681826
 11
5.9669429488
 21
5.1317806826
  0
LINE
  5
30D
100
AcDbEntity
  8
03__ASM_ALL_CURVES
100
AcDbLine
 62
40
  6
CONTINUOUS
 10
6.2853741988
 20
5.0973556826
 11
6.2767679488
 21
5.0858806828
  0
LINE
  5
30E
100
AcDbEntity
  8
03__ASM_ALL_CURVES
100
AcDbLine
 62
40
  6
CONTINUOUS
 10
6.3499210738
 20
5.0916181829
 11
6.3456179488
 21
5.0858806828
  0
LINE
  5
30F
100
AcDbEntity
  8
03__ASM_ALL_CURVES
100
AcDbLine
 62
40
  6
CONTINUOUS
 10
5.1371567792
 20
3.4597666836
 11
5.1339294355
 21
3.4554635566
  0
LINE
  5
310
100
AcDbEntity
  8
03__ASM_ALL_CURVES
100
AcDbLine
 62
40
  6
CONTINUOUS
 10
5.1597481855
 20
3.4640698076
 11
5.166202873
 21
3.4726760586
  0
LINE
  5
311
100
AcDbEntity
  8
03__ASM_ALL_CURVES
100
AcDbLine
 62
40
  6
CONTINUOUS
 10
7.4469102933
 20
4.2407491826
 11
7.4404556058
 21
4.2407491826
  0
LINE
  5
312
100
AcDbEntity
  8
03__ASM_ALL_CURVES
100
AcDbLine
 62
40
  6
CONTINUOUS
 10
7.4985477933
 20
4.2665679326
 11
7.4824110745
 21
4.2665679326
  0
LINE
  5
313
100
AcDbEntity
  8
03__ASM_ALL_CURVES
100
AcDbLine
 62
40
  6
CONTINUOUS
 10
7.3952727933
 20
4.2665679326
 11
7.3791360745
 21
4.2665679326
  0
LINE
  5
314
100
AcDbEntity
  8
03__ASM_ALL_CURVES
100
AcDbLine
 62
40
  6
CONTINUOUS
 10
7.3791360745
 20
4.2923866826
 11
7.3952727933
 21
4.2923866826
  0
LINE
  5
315
100
AcDbEntity
  8
03__ASM_ALL_CURVES
100
AcDbLine
 62
40
  6
CONTINUOUS
 10
7.4404556058
 20
4.2923866826
 11
7.4469102933
 21
4.2923866826
  0
LINE
  5
316
100
AcDbEntity
  8
03__ASM_ALL_CURVES
100
AcDbLine
 62
40
  6
CONTINUOUS
 10
7.4824110745
 20
4.2923866826
 11
7.4985477933
 21
4.2923866826
  0
LINE
  5
317
100
AcDbEntity
  8
03__ASM_ALL_CURVES
100
AcDbLine
 62
40
  6
CONTINUOUS
 10
7.5308212308
 20
4.2923866826
 11
7.5630946683
 21
4.2923866826
  0
LINE
  5
318
100
AcDbEntity
  8
0
100
AcDbLine
 62
7
  6
CONTINUOUS
 10
6.192843872
 20
4.3046791826
 11
6.0668469769
 21
4.3046791826
  0
LINE
  5
319
100
AcDbEntity
  8
03__ASM_ALL_CURVES
100
AcDbLine
 62
40
  6
CONTINUOUS
 10
4.4807829496
 20
5.0801431826
 11
4.4721766996
 21
5.0858806828
  0
LINE
  5
31A
100
AcDbEntity
  8
03__ASM_ALL_CURVES
100
AcDbLine
 62
40
  6
CONTINUOUS
 10
4.4893891996
 20
5.1203056812
 11
4.4979954496
 21
5.1145681826
  0
LINE
  5
31B
100
AcDbEntity
  8
03__ASM_ALL_CURVES
100
AcDbLine
 62
40
  6
CONTINUOUS
 10
4.4893891996
 20
5.1489931826
 11
4.4979954496
 21
5.143255684
  0
LINE
  5
31C
100
AcDbEntity
  8
03__ASM_ALL_CURVES
100
AcDbLine
 62
40
  6
CONTINUOUS
 10
5.0315829496
 20
5.1489931826
 11
5.0401891996
 21
5.1375181812
  0
LINE
  5
31D
100
AcDbEntity
  8
03__ASM_ALL_CURVES
100
AcDbLine
 62
40
  6
CONTINUOUS
 10
6.3061806269
 20
3.4726760586
 11
6.3126353144
 21
3.4640698076
  0
LINE
  5
31E
100
AcDbEntity
  8
03__ASM_ALL_CURVES
100
AcDbLine
 62
40
  6
CONTINUOUS
 10
6.3578181269
 20
3.4726760586
 11
6.3610454707
 21
3.4683729316
  0
LINE
  5
31F
100
AcDbEntity
  8
03__ASM_ALL_CURVES
100
AcDbLine
 62
40
  6
CONTINUOUS
 10
5.5538429488
 20
5.0973556826
 11
5.5495398238
 21
5.1145681826
  0
LINE
  5
320
100
AcDbEntity
  8
03__ASM_ALL_CURVES
100
AcDbLine
 62
40
  6
CONTINUOUS
 10
5.5968741988
 20
5.1317806826
 11
5.6011773238
 21
5.1145681826
  0
LINE
  5
321
100
AcDbEntity
  8
03__ASM_ALL_CURVES
100
AcDbLine
 62
40
  6
CONTINUOUS
 10
5.8507585738
 20
5.1489931826
 11
5.8507585738
 21
5.0801431826
  0
LINE
  5
322
100
AcDbEntity
  8
THREAD
100
AcDbLine
 62
7
  6
CONTINUOUS
 10
5.8601360746
 20
3.7309791826
 11
5.8601360746
 21
4.7229791826
  0
LINE
  5
323
100
AcDbEntity
  8
03__ASM_ALL_CURVES
100
AcDbLine
 62
40
  6
CONTINUOUS
 10
5.9023960738
 20
5.0801431826
 11
5.9023960738
 21
5.1489931826
  0
LINE
  5
324
100
AcDbEntity
  8
THREAD
100
AcDbLine
 62
7
  6
CONTINUOUS
 10
5.9041360746
 20
3.7749791826
 11
5.9041360746
 21
4.6789791826
  0
LINE
  5
325
100
AcDbEntity
  8
03__ASM_ALL_CURVES
100
AcDbLine
 62
40
  6
CONTINUOUS
 10
5.9368210738
 20
5.0801431826
 11
5.9368210738
 21
5.1489931826
  0
LINE
  5
326
100
AcDbEntity
  8
03__ASM_ALL_CURVES
100
AcDbLine
 62
40
  6
CONTINUOUS
 10
5.192021623
 20
3.4382510576
 11
5.1855669355
 21
3.4296448077
  0
LINE
  5
327
100
AcDbEntity
  8
03__ASM_ALL_CURVES
100
AcDbLine
 62
40
  6
CONTINUOUS
 10
5.2404317792
 20
3.4597666836
 11
5.2372044355
 21
3.4554635566
  0
LINE
  5
328
100
AcDbEntity
  8
03__ASM_ALL_CURVES
100
AcDbLine
 62
40
  6
CONTINUOUS
 10
6.4876210738
 20
5.0973556826
 11
6.4790148238
 21
5.0858806828
  0
LINE
  5
329
100
AcDbEntity
  8
03__ASM_ALL_CURVES
100
AcDbLine
 62
40
  6
CONTINUOUS
 10
5.3437067792
 20
3.4640698076
 11
5.3404794355
 21
3.4597666836
  0
LINE
  5
32A
100
AcDbEntity
  8
03__ASM_ALL_CURVES
100
AcDbLine
 62
40
  6
CONTINUOUS
 10
5.346934123
 20
3.4382510576
 11
5.3404794355
 21
3.4296448077
  0
LINE
  5
32B
100
AcDbEntity
  8
0
100
AcDbLine
 62
7
  6
CONTINUOUS
 10
6.2597100688
 20
4.3069791826
 11
6.192843872
 21
4.3069791826
  0
LINE
  5
32C
100
AcDbEntity
  8
03__ASM_ALL_CURVES
100
AcDbLine
 62
40
  6
CONTINUOUS
 10
4.6873329496
 20
5.0801431826
 11
4.6787266996
 21
5.0858806828
  0
LINE
  5
32D
100
AcDbEntity
  8
03__ASM_ALL_CURVES
100
AcDbLine
 62
40
  6
CONTINUOUS
 10
4.6959391996
 20
5.1203056812
 11
4.7045454496
 21
5.1145681826
  0
LINE
  5
32E
100
AcDbEntity
  8
03__ASM_ALL_CURVES
100
AcDbLine
 62
40
  6
CONTINUOUS
 10
4.6959391996
 20
5.1489931826
 11
4.7045454496
 21
5.143255684
  0
LINE
  5
32F
100
AcDbEntity
  8
03__ASM_ALL_CURVES
100
AcDbLine
 62
40
  6
CONTINUOUS
 10
6.4610931269
 20
3.4726760586
 11
6.4643204707
 21
3.4683729316
  0
LINE
  5
330
100
AcDbEntity
  8
03__ASM_ALL_CURVES
100
AcDbLine
 62
40
  6
CONTINUOUS
 10
5.6226929488
 20
5.0973556826
 11
5.6183898238
 21
5.1145681826
  0
LINE
  5
331
100
AcDbEntity
  8
0
100
AcDbLine
 62
7
  6
CONTINUOUS
 10
5.9881360746
 20
3.7749791826
 11
5.9881360746
 21
4.6789791826
  0
LINE
  5
332
100
AcDbEntity
  8
0
100
AcDbLine
 62
7
  6
CONTINUOUS
 10
6.0041360746
 20
3.7909791826
 11
6.0041360746
 21
4.6629791826
  0
LINE
  5
333
100
AcDbEntity
  8
03__ASM_ALL_CURVES
100
AcDbLine
 62
40
  6
CONTINUOUS
 10
6.0056710738
 20
5.1145681826
 11
6.0056710738
 21
5.0916181829
  0
LINE
  5
334
100
AcDbEntity
  8
03__ASM_ALL_CURVES
100
AcDbLine
 62
40
  6
CONTINUOUS
 10
6.2380398238
 20
5.1145681826
 11
6.2423429488
 21
5.1317806826
  0
LINE
  5
335
100
AcDbEntity
  8
03__ASM_ALL_CURVES
100
AcDbLine
 62
40
  6
CONTINUOUS
 10
6.2896773238
 20
5.1145681826
 11
6.2853741988
 21
5.0973556826
  0
LINE
  5
336
100
AcDbEntity
  8
03__ASM_ALL_CURVES
100
AcDbLine
 62
40
  6
CONTINUOUS
 10
6.6253210738
 20
5.126043184
 11
6.6210179488
 21
5.1203056812
  0
LINE
  5
337
100
AcDbEntity
  8
0
100
AcDbLine
 62
7
  6
CONTINUOUS
 10
4.5117104488
 20
4.5194998015
 11
4.0497467459
 21
4.5194998015
  0
LINE
  5
338
100
AcDbEntity
  8
0
100
AcDbLine
 62
7
  6
CONTINUOUS
 10
4.5117104488
 20
4.5678438731
 11
4.0497467459
 21
4.5678438731
  0
LINE
  5
339
100
AcDbEntity
  8
THREAD
100
AcDbLine
 62
7
  6
CONTINUOUS
 10
5.3947245319
 20
4.7414791826
 11
5.3791360746
 21
4.7504791826
  0
LINE
  5
33A
100
AcDbEntity
  8
03__ASM_ALL_CURVES
100
AcDbLine
 62
40
  6
CONTINUOUS
 10
4.9670360746
 20
5.0801431826
 11
4.9584298246
 21
5.0858806828
  0
LINE
  5
33B
100
AcDbEntity
  8
03__ASM_ALL_CURVES
100
AcDbLine
 62
40
  6
CONTINUOUS
 10
4.9670360746
 20
5.1489931826
 11
4.9756423246
 21
5.143255684
  0
LINE
  5
33C
100
AcDbEntity
  8
03__ASM_ALL_CURVES
100
AcDbLine
 62
40
  6
CONTINUOUS
 10
6.3513634394
 20
3.4511604326
 11
6.3610454707
 21
3.4253416826
  0
LINE
  5
33D
100
AcDbEntity
  8
03__ASM_ALL_CURVES
100
AcDbLine
 62
40
  6
CONTINUOUS
 10
5.7130585738
 20
5.1489931826
 11
5.7345741988
 21
5.0801431826
  0
LINE
  5
33E
100
AcDbEntity
  8
03__ASM_ALL_CURVES
100
AcDbLine
 62
40
  6
CONTINUOUS
 10
6.2803618769
 20
3.4382510576
 11
6.2771345332
 21
3.4511604326
  0
LINE
  5
33F
100
AcDbEntity
  8
03__ASM_ALL_CURVES
100
AcDbLine
 62
40
  6
CONTINUOUS
 10
6.1089460738
 20
5.1375181812
 11
6.1089460738
 21
5.1317806826
  0
LINE
  5
340
100
AcDbEntity
  8
03__ASM_ALL_CURVES
100
AcDbLine
 62
40
  6
CONTINUOUS
 10
6.1433710738
 20
5.1030931833
 11
6.1433710738
 21
5.0916181829
  0
LINE
  5
341
100
AcDbEntity
  8
03__ASM_ALL_CURVES
100
AcDbLine
 62
40
  6
CONTINUOUS
 10
6.1777960738
 20
5.1489931826
 11
6.1777960738
 21
5.0801431826
  0
LINE
  5
342
100
AcDbEntity
  8
0
100
AcDbLine
 62
7
  6
CONTINUOUS
 10
6.192843872
 20
4.1469791826
 11
6.192843872
 21
4.3069791826
  0
LINE
  5
343
100
AcDbEntity
  8
03__ASM_ALL_CURVES
100
AcDbLine
 62
40
  6
CONTINUOUS
 10
6.2122210738
 20
5.1489931826
 11
6.2122210738
 21
5.0801431826
  0
LINE
  5
344
100
AcDbEntity
  8
03__ASM_ALL_CURVES
100
AcDbLine
 62
40
  6
CONTINUOUS
 10
5.1339294355
 20
3.4554635566
 11
5.127474748
 21
3.4511604326
  0
LINE
  5
345
100
AcDbEntity
  8
03__ASM_ALL_CURVES
100
AcDbLine
 62
40
  6
CONTINUOUS
 10
5.166202873
 20
3.4726760586
 11
5.1726575605
 21
3.4769791826
  0
LINE
  5
346
100
AcDbEntity
  8
03__ASM_ALL_CURVES
100
AcDbLine
 62
40
  6
CONTINUOUS
 10
5.1855669355
 20
3.4296448077
 11
5.179112248
 21
3.4253416826
  0
LINE
  5
347
100
AcDbEntity
  8
03__ASM_ALL_CURVES
100
AcDbLine
 62
40
  6
CONTINUOUS
 10
5.2372044355
 20
3.4554635566
 11
5.230749748
 21
3.4511604326
  0
LINE
  5
348
100
AcDbEntity
  8
03__ASM_ALL_CURVES
100
AcDbLine
 62
40
  6
CONTINUOUS
 10
5.321115373
 20
3.4726760586
 11
5.3275700605
 21
3.4769791826
  0
LINE
  5
349
100
AcDbEntity
  8
THREAD
100
AcDbLine
 62
7
  6
CONTINUOUS
 10
5.3947245319
 20
3.7124791826
 11
5.3791360746
 21
3.7034791826
  0
LINE
  5
34A
100
AcDbEntity
  8
0
100
AcDbLine
 62
7
  6
CONTINUOUS
 10
6.4461360746
 20
4.6014791826
 11
6.2891360746
 21
4.6014791826
  0
LINE
  5
34B
100
AcDbEntity
  8
0
100
AcDbLine
 62
7
  6
CONTINUOUS
 10
6.0391360746
 20
4.6014791826
 11
6.0041360746
 21
4.6014791826
  0
LINE
  5
34C
100
AcDbEntity
  8
0
100
AcDbLine
 62
7
  6
CONTINUOUS
 10
6.7011360746
 20
4.6089791826
 11
6.6731360746
 21
4.6089791826
  0
LINE
  5
34D
100
AcDbEntity
  8
0
100
AcDbLine
 62
7
  6
CONTINUOUS
 10
6.5031360746
 20
4.6629791826
 11
6.5531360746
 21
4.6629791826
  0
LINE
  5
34E
100
AcDbEntity
  8
0
100
AcDbLine
 62
7
  6
CONTINUOUS
 10
6.6231360746
 20
4.6629791826
 11
6.6731360746
 21
4.6629791826
  0
LINE
  5
34F
100
AcDbEntity
  8
0
100
AcDbLine
 62
7
  6
CONTINUOUS
 10
6.4461360746
 20
4.6634791826
 11
6.5031360746
 21
4.6634791826
  0
LINE
  5
350
100
AcDbEntity
  8
0
100
AcDbLine
 62
7
  6
CONTINUOUS
 10
6.7011360746
 20
4.6634791826
 11
6.7421360746
 21
4.6634791826
  0
LINE
  5
351
100
AcDbEntity
  8
THREAD
100
AcDbLine
 62
7
  6
CONTINUOUS
 10
5.9881360746
 20
4.6789791826
 11
5.9041360746
 21
4.6789791826
  0
LINE
  5
352
100
AcDbEntity
  8
THREAD
100
AcDbLine
 62
7
  6
CONTINUOUS
 10
5.5599191963
 20
4.6849791826
 11
5.5461360746
 21
4.6849791826
  0
LINE
  5
353
100
AcDbEntity
  8
0
100
AcDbLine
 62
7
  6
CONTINUOUS
 10
5.2927001392
 20
4.6849791826
 11
4.9615050227
 21
4.6849791826
  0
LINE
  5
354
100
AcDbEntity
  8
03__ASM_ALL_CURVES
100
AcDbLine
 62
40
  6
CONTINUOUS
 10
4.9670360746
 20
5.1088306819
 11
4.9541266996
 21
5.1145681826
  0
LINE
  5
355
100
AcDbEntity
  8
THREAD
100
AcDbLine
 62
7
  6
CONTINUOUS
 10
5.9041360746
 20
4.6789791826
 11
5.8601360746
 21
4.7229791826
  0
LINE
  5
356
100
AcDbEntity
  8
0
100
AcDbLine
 62
7
  6
CONTINUOUS
 10
6.0041360746
 20
4.6629791826
 11
5.9881360746
 21
4.6789791826
  0
LINE
  5
357
100
AcDbEntity
  8
03__ASM_ALL_CURVES
100
AcDbLine
 62
40
  6
CONTINUOUS
 10
5.5624491988
 20
5.0858806828
 11
5.5538429488
 21
5.0973556826
  0
LINE
  5
358
100
AcDbEntity
  8
03__ASM_ALL_CURVES
100
AcDbLine
 62
40
  6
CONTINUOUS
 10
5.6312991988
 20
5.0858806828
 11
5.6226929488
 21
5.0973556826
  0
LINE
  5
359
100
AcDbEntity
  8
03__ASM_ALL_CURVES
100
AcDbLine
 62
40
  6
CONTINUOUS
 10
5.5882679488
 20
5.143255684
 11
5.5968741988
 21
5.1317806826
  0
LINE
  5
35A
100
AcDbEntity
  8
03__ASM_ALL_CURVES
100
AcDbLine
 62
40
  6
CONTINUOUS
 10
5.6571179488
 20
5.143255684
 11
5.6614210738
 21
5.1375181812
  0
LINE
  5
35B
100
AcDbEntity
  8
03__ASM_ALL_CURVES
100
AcDbLine
 62
40
  6
CONTINUOUS
 10
6.3126353144
 20
3.4640698076
 11
6.3158626582
 21
3.4511604326
  0
LINE
  5
35C
100
AcDbEntity
  8
03__ASM_ALL_CURVES
100
AcDbLine
 62
40
  6
CONTINUOUS
 10
5.9669429488
 20
5.0973556826
 11
5.9626398238
 21
5.1145681826
  0
LINE
  5
35D
100
AcDbEntity
  8
03__ASM_ALL_CURVES
100
AcDbLine
 62
40
  6
CONTINUOUS
 10
6.2319517207
 20
3.4253416826
 11
6.2319517207
 21
3.4769791826
  0
LINE
  5
35E
100
AcDbEntity
  8
03__ASM_ALL_CURVES
100
AcDbLine
 62
40
  6
CONTINUOUS
 10
6.2577704707
 20
3.4683729316
 11
6.2577704707
 21
3.4597666836
  0
LINE
  5
35F
100
AcDbEntity
  8
03__ASM_ALL_CURVES
100
AcDbLine
 62
40
  6
CONTINUOUS
 10
6.3154960738
 20
5.0916181829
 11
6.3154960738
 21
5.1489931826
  0
LINE
  5
360
100
AcDbEntity
  8
03__ASM_ALL_CURVES
100
AcDbLine
 62
40
  6
CONTINUOUS
 10
6.3352267207
 20
3.4253416826
 11
6.3352267207
 21
3.4769791826
  0
LINE
  5
361
100
AcDbEntity
  8
03__ASM_ALL_CURVES
100
AcDbLine
 62
40
  6
CONTINUOUS
 10
6.3499210738
 20
5.1489931826
 11
6.3499210738
 21
5.0916181829
  0
LINE
  5
362
100
AcDbEntity
  8
03__ASM_ALL_CURVES
100
AcDbLine
 62
40
  6
CONTINUOUS
 10
6.4919241988
 20
5.1145681826
 11
6.4876210738
 21
5.0973556826
  0
LINE
  5
363
100
AcDbEntity
  8
THREAD
100
AcDbLine
 62
7
  6
CONTINUOUS
 10
5.9041360746
 20
3.7749791826
 11
5.8601360746
 21
3.7309791826
  0
LINE
  5
364
100
AcDbEntity
  8
0
100
AcDbLine
 62
7
  6
CONTINUOUS
 10
6.0041360746
 20
3.7909791826
 11
5.9881360746
 21
3.7749791826
  0
LINE
  5
365
100
AcDbEntity
  8
03__ASM_ALL_CURVES
100
AcDbLine
 62
40
  6
CONTINUOUS
 10
5.3404794355
 20
3.4597666836
 11
5.334024748
 21
3.4554635566
  0
LINE
  5
366
100
AcDbEntity
  8
03__ASM_ALL_CURVES
100
AcDbLine
 62
40
  6
CONTINUOUS
 10
5.3404794355
 20
3.4296448077
 11
5.334024748
 21
3.4253416826
  0
LINE
  5
367
100
AcDbEntity
  8
0
100
AcDbLine
 62
7
  6
CONTINUOUS
 10
4.8951360746
 20
4.7094791826
 11
4.8741360746
 21
4.7094791826
  0
LINE
  5
368
100
AcDbEntity
  8
THREAD
100
AcDbLine
 62
7
  6
CONTINUOUS
 10
5.8601360746
 20
4.7229791826
 11
5.5890753849
 21
4.7229791826
  0
LINE
  5
369
100
AcDbEntity
  8
0
100
AcDbLine
 62
7
  6
CONTINUOUS
 10
5.4961360746
 20
4.7389791826
 11
5.5461360746
 21
4.7389791826
  0
LINE
  5
36A
100
AcDbEntity
  8
THREAD
100
AcDbLine
 62
7
  6
CONTINUOUS
 10
5.4261360746
 20
4.7414791826
 11
5.3947245319
 21
4.7414791826
  0
LINE
  5
36B
100
AcDbEntity
  8
0
100
AcDbLine
 62
7
  6
CONTINUOUS
 10
4.7541360746
 20
4.7634791826
 11
4.8041360746
 21
4.7634791826
  0
LINE
  5
36C
100
AcDbEntity
  8
0
100
AcDbLine
 62
7
  6
CONTINUOUS
 10
4.9401360746
 20
4.7647291826
 11
4.8951360746
 21
4.7647291826
  0
LINE
  5
36D
100
AcDbEntity
  8
0
100
AcDbLine
 62
7
  6
CONTINUOUS
 10
5.3791360746
 20
4.7649791826
 11
5.3141360746
 21
4.7649791826
  0
LINE
  5
36E
100
AcDbEntity
  8
0
100
AcDbLine
 62
7
  6
CONTINUOUS
 10
4.7541360746
 20
4.7649791826
 11
4.5671360746
 21
4.7649791826
  0
LINE
  5
36F
100
AcDbEntity
  8
03__ASM_ALL_CURVES
100
AcDbLine
 62
40
  6
CONTINUOUS
 10
4.0867560746
 20
5.0411281826
 11
4.0041360746
 21
5.0526031826
  0
LINE
  5
370
100
AcDbEntity
  8
03__ASM_ALL_CURVES
100
AcDbLine
 62
40
  6
CONTINUOUS
 10
4.0867560746
 20
5.0388331826
 11
4.0041360746
 21
5.0526031826
  0
LINE
  5
371
100
AcDbEntity
  8
03__ASM_ALL_CURVES
100
AcDbLine
 62
40
  6
CONTINUOUS
 10
5.5710554488
 20
5.0801431826
 11
5.5624491988
 21
5.0858806828
  0
LINE
  5
372
100
AcDbEntity
  8
03__ASM_ALL_CURVES
100
AcDbLine
 62
40
  6
CONTINUOUS
 10
5.9023960738
 20
5.1489931826
 11
5.9368210738
 21
5.0801431826
  0
LINE
  5
373
100
AcDbEntity
  8
03__ASM_ALL_CURVES
100
AcDbLine
 62
40
  6
CONTINUOUS
 10
6.3610454707
 20
3.4683729316
 11
6.3610454707
 21
3.4597666836
  0
LINE
  5
374
100
AcDbEntity
  8
03__ASM_ALL_CURVES
100
AcDbLine
 62
40
  6
CONTINUOUS
 10
6.3843460738
 20
5.1489931826
 11
6.3843460738
 21
5.0801431826
  0
LINE
  5
375
100
AcDbEntity
  8
03__ASM_ALL_CURVES
100
AcDbLine
 62
40
  6
CONTINUOUS
 10
6.3997735957
 20
3.4769791826
 11
6.3997735957
 21
3.4253416826
  0
LINE
  5
376
100
AcDbEntity
  8
0
100
AcDbLine
 62
7
  6
CONTINUOUS
 10
6.4461360746
 20
4.6634791826
 11
6.4461360746
 21
3.7904791826
  0
LINE
  5
377
100
AcDbEntity
  8
03__ASM_ALL_CURVES
100
AcDbLine
 62
40
  6
CONTINUOUS
 10
6.4531960738
 20
5.0801431826
 11
6.4531960738
 21
5.1489931826
  0
LINE
  5
378
100
AcDbEntity
  8
03__ASM_ALL_CURVES
100
AcDbLine
 62
40
  6
CONTINUOUS
 10
6.4643204707
 20
3.4683729316
 11
6.4643204707
 21
3.4597666836
  0
LINE
  5
379
100
AcDbEntity
  8
03__ASM_ALL_CURVES
100
AcDbLine
 62
40
  6
CONTINUOUS
 10
6.2771345332
 20
3.4511604326
 11
6.2803618769
 21
3.4640698076
  0
LINE
  5
37A
100
AcDbEntity
  8
0
100
AcDbLine
 62
7
  6
CONTINUOUS
 10
4.5117104488
 20
4.8603644921
 11
4.0497467459
 21
4.8603644921
  0
LINE
  5
37B
100
AcDbEntity
  8
0
100
AcDbLine
 62
7
  6
CONTINUOUS
 10
4.5117104488
 20
4.8609791826
 11
4.0497467459
 21
4.8609791826
  0
LINE
  5
37C
100
AcDbEntity
  8
03__ASM_ALL_CURVES
100
AcDbLine
 62
40
  6
CONTINUOUS
 10
4.0867560746
 20
5.0480131826
 11
4.0041360746
 21
5.0526031826
  0
LINE
  5
37D
100
AcDbEntity
  8
03__ASM_ALL_CURVES
100
AcDbLine
 62
40
  6
CONTINUOUS
 10
4.0867560746
 20
5.0457181826
 11
4.0041360746
 21
5.0526031826
  0
LINE
  5
37E
100
AcDbEntity
  8
03__ASM_ALL_CURVES
100
AcDbLine
 62
40
  6
CONTINUOUS
 10
4.0867560746
 20
5.0434231826
 11
4.0041360746
 21
5.0526031826
  0
LINE
  5
37F
100
AcDbEntity
  8
03__ASM_ALL_CURVES
100
AcDbLine
 62
40
  6
CONTINUOUS
 10
5.6399054488
 20
5.0801431826
 11
5.6312991988
 21
5.0858806828
  0
LINE
  5
380
100
AcDbEntity
  8
03__ASM_ALL_CURVES
100
AcDbLine
 62
40
  6
CONTINUOUS
 10
5.5796616988
 20
5.1489931826
 11
5.5882679488
 21
5.143255684
  0
LINE
  5
381
100
AcDbEntity
  8
03__ASM_ALL_CURVES
100
AcDbLine
 62
40
  6
CONTINUOUS
 10
5.6485116988
 20
5.1489931826
 11
5.6571179488
 21
5.143255684
  0
LINE
  5
382
100
AcDbEntity
  8
03__ASM_ALL_CURVES
100
AcDbLine
 62
40
  6
CONTINUOUS
 10
5.9755491988
 20
5.0858806828
 11
5.9669429488
 21
5.0973556826
  0
LINE
  5
383
100
AcDbEntity
  8
03__ASM_ALL_CURVES
100
AcDbLine
 62
40
  6
CONTINUOUS
 10
6.0013679488
 20
5.143255684
 11
6.0056710738
 21
5.1375181812
  0
LINE
  5
384
100
AcDbEntity
  8
03__ASM_ALL_CURVES
100
AcDbLine
 62
40
  6
CONTINUOUS
 10
6.2423429488
 20
5.0973556826
 11
6.2380398238
 21
5.1145681826
  0
LINE
  5
385
100
AcDbEntity
  8
03__ASM_ALL_CURVES
100
AcDbLine
 62
40
  6
CONTINUOUS
 10
6.2853741988
 20
5.1317806826
 11
6.2896773238
 21
5.1145681826
  0
LINE
  5
386
100
AcDbEntity
  8
0
100
AcDbLine
 62
7
  6
CONTINUOUS
 10
6.5031360746
 20
4.6634791826
 11
6.5031360746
 21
3.7904791826
  0
LINE
  5
387
100
AcDbEntity
  8
03__ASM_ALL_CURVES
100
AcDbLine
 62
40
  6
CONTINUOUS
 10
6.5220460738
 20
5.0801431826
 11
6.5220460738
 21
5.1489931826
  0
LINE
  5
388
100
AcDbEntity
  8
0
100
AcDbLine
 62
7
  6
CONTINUOUS
 10
6.5531360746
 20
3.7909798455
 11
6.5531360746
 21
4.6629785197
  0
LINE
  5
389
100
AcDbEntity
  8
03__ASM_ALL_CURVES
100
AcDbLine
 62
40
  6
CONTINUOUS
 10
6.5908960738
 20
5.0801431826
 11
6.5908960738
 21
5.1489931826
  0
LINE
  5
38A
100
AcDbEntity
  8
03__ASM_ALL_CURVES
100
AcDbLine
 62
40
  6
CONTINUOUS
 10
6.3158626582
 20
3.4511604326
 11
6.3126353144
 21
3.4382510576
  0
LINE
  5
38B
100
AcDbEntity
  8
03__ASM_ALL_CURVES
100
AcDbLine
 62
40
  6
CONTINUOUS
 10
5.2965160746
 20
5.0434231826
 11
5.4617560746
 21
5.0617831826
  0
LINE
  5
38C
100
AcDbEntity
  8
03__ASM_ALL_CURVES
100
AcDbLine
 62
40
  6
CONTINUOUS
 10
5.2965160746
 20
5.0457181826
 11
5.4617560746
 21
5.0594881826
  0
LINE
  5
38D
100
AcDbEntity
  8
03__ASM_ALL_CURVES
100
AcDbLine
 62
40
  6
CONTINUOUS
 10
5.2965160746
 20
5.0480131826
 11
5.4617560746
 21
5.0571931826
  0
LINE
  5
38E
100
AcDbEntity
  8
03__ASM_ALL_CURVES
100
AcDbLine
 62
40
  6
CONTINUOUS
 10
5.2965160746
 20
5.0503081826
 11
5.4617560746
 21
5.0548981826
  0
LINE
  5
38F
100
AcDbEntity
  8
03__ASM_ALL_CURVES
100
AcDbLine
 62
40
  6
CONTINUOUS
 10
4.0867560746
 20
5.0548981826
 11
4.0041360746
 21
5.0526031826
  0
LINE
  5
390
100
AcDbEntity
  8
03__ASM_ALL_CURVES
100
AcDbLine
 62
40
  6
CONTINUOUS
 10
4.0041360746
 20
5.0526031826
 11
6.7010560746
 21
5.0526031826
  0
LINE
  5
391
100
AcDbEntity
  8
03__ASM_ALL_CURVES
100
AcDbLine
 62
40
  6
CONTINUOUS
 10
6.5564710738
 20
5.0801431826
 11
6.5220460738
 21
5.0801431826
  0
LINE
  5
392
100
AcDbEntity
  8
03__ASM_ALL_CURVES
100
AcDbLine
 62
40
  6
CONTINUOUS
 10
6.4704085738
 20
5.0801431826
 11
6.4531960738
 21
5.0801431826
  0
LINE
  5
393
100
AcDbEntity
  8
03__ASM_ALL_CURVES
100
AcDbLine
 62
40
  6
CONTINUOUS
 10
6.3370116988
 20
5.0801431826
 11
6.3284054488
 21
5.0801431826
  0
LINE
  5
394
100
AcDbEntity
  8
03__ASM_ALL_CURVES
100
AcDbLine
 62
40
  6
CONTINUOUS
 10
6.2681616988
 20
5.0801431826
 11
6.2595554488
 21
5.0801431826
  0
LINE
  5
395
100
AcDbEntity
  8
03__ASM_ALL_CURVES
100
AcDbLine
 62
40
  6
CONTINUOUS
 10
6.1304616988
 20
5.0801431826
 11
6.1218554488
 21
5.0801431826
  0
LINE
  5
396
100
AcDbEntity
  8
03__ASM_ALL_CURVES
100
AcDbLine
 62
40
  6
CONTINUOUS
 10
5.9927616988
 20
5.0801431826
 11
5.9841554488
 21
5.0801431826
  0
LINE
  5
397
100
AcDbEntity
  8
03__ASM_ALL_CURVES
100
AcDbLine
 62
40
  6
CONTINUOUS
 10
5.6485116988
 20
5.0801431826
 11
5.6399054488
 21
5.0801431826
  0
LINE
  5
398
100
AcDbEntity
  8
03__ASM_ALL_CURVES
100
AcDbLine
 62
40
  6
CONTINUOUS
 10
5.5796616988
 20
5.0801431826
 11
5.5710554488
 21
5.0801431826
  0
LINE
  5
399
100
AcDbEntity
  8
03__ASM_ALL_CURVES
100
AcDbLine
 62
40
  6
CONTINUOUS
 10
4.8293360746
 20
5.0801431826
 11
4.8250329496
 21
5.0801431826
  0
LINE
  5
39A
100
AcDbEntity
  8
03__ASM_ALL_CURVES
100
AcDbLine
 62
40
  6
CONTINUOUS
 10
4.6959391996
 20
5.0801431826
 11
4.6873329496
 21
5.0801431826
  0
LINE
  5
39B
100
AcDbEntity
  8
03__ASM_ALL_CURVES
100
AcDbLine
 62
40
  6
CONTINUOUS
 10
4.4893891996
 20
5.0801431826
 11
4.4807829496
 21
5.0801431826
  0
LINE
  5
39C
100
AcDbEntity
  8
03__ASM_ALL_CURVES
100
AcDbLine
 62
40
  6
CONTINUOUS
 10
4.4162360746
 20
5.0801431826
 11
4.4119329496
 21
5.0801431826
  0
LINE
  5
39D
100
AcDbEntity
  8
03__ASM_ALL_CURVES
100
AcDbLine
 62
40
  6
CONTINUOUS
 10
5.4892960738
 20
5.0801431826
 11
5.5237210738
 21
5.0801431826
  0
LINE
  5
39E
100
AcDbEntity
  8
03__ASM_ALL_CURVES
100
AcDbLine
 62
40
  6
CONTINUOUS
 10
6.3843460738
 20
5.0801431826
 11
6.4187710738
 21
5.0801431826
  0
LINE
  5
39F
100
AcDbEntity
  8
03__ASM_ALL_CURVES
100
AcDbLine
 62
40
  6
CONTINUOUS
 10
4.7432735746
 20
5.0973556826
 11
4.7820016996
 21
5.0973556826
  0
LINE
  5
3A0
100
AcDbEntity
  8
03__ASM_ALL_CURVES
100
AcDbLine
 62
40
  6
CONTINUOUS
 10
4.0867560746
 20
5.0503081826
 11
4.0041360746
 21
5.0526031826
  0
LINE
  5
3A1
100
AcDbEntity
  8
03__ASM_ALL_CURVES
100
AcDbLine
 62
40
  6
CONTINUOUS
 10
5.2965160746
 20
5.0548981826
 11
5.4617560746
 21
5.0503081826
  0
LINE
  5
3A2
100
AcDbEntity
  8
03__ASM_ALL_CURVES
100
AcDbLine
 62
40
  6
CONTINUOUS
 10
5.2965160746
 20
5.0571931826
 11
5.4617560746
 21
5.0480131826
  0
LINE
  5
3A3
100
AcDbEntity
  8
03__ASM_ALL_CURVES
100
AcDbLine
 62
40
  6
CONTINUOUS
 10
5.2965160746
 20
5.0594881826
 11
5.4617560746
 21
5.0457181826
  0
LINE
  5
3A4
100
AcDbEntity
  8
03__ASM_ALL_CURVES
100
AcDbLine
 62
40
  6
CONTINUOUS
 10
5.2965160746
 20
5.0617831826
 11
5.4617560746
 21
5.0434231826
  0
LINE
  5
3A5
100
AcDbEntity
  8
03__ASM_ALL_CURVES
100
AcDbLine
 62
40
  6
CONTINUOUS
 10
5.2965160746
 20
5.0640781826
 11
5.4617560746
 21
5.0411281826
  0
LINE
  5
3A6
100
AcDbEntity
  8
03__ASM_ALL_CURVES
100
AcDbLine
 62
40
  6
CONTINUOUS
 10
5.4617560746
 20
5.0388331826
 11
5.2965160746
 21
5.0663731826
  0
LINE
  5
3A7
100
AcDbEntity
  8
03__ASM_ALL_CURVES
100
AcDbLine
 62
40
  6
CONTINUOUS
 10
5.9841554488
 20
5.0801431826
 11
5.9755491988
 21
5.0858806828
  0
LINE
  5
3A8
100
AcDbEntity
  8
03__ASM_ALL_CURVES
100
AcDbLine
 62
40
  6
CONTINUOUS
 10
6.1132491988
 20
5.0858806828
 11
6.1046429488
 21
5.0973556826
  0
LINE
  5
3A9
100
AcDbEntity
  8
03__ASM_ALL_CURVES
100
AcDbLine
 62
40
  6
CONTINUOUS
 10
6.1089460738
 20
5.1317806826
 11
6.1132491988
 21
5.126043184
  0
LINE
  5
3AA
100
AcDbEntity
  8
03__ASM_ALL_CURVES
100
AcDbLine
 62
40
  6
CONTINUOUS
 10
6.1390679488
 20
5.1088306819
 11
6.1433710738
 21
5.1030931833
  0
LINE
  5
3AB
100
AcDbEntity
  8
03__ASM_ALL_CURVES
100
AcDbLine
 62
40
  6
CONTINUOUS
 10
6.1433710738
 20
5.1375181812
 11
6.1390679488
 21
5.143255684
  0
LINE
  5
3AC
100
AcDbEntity
  8
0
100
AcDbLine
 62
7
  6
CONTINUOUS
 10
6.6231360746
 20
3.7909798455
 11
6.6231360746
 21
4.6629785197
  0
LINE
  5
3AD
100
AcDbEntity
  8
03__ASM_ALL_CURVES
100
AcDbLine
 62
40
  6
CONTINUOUS
 10
6.6253210738
 20
5.1375181812
 11
6.6253210738
 21
5.126043184
  0
LINE
  5
3AE
100
AcDbEntity
  8
0
100
AcDbLine
 62
7
  6
CONTINUOUS
 10
6.6731360746
 20
3.7909798455
 11
6.6731360746
 21
4.6629785197
  0
LINE
  5
3AF
100
AcDbEntity
  8
0
100
AcDbLine
 62
7
  6
CONTINUOUS
 10
6.7011360746
 20
4.6634791826
 11
6.7011360746
 21
3.7904791826
  0
LINE
  5
3B0
100
AcDbEntity
  8
0
100
AcDbLine
 62
7
  6
CONTINUOUS
 10
6.7421360746
 20
3.7904791826
 11
6.7421360746
 21
4.6634791826
  0
LINE
  5
3B1
100
AcDbEntity
  8
03__ASM_ALL_CURVES
100
AcDbLine
 62
40
  6
CONTINUOUS
 10
6.4417290644
 20
3.4382510576
 11
6.4385017207
 21
3.4253416826
  0
LINE
  5
3B2
100
AcDbEntity
  8
03__ASM_ALL_CURVES
100
AcDbLine
 62
40
  6
CONTINUOUS
 10
6.2577704707
 20
3.4597666836
 11
6.2545431269
 21
3.4554635566
  0
LINE
  5
3B3
100
AcDbEntity
  8
03__ASM_ALL_CURVES
100
AcDbLine
 62
40
  6
CONTINUOUS
 10
6.2803618769
 20
3.4640698076
 11
6.2868165644
 21
3.4726760586
  0
LINE
  5
3B4
100
AcDbEntity
  8
03__ASM_ALL_CURVES
100
AcDbLine
 62
40
  6
CONTINUOUS
 10
6.3126353144
 20
3.4382510576
 11
6.3061806269
 21
3.4296448077
  0
LINE
  5
3B5
100
AcDbEntity
  8
03__ASM_ALL_CURVES
100
AcDbLine
 62
40
  6
CONTINUOUS
 10
6.3610454707
 20
3.4597666836
 11
6.3578181269
 21
3.4554635566
  0
LINE
  5
3B6
100
AcDbEntity
  8
03__ASM_ALL_CURVES
100
AcDbLine
 62
40
  6
CONTINUOUS
 10
7.4017274808
 20
4.2708710566
 11
7.3952727933
 21
4.2665679326
  0
LINE
  5
3B7
100
AcDbEntity
  8
03__ASM_ALL_CURVES
100
AcDbLine
 62
40
  6
CONTINUOUS
 10
7.4340009183
 20
4.2880835586
 11
7.4404556058
 21
4.2923866826
  0
LINE
  5
3B8
100
AcDbEntity
  8
03__ASM_ALL_CURVES
100
AcDbLine
 62
40
  6
CONTINUOUS
 10
6.2545431269
 20
3.4554635566
 11
6.2480884394
 21
3.4511604326
  0
LINE
  5
3B9
100
AcDbEntity
  8
03__ASM_ALL_CURVES
100
AcDbLine
 62
40
  6
CONTINUOUS
 10
6.2868165644
 20
3.4726760586
 11
6.2932712519
 21
3.4769791826
  0
LINE
  5
3BA
100
AcDbEntity
  8
03__ASM_ALL_CURVES
100
AcDbLine
 62
40
  6
CONTINUOUS
 10
5.2965160746
 20
5.0388331826
 11
5.4617560746
 21
5.0663731826
  0
LINE
  5
3BB
100
AcDbEntity
  8
03__ASM_ALL_CURVES
100
AcDbLine
 62
40
  6
CONTINUOUS
 10
5.2965160746
 20
5.0411281826
 11
5.4617560746
 21
5.0640781826
  0
LINE
  5
3BC
100
AcDbEntity
  8
03__ASM_ALL_CURVES
100
AcDbLine
 62
40
  6
CONTINUOUS
 10
4.0867560746
 20
5.0594881826
 11
4.0041360746
 21
5.0526031826
  0
LINE
  5
3BD
100
AcDbEntity
  8
03__ASM_ALL_CURVES
100
AcDbLine
 62
40
  6
CONTINUOUS
 10
4.0867560746
 20
5.0571931826
 11
4.0041360746
 21
5.0526031826
  0
LINE
  5
3BE
100
AcDbEntity
  8
03__ASM_ALL_CURVES
100
AcDbLine
 62
40
  6
CONTINUOUS
 10
5.7001491988
 20
5.1030931833
 11
5.7259679488
 21
5.1030931833
  0
LINE
  5
3BF
100
AcDbEntity
  8
03__ASM_ALL_CURVES
100
AcDbLine
 62
40
  6
CONTINUOUS
 10
6.6124116988
 20
5.1145681826
 11
6.5908960738
 21
5.1145681826
  0
LINE
  5
3C0
100
AcDbEntity
  8
03__ASM_ALL_CURVES
100
AcDbLine
 62
40
  6
CONTINUOUS
 10
5.9884585738
 20
5.1145681826
 11
6.0056710738
 21
5.1145681826
  0
LINE
  5
3C1
100
AcDbEntity
  8
03__ASM_ALL_CURVES
100
AcDbLine
 62
40
  6
CONTINUOUS
 10
6.1777960738
 20
5.1145681826
 11
6.2122210738
 21
5.1145681826
  0
LINE
  5
3C2
100
AcDbEntity
  8
03__ASM_ALL_CURVES
100
AcDbLine
 62
40
  6
CONTINUOUS
 10
6.5220460738
 20
5.1145681826
 11
6.5435616988
 21
5.1145681826
  0
LINE
  5
3C3
100
AcDbEntity
  8
03__ASM_ALL_CURVES
100
AcDbLine
 62
40
  6
CONTINUOUS
 10
4.4807829496
 20
5.1203056812
 11
4.4893891996
 21
5.1203056812
  0
LINE
  5
3C4
100
AcDbEntity
  8
03__ASM_ALL_CURVES
100
AcDbLine
 62
40
  6
CONTINUOUS
 10
4.6873329496
 20
5.1203056812
 11
4.6959391996
 21
5.1203056812
  0
LINE
  5
3C5
100
AcDbEntity
  8
03__ASM_ALL_CURVES
100
AcDbLine
 62
40
  6
CONTINUOUS
 10
6.1304616988
 20
5.1489931826
 11
6.1218554488
 21
5.1489931826
  0
LINE
  5
3C6
100
AcDbEntity
  8
03__ASM_ALL_CURVES
100
AcDbLine
 62
40
  6
CONTINUOUS
 10
4.9153985746
 20
5.1489931826
 11
4.8809735746
 21
5.1489931826
  0
LINE
  5
3C7
100
AcDbEntity
  8
03__ASM_ALL_CURVES
100
AcDbLine
 62
40
  6
CONTINUOUS
 10
4.5711485746
 20
5.1489931826
 11
4.5367235746
 21
5.1489931826
  0
LINE
  5
3C8
100
AcDbEntity
  8
03__ASM_ALL_CURVES
100
AcDbLine
 62
40
  6
CONTINUOUS
 10
4.4807829496
 20
5.1489931826
 11
4.4893891996
 21
5.1489931826
  0
LINE
  5
3C9
100
AcDbEntity
  8
03__ASM_ALL_CURVES
100
AcDbLine
 62
40
  6
CONTINUOUS
 10
4.6873329496
 20
5.1489931826
 11
4.6959391996
 21
5.1489931826
  0
LINE
  5
3CA
100
AcDbEntity
  8
03__ASM_ALL_CURVES
100
AcDbLine
 62
40
  6
CONTINUOUS
 10
5.5710554488
 20
5.1489931826
 11
5.5796616988
 21
5.1489931826
  0
LINE
  5
3CB
100
AcDbEntity
  8
03__ASM_ALL_CURVES
100
AcDbLine
 62
40
  6
CONTINUOUS
 10
5.6399054488
 20
5.1489931826
 11
5.6485116988
 21
5.1489931826
  0
LINE
  5
3CC
100
AcDbEntity
  8
03__ASM_ALL_CURVES
100
AcDbLine
 62
40
  6
CONTINUOUS
 10
5.7603929488
 20
5.1489931826
 11
5.8034241988
 21
5.1489931826
  0
LINE
  5
3CD
100
AcDbEntity
  8
03__ASM_ALL_CURVES
100
AcDbLine
 62
40
  6
CONTINUOUS
 10
5.9841554488
 20
5.1489931826
 11
5.9927616988
 21
5.1489931826
  0
LINE
  5
3CE
100
AcDbEntity
  8
03__ASM_ALL_CURVES
100
AcDbLine
 62
40
  6
CONTINUOUS
 10
6.2595554488
 20
5.1489931826
 11
6.2681616988
 21
5.1489931826
  0
LINE
  5
3CF
100
AcDbEntity
  8
03__ASM_ALL_CURVES
100
AcDbLine
 62
40
  6
CONTINUOUS
 10
6.4531960738
 20
5.1489931826
 11
6.4704085738
 21
5.1489931826
  0
LINE
  5
3D0
100
AcDbEntity
  8
03__ASM_ALL_CURVES
100
AcDbLine
 62
40
  6
CONTINUOUS
 10
6.5220460738
 20
5.1489931826
 11
6.5564710738
 21
5.1489931826
  0
LINE
  5
3D1
100
AcDbEntity
  8
03__ASM_ALL_CURVES
100
AcDbLine
 62
40
  6
CONTINUOUS
 10
6.5908960738
 20
5.1489931826
 11
6.6124116988
 21
5.1489931826
  0
LINE
  5
3D2
100
AcDbEntity
  8
03__ASM_ALL_CURVES
100
AcDbLine
 62
40
  6
CONTINUOUS
 10
5.9927616988
 20
5.1489931826
 11
6.0013679488
 21
5.143255684
  0
LINE
  5
3D3
100
AcDbEntity
  8
03__ASM_ALL_CURVES
100
AcDbLine
 62
40
  6
CONTINUOUS
 10
6.1218554488
 20
5.0801431826
 11
6.1132491988
 21
5.0858806828
  0
LINE
  5
3D4
100
AcDbEntity
  8
03__ASM_ALL_CURVES
100
AcDbLine
 62
40
  6
CONTINUOUS
 10
7.4404556058
 20
4.2407491826
 11
7.4340009183
 21
4.2450523077
  0
LINE
  5
3D5
100
AcDbEntity
  8
03__ASM_ALL_CURVES
100
AcDbLine
 62
40
  6
CONTINUOUS
 10
6.1132491988
 20
5.126043184
 11
6.1390679488
 21
5.1088306819
  0
LINE
  5
3D6
100
AcDbEntity
  8
03__ASM_ALL_CURVES
100
AcDbLine
 62
40
  6
CONTINUOUS
 10
7.3952727933
 20
4.2923866826
 11
7.4017274808
 21
4.2880835586
  0
LINE
  5
3D7
100
AcDbEntity
  8
03__ASM_ALL_CURVES
100
AcDbLine
 62
40
  6
CONTINUOUS
 10
6.1390679488
 20
5.143255684
 11
6.1304616988
 21
5.1489931826
  0
LINE
  5
3D8
100
AcDbEntity
  8
03__ASM_ALL_CURVES
100
AcDbLine
 62
40
  6
CONTINUOUS
 10
6.2595554488
 20
5.0801431826
 11
6.2509491988
 21
5.0858806828
  0
LINE
  5
3D9
100
AcDbEntity
  8
03__ASM_ALL_CURVES
100
AcDbLine
 62
40
  6
CONTINUOUS
 10
7.4469102933
 20
4.2923866826
 11
7.4533649808
 21
4.2880835586
  0
LINE
  5
3DA
100
AcDbEntity
  8
03__ASM_ALL_CURVES
100
AcDbLine
 62
40
  6
CONTINUOUS
 10
7.4985477933
 20
4.2923866826
 11
7.5050024808
 21
4.2880835586
  0
LINE
  5
3DB
100
AcDbEntity
  8
0
100
AcDbLine
 62
7
  6
CONTINUOUS
 10
6.7421360746
 20
4.6634791826
 11
6.7581360746
 21
4.6474791826
  0
LINE
  5
3DC
100
AcDbEntity
  8
03__ASM_ALL_CURVES
100
AcDbLine
 62
40
  6
CONTINUOUS
 10
6.2509491988
 20
5.0858806828
 11
6.2423429488
 21
5.0973556826
  0
LINE
  5
3DD
100
AcDbEntity
  8
03__ASM_ALL_CURVES
100
AcDbLine
 62
40
  6
CONTINUOUS
 10
6.3197991988
 20
5.0858806828
 11
6.3154960738
 21
5.0916181829
  0
LINE
  5
3DE
100
AcDbEntity
  8
03__ASM_ALL_CURVES
100
AcDbLine
 62
40
  6
CONTINUOUS
 10
6.2767679488
 20
5.143255684
 11
6.2853741988
 21
5.1317806826
  0
LINE
  5
3DF
100
AcDbEntity
  8
03__ASM_ALL_CURVES
100
AcDbLine
 62
40
  6
CONTINUOUS
 10
6.4876210738
 20
5.1317806826
 11
6.4919241988
 21
5.1145681826
  0
LINE
  5
3E0
100
AcDbEntity
  8
0
100
AcDbLine
 62
7
  6
CONTINUOUS
 10
6.7581360746
 20
3.8064791826
 11
6.7581360746
 21
4.6474791826
  0
LINE
  5
3E1
100
AcDbEntity
  8
03__ASM_ALL_CURVES
100
AcDbLine
 62
40
  6
CONTINUOUS
 10
6.4385017207
 20
3.4683729316
 11
6.4417290644
 21
3.4726760586
  0
LINE
  5
3E2
100
AcDbEntity
  8
03__ASM_ALL_CURVES
100
AcDbLine
 62
40
  6
CONTINUOUS
 10
6.4481837519
 20
3.4468573071
 11
6.4417290644
 21
3.4382510576
  0
LINE
  5
3E3
100
AcDbEntity
  8
03__ASM_ALL_CURVES
100
AcDbLine
 62
40
  6
CONTINUOUS
 10
6.4643204707
 20
3.4597666836
 11
6.4610931269
 21
3.4554635566
  0
LINE
  5
3E4
100
AcDbEntity
  8
0
100
AcDbLine
 62
7
  6
CONTINUOUS
 10
6.7421360746
 20
3.7904791826
 11
6.7581360746
 21
3.8064791826
  0
LINE
  5
3E5
100
AcDbEntity
  8
03__ASM_ALL_CURVES
100
AcDbLine
 62
40
  6
CONTINUOUS
 10
7.4533649808
 20
4.2450523077
 11
7.4469102933
 21
4.2407491826
  0
LINE
  5
3E6
100
AcDbEntity
  8
03__ASM_ALL_CURVES
100
AcDbLine
 62
40
  6
CONTINUOUS
 10
7.5050024808
 20
4.2708710566
 11
7.4985477933
 21
4.2665679326
  0
LINE
  5
3E7
100
AcDbEntity
  8
03__ASM_ALL_CURVES
100
AcDbLine
 62
40
  6
CONTINUOUS
 10
6.3061806269
 20
3.4296448077
 11
6.2997259394
 21
3.4253416826
  0
LINE
  5
3E8
100
AcDbEntity
  8
03__ASM_ALL_CURVES
100
AcDbLine
 62
40
  6
CONTINUOUS
 10
6.3578181269
 20
3.4554635566
 11
6.3513634394
 21
3.4511604326
  0
LINE
  5
3E9
100
AcDbEntity
  8
03__ASM_ALL_CURVES
100
AcDbLine
 62
40
  6
CONTINUOUS
 10
6.4417290644
 20
3.4726760586
 11
6.4481837519
 21
3.4769791826
  0
LINE
  5
3EA
100
AcDbEntity
  8
03__ASM_ALL_CURVES
100
AcDbLine
 62
40
  6
CONTINUOUS
 10
6.4610931269
 20
3.4554635566
 11
6.4481837519
 21
3.4468573071
  0
LINE
  5
3EB
100
AcDbEntity
  8
03__ASM_ALL_CURVES
100
AcDbLine
 62
40
  6
CONTINUOUS
 10
4.0041360746
 20
5.0526031826
 11
4.0867560746
 21
5.0663731826
  0
LINE
  5
3EC
100
AcDbEntity
  8
03__ASM_ALL_CURVES
100
AcDbLine
 62
40
  6
CONTINUOUS
 10
4.0867560746
 20
5.0640781826
 11
4.0041360746
 21
5.0526031826
  0
LINE
  5
3ED
100
AcDbEntity
  8
03__ASM_ALL_CURVES
100
AcDbLine
 62
40
  6
CONTINUOUS
 10
4.0867560746
 20
5.0617831826
 11
4.0041360746
 21
5.0526031826
  0
LINE
  5
3EE
100
AcDbEntity
  8
03__ASM_ALL_CURVES
100
AcDbLine
 62
40
  6
CONTINUOUS
 10
6.3284054488
 20
5.0801431826
 11
6.3197991988
 21
5.0858806828
  0
LINE
  5
3EF
100
AcDbEntity
  8
03__ASM_ALL_CURVES
100
AcDbLine
 62
40
  6
CONTINUOUS
 10
6.2681616988
 20
5.1489931826
 11
6.2767679488
 21
5.143255684
  0
LINE
  5
3F0
100
AcDbEntity
  8
03__ASM_ALL_CURVES
100
AcDbLine
 62
40
  6
CONTINUOUS
 10
6.4790148238
 20
5.143255684
 11
6.4876210738
 21
5.1317806826
  0
LINE
  5
3F1
100
AcDbEntity
  8
03__ASM_ALL_CURVES
100
AcDbLine
 62
40
  6
CONTINUOUS
 10
6.6124116988
 20
5.1145681826
 11
6.6253210738
 21
5.0801431826
  0
LINE
  5
3F2
100
AcDbEntity
  8
03__ASM_ALL_CURVES
100
AcDbLine
 62
40
  6
CONTINUOUS
 10
6.4704085738
 20
5.1489931826
 11
6.4790148238
 21
5.143255684
  0
LINE
  5
3F3
100
AcDbEntity
  8
03__ASM_ALL_CURVES
100
AcDbLine
 62
40
  6
CONTINUOUS
 10
6.6124116988
 20
5.1489931826
 11
6.6210179488
 21
5.143255684
  0
LINE
  5
3F4
100
AcDbEntity
  8
03__ASM_ALL_CURVES
100
AcDbLine
 62
40
  6
CONTINUOUS
 10
6.6210179488
 20
5.143255684
 11
6.6253210738
 21
5.1375181812
  0
LINE
  5
3F5
100
AcDbEntity
  8
03__ASM_ALL_CURVES
100
AcDbLine
 62
40
  6
CONTINUOUS
 10
7.4049548245
 20
4.2751741836
 11
7.4017274808
 21
4.2708710566
  0
LINE
  5
3F6
100
AcDbEntity
  8
03__ASM_ALL_CURVES
100
AcDbLine
 62
40
  6
CONTINUOUS
 10
7.4275462308
 20
4.2794773076
 11
7.4340009183
 21
4.2880835586
  0
LINE
  5
3F7
100
AcDbEntity
  8
03__ASM_ALL_CURVES
100
AcDbLine
 62
40
  6
CONTINUOUS
 10
7.4340009183
 20
4.2450523077
 11
7.4275462308
 21
4.2536585576
  0
LINE
  5
3F8
100
AcDbEntity
  8
03__ASM_ALL_CURVES
100
AcDbLine
 62
40
  6
CONTINUOUS
 10
7.4017274808
 20
4.2880835586
 11
7.4049548245
 21
4.2837804316
  0
LINE
  5
3F9
100
AcDbEntity
  8
03__ASM_ALL_CURVES
100
AcDbLine
 62
40
  6
CONTINUOUS
 10
7.4533649808
 20
4.2880835586
 11
7.4598196683
 21
4.2794773076
  0
LINE
  5
3FA
100
AcDbEntity
  8
03__ASM_ALL_CURVES
100
AcDbLine
 62
40
  6
CONTINUOUS
 10
7.4598196683
 20
4.2536585576
 11
7.4533649808
 21
4.2450523077
  0
LINE
  5
3FB
100
AcDbEntity
  8
03__ASM_ALL_CURVES
100
AcDbLine
 62
40
  6
CONTINUOUS
 10
7.5082298245
 20
4.2751741836
 11
7.5050024808
 21
4.2708710566
  0
LINE
  5
3FC
100
AcDbEntity
  8
03__ASM_ALL_CURVES
100
AcDbLine
 62
40
  6
CONTINUOUS
 10
7.5050024808
 20
4.2880835586
 11
7.5082298245
 21
4.2837804316
  0
LINE
  5
3FD
100
AcDbEntity
  8
03__ASM_ALL_CURVES
100
AcDbLine
 62
40
  6
CONTINUOUS
 10
7.3791360745
 20
4.2407491826
 11
7.3791360745
 21
4.2923866826
  0
LINE
  5
3FE
100
AcDbEntity
  8
03__ASM_ALL_CURVES
100
AcDbLine
 62
40
  6
CONTINUOUS
 10
7.4049548245
 20
4.2837804316
 11
7.4049548245
 21
4.2751741836
  0
LINE
  5
3FF
100
AcDbEntity
  8
03__ASM_ALL_CURVES
100
AcDbLine
 62
40
  6
CONTINUOUS
 10
7.424318887
 20
4.2665679326
 11
7.4275462308
 21
4.2794773076
  0
LINE
  5
400
100
AcDbEntity
  8
03__ASM_ALL_CURVES
100
AcDbLine
 62
40
  6
CONTINUOUS
 10
7.4985477933
 20
4.2665679326
 11
7.5082298245
 21
4.2407491826
  0
LINE
  5
401
100
AcDbEntity
  8
03__ASM_ALL_CURVES
100
AcDbLine
 62
40
  6
CONTINUOUS
 10
7.4275462308
 20
4.2536585576
 11
7.424318887
 21
4.2665679326
  0
LINE
  5
402
100
AcDbEntity
  8
03__ASM_ALL_CURVES
100
AcDbLine
 62
40
  6
CONTINUOUS
 10
7.4598196683
 20
4.2794773076
 11
7.463047012
 21
4.2665679326
  0
LINE
  5
403
100
AcDbEntity
  8
03__ASM_ALL_CURVES
100
AcDbLine
 62
40
  6
CONTINUOUS
 10
7.4824110745
 20
4.2407491826
 11
7.4824110745
 21
4.2923866826
  0
LINE
  5
404
100
AcDbEntity
  8
03__ASM_ALL_CURVES
100
AcDbLine
 62
40
  6
CONTINUOUS
 10
7.5082298245
 20
4.2837804316
 11
7.5082298245
 21
4.2751741836
  0
LINE
  5
405
100
AcDbEntity
  8
03__ASM_ALL_CURVES
100
AcDbLine
 62
40
  6
CONTINUOUS
 10
7.463047012
 20
4.2665679326
 11
7.4598196683
 21
4.2536585576
  0
LINE
  5
406
100
AcDbEntity
  8
03__ASM_ALL_CURVES
100
AcDbLine
 62
40
  6
CONTINUOUS
 10
7.5469579495
 20
4.2923866826
 11
7.5469579495
 21
4.2407491826
  0
LINE
  5
407
100
AcDbEntity
  8
03__ASM_ALL_CURVES
100
AcDbLine
 62
40
  6
CONTINUOUS
 10
7.5985954495
 20
4.2923866826
 11
7.5985954495
 21
4.2407491826
  0
CIRCLE
  5
408
100
AcDbEntity
  8
0
100
AcDbCircle
 62
7
  6
CONTINUOUS
 10
6.1641360746
 20
4.2269791826
 40
0.125
  0
ARC
  5
409
100
AcDbEntity
  8
THREAD
100
AcDbCircle
 62
7
  6
CONTINUOUS
 10
5.5599191963
 20
3.7564791826
 40
0.0125
100
AcDbArc
 50
29.9999999998
 51
90.0
  0
ARC
  5
40A
100
AcDbEntity
  8
THREAD
100
AcDbCircle
 62
7
  6
CONTINUOUS
 10
5.5599191963
 20
4.6974791826
 40
0.0125
100
AcDbArc
 50
270.0
 51
330.0000000054
  0
SPLINE
  5
40B
100
AcDbEntity
  8
0
100
AcDbSpline
 62
7
  6
CONTINUOUS
 70
0
 71
3
 72
85
 73
81
 74
79
 42
0.0000001
 43
0.0000001
 44
0.0000000001
 12
0.0
 22
-0.7171132247
 32
-0.0703135665
 13
0.0
 23
-0.0728388233
 33
-0.7297510621
 40
0.0
 40
0.0
 40
0.0
 40
0.0
 40
0.03125
 40
0.0625
 40
0.078125
 40
0.09375
 40
0.109375
 40
0.1171875
 40
0.12109375
 40
0.125
 40
0.12890625
 40
0.1328125
 40
0.140625
 40
0.15625
 40
0.1875
 40
0.21875
 40
0.234375
 40
0.2421875
 40
0.24609375
 40
0.25
 40
0.25390625
 40
0.2578125
 40
0.265625
 40
0.28125
 40
0.3125
 40
0.34375
 40
0.359375
 40
0.3671875
 40
0.37109375
 40
0.375
 40
0.37890625
 40
0.3828125
 40
0.390625
 40
0.40625
 40
0.421875
 40
0.4375
 40
0.453125
 40
0.46875
 40
0.484375
 40
0.4921875
 40
0.49609375
 40
0.5
 40
0.50390625
 40
0.5078125
 40
0.515625
 40
0.53125
 40
0.5625
 40
0.59375
 40
0.609375
 40
0.6171875
 40
0.62109375
 40
0.625
 40
0.62890625
 40
0.6328125
 40
0.640625
 40
0.65625
 40
0.6875
 40
0.71875
 40
0.734375
 40
0.7421875
 40
0.74609375
 40
0.75
 40
0.75390625
 40
0.7578125
 40
0.765625
 40
0.78125
 40
0.8125
 40
0.84375
 40
0.859375
 40
0.8671875
 40
0.87109375
 40
0.875
 40
0.87890625
 40
0.8828125
 40
0.890625
 40
0.90625
 40
0.921875
 40
0.9375
 40
0.96875
 40
1.0
 40
1.0
 40
1.0
 40
1.0
 10
5.8946360746
 20
4.2269791826
 30
0.4615
 10
5.8946360746
 20
4.2195092532
 30
0.460767567
 10
5.8946360746
 20
4.2045694559
 30
0.4593023901
 10
5.8946360746
 20
4.1858944014
 30
0.4574724738
 10
5.8946360746
 20
4.1709550044
 30
0.4560052754
 10
5.8946360746
 20
4.1597487017
 30
0.45491374
 10
5.8946360746
 20
4.1504156966
 30
0.453975943
 10
5.8946360746
 20
4.1438716417
 30
0.453374794
 10
5.8946360746
 20
4.1401492814
 30
0.4529449204
 10
5.8946360746
 20
4.137309341
 30
0.4528657923
 10
5.8946360746
 20
4.1346535316
 30
0.4518567357
 10
5.8946360746
 20
4.1310482291
 30
0.4508356725
 10
5.8946360746
 20
4.1247688364
 30
0.4488979329
 10
5.8946360746
 20
4.1121885827
 30
0.445130188
 10
5.8946360746
 20
4.0942300246
 30
0.4396864242
 10
5.8946360746
 20
4.0762594272
 30
0.4342825363
 10
5.8946360746
 20
4.0636960284
 30
0.4304589651
 10
5.8946360746
 20
4.0573934602
 30
0.4285979866
 10
5.8946360746
 20
4.0538254793
 30
0.4274533081
 10
5.8946360746
 20
4.0510549962
 30
0.4268240693
 10
5.8946360746
 20
4.0486457593
 30
0.4253183816
 10
5.8946360746
 20
4.0453074452
 30
0.4236164908
 10
5.8946360746
 20
4.0395240147
 30
0.4204959782
 10
5.8946360746
 20
4.0279152135
 30
0.4143565097
 10
5.8946360746
 20
4.0113557326
 30
0.4055279472
 10
5.8946360746
 20
3.9947780549
 30
0.3967375164
 10
5.8946360746
 20
3.9831947293
 30
0.3905446635
 10
5.8946360746
 20
3.97737627
 30
0.3874975545
 10
5.8946360746
 20
3.9740943659
 30
0.3856774553
 10
5.8946360746
 20
3.9715118047
 30
0.3845349723
 10
5.8946360746
 20
3.9693923112
 30
0.3825415709
 10
5.8946360746
 20
3.9664047963
 30
0.3801805126
 10
5.8946360746
 20
3.9612519065
 30
0.3759103668
 10
5.8946360746
 20
3.9538512521
 30
0.3698824962
 10
5.8946360746
 20
3.9449874806
 30
0.3626179304
 10
5.8946360746
 20
3.9361186672
 30
0.3553621083
 10
5.8946360746
 20
3.9272530078
 30
0.3481024326
 10
5.8946360746
 20
3.9183797739
 30
0.3408494277
 10
5.8946360746
 20
3.9110080325
 30
0.3347862324
 10
5.8946360746
 20
3.9058036251
 30
0.3305790287
 10
5.8946360746
 20
3.9028986435
 30
0.3281171345
 10
5.8946360746
 20
3.9005256361
 30
0.3264334666
 10
5.8946360746
 20
3.8988952307
 30
0.3241276764
 10
5.8946360746
 20
3.8964623475
 30
0.3212702764
 10
5.8946360746
 20
3.8923252932
 30
0.3161688919
 10
5.8946360746
 20
3.8839650887
 30
0.3060381545
 10
5.8946360746
 20
3.8720713831
 30
0.2915250281
 10
5.8946360746
 20
3.8601438948
 30
0.2770372764
 10
5.8946360746
 20
3.851830986
 30
0.2668710143
 10
5.8946360746
 20
3.8476289
 30
0.2618184764
 10
5.8946360746
 20
3.8453007432
 30
0.2588824145
 10
5.8946360746
 20
3.8433485576
 30
0.2568183192
 10
5.8946360746
 20
3.8421841266
 30
0.2542268682
 10
5.8946360746
 20
3.8403567937
 30
0.2509555334
 10
5.8946360746
 20
3.8372867812
 30
0.2451451436
 10
5.8946360746
 20
3.8310553966
 30
0.2335853628
 10
5.8946360746
 20
3.8222061006
 30
0.2170374223
 10
5.8946360746
 20
3.8133200951
 30
0.2005091652
 10
5.8946360746
 20
3.8071401037
 30
0.1889218277
 10
5.8946360746
 20
3.8039994256
 30
0.1831493284
 10
5.8946360746
 20
3.802285892
 30
0.179816975
 10
5.8946360746
 20
3.8007718036
 30
0.1774130086
 10
5.8946360746
 20
3.8001328979
 30
0.1746447388
 10
5.8946360746
 20
3.7989757718
 30
0.1710807758
 10
5.8946360746
 20
3.7970928045
 30
0.1647847373
 10
5.8946360746
 20
3.7932254023
 30
0.1522348154
 10
5.8946360746
 20
3.7877588175
 30
0.1342827578
 10
5.8946360746
 20
3.7822524024
 30
0.1163447962
 10
5.8946360746
 20
3.7784407626
 30
0.1037751398
 10
5.8946360746
 20
3.776481122
 30
0.0975062364
 10
5.8946360746
 20
3.7754474698
 30
0.0938985752
 10
5.8946360746
 20
3.7744291808
 30
0.0912645714
 10
5.8946360746
 20
3.7743400202
 30
0.0883563147
 10
5.8946360746
 20
3.7738970489
 30
0.0845743016
 10
5.8946360746
 20
3.773272849
 30
0.0779112076
 10
5.8946360746
 20
3.7723021903
 30
0.0684158043
 10
5.8946360746
 20
3.7711711916
 30
0.0570113459
 10
5.8946360746
 20
3.7696513857
 30
0.0418088867
 10
5.8946360746
 20
3.7677557066
 30
0.0228046088
 10
5.8946360746
 20
3.7662379203
 30
0.0076015534
 10
5.8946360746
 20
3.7654791826
 30
-0.0000000202
 11
5.8946360746
 21
4.2269791826
 31
0.4615
 11
5.8946360746
 21
4.2045693943
 31
0.459302701
 11
5.8946360746
 21
4.1821596061
 31
0.4571054021
 11
5.8946360746
 21
4.1709547119
 31
0.4560067526
 11
5.8946360746
 21
4.1597498178
 31
0.4549081031
 11
5.8946360746
 21
4.1485449236
 31
0.4538094537
 11
5.8946360746
 21
4.1429424766
 31
0.4532601289
 11
5.8946360746
 21
4.140141253
 31
0.4529854666
 11
5.8946360746
 21
4.1373400295
 31
0.4527108042
 11
5.8946360746
 21
4.1346455037
 31
0.4518972789
 11
5.8946360746
 21
4.1319509779
 31
0.4510837536
 11
5.8946360746
 21
4.1265619263
 31
0.449456703
 11
5.8946360746
 21
4.1157838231
 31
0.4462026018
 11
5.8946360746
 21
4.0942276167
 31
0.4396943994
 11
5.8946360746
 21
4.0726714103
 31
0.4331861969
 11
5.8946360746
 21
4.0618933071
 31
0.4299320957
 11
5.8946360746
 21
4.0565042555
 31
0.4283050451
 11
5.8946360746
 21
4.0538097297
 31
0.4274915198
 11
5.8946360746
 21
4.0511152039
 31
0.4266779945
 11
5.8946360746
 21
4.0486300095
 31
0.4253565932
 11
5.8946360746
 21
4.0461448151
 31
0.4240351919
 11
5.8946360746
 21
4.0411744262
 31
0.4213923893
 11
5.8946360746
 21
4.0312336486
 31
0.416106784
 11
5.8946360746
 21
4.0113520933
 31
0.4055355735
 11
5.8946360746
 21
3.9914705379
 31
0.3949643631
 11
5.8946360746
 21
3.9815297603
 31
0.3896787578
 11
5.8946360746
 21
3.9765593715
 31
0.3870359552
 11
5.8946360746
 21
3.974074177
 31
0.3857145539
 11
5.8946360746
 21
3.9715889826
 31
0.3843931526
 11
5.8946360746
 21
3.9693721208
 31
0.3825786722
 11
5.8946360746
 21
3.9671552589
 31
0.3807641918
 11
5.8946360746
 21
3.9627215352
 31
0.377135231
 11
5.8946360746
 21
3.9538540877
 31
0.3698773093
 11
5.8946360746
 21
3.9449866403
 31
0.3626193877
 11
5.8946360746
 21
3.9361191928
 31
0.3553614661
 11
5.8946360746
 21
3.9272517454
 31
0.3481035444
 11
5.8946360746
 21
3.918384298
 31
0.3408456228
 11
5.8946360746
 21
3.9095168505
 31
0.3335877012
 11
5.8946360746
 21
3.9050831268
 31
0.3299587403
 11
5.8946360746
 21
3.9028662649
 31
0.3281442599
 11
5.8946360746
 21
3.9006494031
 31
0.3263297795
 11
5.8946360746
 21
3.8988628545
 31
0.3241547997
 11
5.8946360746
 21
3.897076306
 31
0.32197982
 11
5.8946360746
 21
3.8935032089
 31
0.3176298604
 11
5.8946360746
 21
3.8863570148
 31
0.3089299413
 11
5.8946360746
 21
3.8720646266
 31
0.291530103
 11
5.8946360746
 21
3.8577722383
 31
0.2741302648
 11
5.8946360746
 21
3.8506260442
 31
0.2654303457
 11
5.8946360746
 21
3.8470529471
 31
0.2610803861
 11
5.8946360746
 21
3.8452663986
 31
0.2589054063
 11
5.8946360746
 21
3.84347985
 31
0.2567304266
 11
5.8946360746
 21
3.8421497818
 31
0.2542498598
 11
5.8946360746
 21
3.8408197136
 31
0.2517692931
 11
5.8946360746
 21
3.8381595772
 31
0.2468081597
 11
5.8946360746
 21
3.8328393044
 31
0.2368858928
 11
5.8946360746
 21
3.8221987587
 31
0.217041359
 11
5.8946360746
 21
3.8115582131
 31
0.1971968252
 11
5.8946360746
 21
3.8062379402
 31
0.1872745583
 11
5.8946360746
 21
3.8035778038
 31
0.1823134249
 11
5.8946360746
 21
3.8022477356
 31
0.1798328581
 11
5.8946360746
 21
3.8009176674
 31
0.1773522914
 11
5.8946360746
 21
3.8000947414
 31
0.1746606218
 11
5.8946360746
 21
3.7992718154
 31
0.1719689521
 11
5.8946360746
 21
3.7976259634
 31
0.1665856128
 11
5.8946360746
 21
3.7943342594
 31
0.1558189342
 11
5.8946360746
 21
3.7877508515
 31
0.134285577
 11
5.8946360746
 21
3.7811674435
 31
0.1127522198
 11
5.8946360746
 21
3.7778757395
 31
0.1019855412
 11
5.8946360746
 21
3.7762298875
 31
0.0966022019
 11
5.8946360746
 21
3.7754069615
 31
0.0939105322
 11
5.8946360746
 21
3.7745840355
 31
0.0912188626
 11
5.8946360746
 21
3.7742995089
 31
0.0883682725
 11
5.8946360746
 21
3.7740149822
 31
0.0855176824
 11
5.8946360746
 21
3.7734459289
 31
0.0798165022
 11
5.8946360746
 21
3.7723078223
 31
0.0684141419
 11
5.8946360746
 21
3.7711697157
 31
0.0570117816
 11
5.8946360746
 21
3.7700316091
 31
0.0456094212
 11
5.8946360746
 21
3.7677553958
 31
0.0228047005
 11
5.8946360746
 21
3.7654791826
 31
-0.0000000202
  0
SPLINE
  5
40C
100
AcDbEntity
  8
0
100
AcDbSpline
 62
7
  6
CONTINUOUS
 70
0
 71
3
 72
85
 73
81
 74
79
 42
0.0000001
 43
0.0000001
 44
0.0000000001
 12
0.0
 22
-0.7171132247
 32
-0.0703135665
 13
0.0
 23
-0.0728388233
 33
-0.7297510621
 40
0.0
 40
0.0
 40
0.0
 40
0.0
 40
0.03125
 40
0.0625
 40
0.078125
 40
0.09375
 40
0.109375
 40
0.1171875
 40
0.12109375
 40
0.125
 40
0.12890625
 40
0.1328125
 40
0.140625
 40
0.15625
 40
0.1875
 40
0.21875
 40
0.234375
 40
0.2421875
 40
0.24609375
 40
0.25
 40
0.25390625
 40
0.2578125
 40
0.265625
 40
0.28125
 40
0.3125
 40
0.34375
 40
0.359375
 40
0.3671875
 40
0.37109375
 40
0.375
 40
0.37890625
 40
0.3828125
 40
0.390625
 40
0.40625
 40
0.421875
 40
0.4375
 40
0.453125
 40
0.46875
 40
0.484375
 40
0.4921875
 40
0.49609375
 40
0.5
 40
0.50390625
 40
0.5078125
 40
0.515625
 40
0.53125
 40
0.5625
 40
0.59375
 40
0.609375
 40
0.6171875
 40
0.62109375
 40
0.625
 40
0.62890625
 40
0.6328125
 40
0.640625
 40
0.65625
 40
0.6875
 40
0.71875
 40
0.734375
 40
0.7421875
 40
0.74609375
 40
0.75
 40
0.75390625
 40
0.7578125
 40
0.765625
 40
0.78125
 40
0.8125
 40
0.84375
 40
0.859375
 40
0.8671875
 40
0.87109375
 40
0.875
 40
0.87890625
 40
0.8828125
 40
0.890625
 40
0.90625
 40
0.921875
 40
0.9375
 40
0.96875
 40
1.0
 40
1.0
 40
1.0
 40
1.0
 10
5.5691568006
 20
4.2269791826
 30
0.4615
 10
5.5691568006
 20
4.2195092532
 30
0.460767567
 10
5.5691568006
 20
4.2045694559
 30
0.4593023901
 10
5.5691568006
 20
4.1858944014
 30
0.4574724738
 10
5.5691568006
 20
4.1709550044
 30
0.4560052754
 10
5.5691568006
 20
4.1597487017
 30
0.45491374
 10
5.5691568006
 20
4.1504156966
 30
0.453975943
 10
5.5691568006
 20
4.1438716417
 30
0.453374794
 10
5.5691568006
 20
4.1401492814
 30
0.4529449204
 10
5.5691568006
 20
4.137309341
 30
0.4528657923
 10
5.5691568006
 20
4.1346535316
 30
0.4518567357
 10
5.5691568006
 20
4.1310482291
 30
0.4508356725
 10
5.5691568006
 20
4.1247688364
 30
0.4488979329
 10
5.5691568006
 20
4.1121885827
 30
0.445130188
 10
5.5691568006
 20
4.0942300246
 30
0.4396864242
 10
5.5691568006
 20
4.0762594272
 30
0.4342825363
 10
5.5691568006
 20
4.0636960284
 30
0.4304589651
 10
5.5691568006
 20
4.0573934602
 30
0.4285979866
 10
5.5691568006
 20
4.0538254793
 30
0.4274533081
 10
5.5691568006
 20
4.0510549962
 30
0.4268240693
 10
5.5691568006
 20
4.0486457593
 30
0.4253183816
 10
5.5691568006
 20
4.0453074452
 30
0.4236164908
 10
5.5691568006
 20
4.0395240147
 30
0.4204959782
 10
5.5691568006
 20
4.0279152135
 30
0.4143565097
 10
5.5691568006
 20
4.0113557326
 30
0.4055279472
 10
5.5691568006
 20
3.9947780549
 30
0.3967375164
 10
5.5691568006
 20
3.9831947293
 30
0.3905446635
 10
5.5691568006
 20
3.97737627
 30
0.3874975545
 10
5.5691568006
 20
3.9740943659
 30
0.3856774553
 10
5.5691568006
 20
3.9715118047
 30
0.3845349723
 10
5.5691568006
 20
3.9693923112
 30
0.3825415709
 10
5.5691568006
 20
3.9664047963
 30
0.3801805126
 10
5.5691568006
 20
3.9612519065
 30
0.3759103668
 10
5.5691568006
 20
3.9538512521
 30
0.3698824962
 10
5.5691568006
 20
3.9449874806
 30
0.3626179304
 10
5.5691568006
 20
3.9361186672
 30
0.3553621083
 10
5.5691568006
 20
3.9272530078
 30
0.3481024326
 10
5.5691568006
 20
3.9183797739
 30
0.3408494277
 10
5.5691568006
 20
3.9110080325
 30
0.3347862324
 10
5.5691568006
 20
3.9058036251
 30
0.3305790287
 10
5.5691568006
 20
3.9028986435
 30
0.3281171345
 10
5.5691568006
 20
3.9005256361
 30
0.3264334666
 10
5.5691568006
 20
3.8988952307
 30
0.3241276764
 10
5.5691568006
 20
3.8964623475
 30
0.3212702764
 10
5.5691568006
 20
3.8923252932
 30
0.3161688919
 10
5.5691568006
 20
3.8839650887
 30
0.3060381545
 10
5.5691568006
 20
3.8720713831
 30
0.2915250281
 10
5.5691568006
 20
3.8601438948
 30
0.2770372764
 10
5.5691568006
 20
3.851830986
 30
0.2668710143
 10
5.5691568006
 20
3.8476289
 30
0.2618184764
 10
5.5691568006
 20
3.8453007432
 30
0.2588824145
 10
5.5691568006
 20
3.8433485576
 30
0.2568183192
 10
5.5691568006
 20
3.8421841266
 30
0.2542268682
 10
5.5691568006
 20
3.8403567937
 30
0.2509555334
 10
5.5691568006
 20
3.8372867812
 30
0.2451451436
 10
5.5691568006
 20
3.8310553966
 30
0.2335853628
 10
5.5691568006
 20
3.8222061006
 30
0.2170374223
 10
5.5691568006
 20
3.8133200951
 30
0.2005091652
 10
5.5691568006
 20
3.8071401037
 30
0.1889218277
 10
5.5691568006
 20
3.8039994256
 30
0.1831493284
 10
5.5691568006
 20
3.802285892
 30
0.179816975
 10
5.5691568006
 20
3.8007718036
 30
0.1774130086
 10
5.5691568006
 20
3.8001328979
 30
0.1746447388
 10
5.5691568006
 20
3.7989757718
 30
0.1710807758
 10
5.5691568006
 20
3.7970928045
 30
0.1647847373
 10
5.5691568006
 20
3.7932254023
 30
0.1522348154
 10
5.5691568006
 20
3.7877588175
 30
0.1342827578
 10
5.5691568006
 20
3.7822524024
 30
0.1163447962
 10
5.5691568006
 20
3.7784407626
 30
0.1037751398
 10
5.5691568006
 20
3.776481122
 30
0.0975062364
 10
5.5691568006
 20
3.7754474698
 30
0.0938985752
 10
5.5691568006
 20
3.7744291808
 30
0.0912645714
 10
5.5691568006
 20
3.7743400202
 30
0.0883563147
 10
5.5691568006
 20
3.7738970489
 30
0.0845743016
 10
5.5691568006
 20
3.773272849
 30
0.0779112076
 10
5.5691568006
 20
3.7723021903
 30
0.0684158043
 10
5.5691568006
 20
3.7711711916
 30
0.0570113459
 10
5.5691568006
 20
3.7696513857
 30
0.0418088867
 10
5.5691568006
 20
3.7677557066
 30
0.0228046088
 10
5.5691568006
 20
3.7662379203
 30
0.0076015534
 10
5.5691568006
 20
3.7654791826
 30
-0.0000000202
 11
5.5691568006
 21
4.2269791826
 31
0.4615
 11
5.5691568006
 21
4.2045693943
 31
0.459302701
 11
5.5691568006
 21
4.1821596061
 31
0.4571054021
 11
5.5691568006
 21
4.1709547119
 31
0.4560067526
 11
5.5691568006
 21
4.1597498178
 31
0.4549081031
 11
5.5691568006
 21
4.1485449236
 31
0.4538094537
 11
5.5691568006
 21
4.1429424766
 31
0.4532601289
 11
5.5691568006
 21
4.140141253
 31
0.4529854666
 11
5.5691568006
 21
4.1373400295
 31
0.4527108042
 11
5.5691568006
 21
4.1346455037
 31
0.4518972789
 11
5.5691568006
 21
4.1319509779
 31
0.4510837536
 11
5.5691568006
 21
4.1265619263
 31
0.449456703
 11
5.5691568006
 21
4.1157838231
 31
0.4462026018
 11
5.5691568006
 21
4.0942276167
 31
0.4396943994
 11
5.5691568006
 21
4.0726714103
 31
0.4331861969
 11
5.5691568006
 21
4.0618933071
 31
0.4299320957
 11
5.5691568006
 21
4.0565042555
 31
0.4283050451
 11
5.5691568006
 21
4.0538097297
 31
0.4274915198
 11
5.5691568006
 21
4.0511152039
 31
0.4266779945
 11
5.5691568006
 21
4.0486300095
 31
0.4253565932
 11
5.5691568006
 21
4.0461448151
 31
0.4240351919
 11
5.5691568006
 21
4.0411744262
 31
0.4213923893
 11
5.5691568006
 21
4.0312336486
 31
0.416106784
 11
5.5691568006
 21
4.0113520933
 31
0.4055355735
 11
5.5691568006
 21
3.9914705379
 31
0.3949643631
 11
5.5691568006
 21
3.9815297603
 31
0.3896787578
 11
5.5691568006
 21
3.9765593715
 31
0.3870359552
 11
5.5691568006
 21
3.974074177
 31
0.3857145539
 11
5.5691568006
 21
3.9715889826
 31
0.3843931526
 11
5.5691568006
 21
3.9693721208
 31
0.3825786722
 11
5.5691568006
 21
3.9671552589
 31
0.3807641918
 11
5.5691568006
 21
3.9627215352
 31
0.377135231
 11
5.5691568006
 21
3.9538540877
 31
0.3698773093
 11
5.5691568006
 21
3.9449866403
 31
0.3626193877
 11
5.5691568006
 21
3.9361191928
 31
0.3553614661
 11
5.5691568006
 21
3.9272517454
 31
0.3481035444
 11
5.5691568006
 21
3.918384298
 31
0.3408456228
 11
5.5691568006
 21
3.9095168505
 31
0.3335877012
 11
5.5691568006
 21
3.9050831268
 31
0.3299587403
 11
5.5691568006
 21
3.9028662649
 31
0.3281442599
 11
5.5691568006
 21
3.9006494031
 31
0.3263297795
 11
5.5691568006
 21
3.8988628545
 31
0.3241547997
 11
5.5691568006
 21
3.897076306
 31
0.32197982
 11
5.5691568006
 21
3.8935032089
 31
0.3176298604
 11
5.5691568006
 21
3.8863570148
 31
0.3089299413
 11
5.5691568006
 21
3.8720646266
 31
0.291530103
 11
5.5691568006
 21
3.8577722383
 31
0.2741302648
 11
5.5691568006
 21
3.8506260442
 31
0.2654303457
 11
5.5691568006
 21
3.8470529471
 31
0.2610803861
 11
5.5691568006
 21
3.8452663986
 31
0.2589054063
 11
5.5691568006
 21
3.84347985
 31
0.2567304266
 11
5.5691568006
 21
3.8421497818
 31
0.2542498598
 11
5.5691568006
 21
3.8408197136
 31
0.2517692931
 11
5.5691568006
 21
3.8381595772
 31
0.2468081597
 11
5.5691568006
 21
3.8328393044
 31
0.2368858928
 11
5.5691568006
 21
3.8221987587
 31
0.217041359
 11
5.5691568006
 21
3.8115582131
 31
0.1971968252
 11
5.5691568006
 21
3.8062379402
 31
0.1872745583
 11
5.5691568006
 21
3.8035778038
 31
0.1823134249
 11
5.5691568006
 21
3.8022477356
 31
0.1798328581
 11
5.5691568006
 21
3.8009176674
 31
0.1773522914
 11
5.5691568006
 21
3.8000947414
 31
0.1746606218
 11
5.5691568006
 21
3.7992718154
 31
0.1719689521
 11
5.5691568006
 21
3.7976259634
 31
0.1665856128
 11
5.5691568006
 21
3.7943342594
 31
0.1558189342
 11
5.5691568006
 21
3.7877508515
 31
0.134285577
 11
5.5691568006
 21
3.7811674435
 31
0.1127522198
 11
5.5691568006
 21
3.7778757395
 31
0.1019855412
 11
5.5691568006
 21
3.7762298875
 31
0.0966022019
 11
5.5691568006
 21
3.7754069615
 31
0.0939105322
 11
5.5691568006
 21
3.7745840355
 31
0.0912188626
 11
5.5691568006
 21
3.7742995089
 31
0.0883682725
 11
5.5691568006
 21
3.7740149822
 31
0.0855176824
 11
5.5691568006
 21
3.7734459289
 31
0.0798165022
 11
5.5691568006
 21
3.7723078223
 31
0.0684141419
 11
5.5691568006
 21
3.7711697157
 31
0.0570117816
 11
5.5691568006
 21
3.7700316091
 31
0.0456094212
 11
5.5691568006
 21
3.7677553958
 31
0.0228047005
 11
5.5691568006
 21
3.7654791826
 31
-0.0000000202
  0
SPLINE
  5
40D
100
AcDbEntity
  8
0
100
AcDbSpline
 62
7
  6
CONTINUOUS
 70
0
 71
3
 72
85
 73
81
 74
79
 42
0.0000001
 43
0.0000001
 44
0.0000000001
 12
0.0
 22
-0.0703135665
 32
0.7171132247
 13
0.0
 23
-0.7297510621
 33
0.0728388233
 40
0.0
 40
0.0
 40
0.0
 40
0.0
 40
0.03125
 40
0.0625
 40
0.078125
 40
0.09375
 40
0.109375
 40
0.1171875
 40
0.12109375
 40
0.125
 40
0.12890625
 40
0.1328125
 40
0.140625
 40
0.15625
 40
0.1875
 40
0.21875
 40
0.234375
 40
0.2421875
 40
0.24609375
 40
0.25
 40
0.25390625
 40
0.2578125
 40
0.265625
 40
0.28125
 40
0.3125
 40
0.34375
 40
0.359375
 40
0.3671875
 40
0.37109375
 40
0.375
 40
0.37890625
 40
0.3828125
 40
0.390625
 40
0.40625
 40
0.421875
 40
0.4375
 40
0.453125
 40
0.46875
 40
0.484375
 40
0.4921875
 40
0.49609375
 40
0.5
 40
0.50390625
 40
0.5078125
 40
0.515625
 40
0.53125
 40
0.5625
 40
0.59375
 40
0.609375
 40
0.6171875
 40
0.62109375
 40
0.625
 40
0.62890625
 40
0.6328125
 40
0.640625
 40
0.65625
 40
0.6875
 40
0.71875
 40
0.734375
 40
0.7421875
 40
0.74609375
 40
0.75
 40
0.75390625
 40
0.7578125
 40
0.765625
 40
0.78125
 40
0.8125
 40
0.84375
 40
0.859375
 40
0.8671875
 40
0.87109375
 40
0.875
 40
0.87890625
 40
0.8828125
 40
0.890625
 40
0.90625
 40
0.921875
 40
0.9375
 40
0.96875
 40
1.0
 40
1.0
 40
1.0
 40
1.0
 10
5.5691568006
 20
4.6884791826
 30
0.0
 10
5.5691568006
 20
4.6877467496
 30
0.0074699294
 10
5.5691568006
 20
4.6862815726
 30
0.0224097267
 10
5.5691568006
 20
4.6844516564
 30
0.0410847812
 10
5.5691568006
 20
4.682984458
 30
0.0560241782
 10
5.5691568006
 20
4.6818929226
 30
0.0672304809
 10
5.5691568006
 20
4.6809551256
 30
0.076563486
 10
5.5691568006
 20
4.6803539766
 30
0.0831075409
 10
5.5691568006
 20
4.679924103
 30
0.0868299012
 10
5.5691568006
 20
4.6798449749
 30
0.0896698416
 10
5.5691568006
 20
4.6788359183
 30
0.092325651
 10
5.5691568006
 20
4.6778148551
 30
0.0959309535
 10
5.5691568006
 20
4.6758771155
 30
0.1022103462
 10
5.5691568006
 20
4.6721093706
 30
0.1147905999
 10
5.5691568006
 20
4.6666656068
 30
0.132749158
 10
5.5691568006
 20
4.6612617189
 30
0.1507197554
 10
5.5691568006
 20
4.6574381477
 30
0.1632831542
 10
5.5691568006
 20
4.6555771692
 30
0.1695857224
 10
5.5691568006
 20
4.6544324907
 30
0.1731537033
 10
5.5691568006
 20
4.6538032519
 30
0.1759241864
 10
5.5691568006
 20
4.6522975642
 30
0.1783334233
 10
5.5691568006
 20
4.6505956734
 30
0.1816717374
 10
5.5691568006
 20
4.6474751608
 30
0.1874551679
 10
5.5691568006
 20
4.6413356923
 30
0.1990639691
 10
5.5691568006
 20
4.6325071298
 30
0.21562345
 10
5.5691568006
 20
4.623716699
 30
0.2322011277
 10
5.5691568006
 20
4.6175238461
 30
0.2437844533
 10
5.5691568006
 20
4.6144767371
 30
0.2496029126
 10
5.5691568006
 20
4.6126566379
 30
0.2528848167
 10
5.5691568006
 20
4.6115141549
 30
0.2554673779
 10
5.5691568006
 20
4.6095207535
 30
0.2575868714
 10
5.5691568006
 20
4.6071596952
 30
0.2605743863
 10
5.5691568006
 20
4.6028895494
 30
0.2657272761
 10
5.5691568006
 20
4.5968616788
 30
0.2731279305
 10
5.5691568006
 20
4.589597113
 30
0.281991702
 10
5.5691568006
 20
4.5823412909
 30
0.2908605154
 10
5.5691568006
 20
4.5750816152
 30
0.2997261748
 10
5.5691568006
 20
4.5678286103
 30
0.3085994087
 10
5.5691568006
 20
4.561765415
 30
0.3159711501
 10
5.5691568006
 20
4.5575582113
 30
0.3211755575
 10
5.5691568006
 20
4.5550963171
 30
0.3240805391
 10
5.5691568006
 20
4.5534126492
 30
0.3264535465
 10
5.5691568006
 20
4.551106859
 30
0.3280839519
 10
5.5691568006
 20
4.5482494589
 30
0.3305168351
 10
5.5691568006
 20
4.5431480745
 30
0.3346538894
 10
5.5691568006
 20
4.5330173371
 30
0.3430140939
 10
5.5691568006
 20
4.5185042107
 30
0.3549077995
 10
5.5691568006
 20
4.504016459
 30
0.3668352878
 10
5.5691568006
 20
4.4938501969
 30
0.3751481966
 10
5.5691568006
 20
4.488797659
 30
0.3793502826
 10
5.5691568006
 20
4.4858615971
 30
0.3816784394
 10
5.5691568006
 20
4.4837975018
 30
0.383630625
 10
5.5691568006
 20
4.4812060508
 30
0.384795056
 10
5.5691568006
 20
4.477934716
 30
0.3866223889
 10
5.5691568006
 20
4.4721243262
 30
0.3896924014
 10
5.5691568006
 20
4.4605645454
 30
0.3959237859
 10
5.5691568006
 20
4.4440166049
 30
0.404773082
 10
5.5691568006
 20
4.4274883478
 30
0.4136590875
 10
5.5691568006
 20
4.4159010103
 30
0.4198390789
 10
5.5691568006
 20
4.410128511
 30
0.422979757
 10
5.5691568006
 20
4.4067961576
 30
0.4246932906
 10
5.5691568006
 20
4.4043921912
 30
0.426207379
 10
5.5691568006
 20
4.4016239214
 30
0.4268462847
 10
5.5691568006
 20
4.3980599584
 30
0.4280034108
 10
5.5691568006
 20
4.3917639199
 30
0.429886378
 10
5.5691568006
 20
4.379213998
 30
0.4337537803
 10
5.5691568006
 20
4.3612619404
 30
0.4392203651
 10
5.5691568006
 20
4.3433239788
 30
0.4447267802
 10
5.5691568006
 20
4.3307543224
 30
0.44853842
 10
5.5691568006
 20
4.324485419
 30
0.4504980606
 10
5.5691568006
 20
4.3208777578
 30
0.4515317128
 10
5.5691568006
 20
4.318243754
 30
0.4525500018
 10
5.5691568006
 20
4.3153354973
 30
0.4526391624
 10
5.5691568006
 20
4.3115534841
 30
0.4530821337
 10
5.5691568006
 20
4.3048903902
 30
0.4537063336
 10
5.5691568006
 20
4.2953949869
 30
0.4546769923
 10
5.5691568006
 20
4.2839905285
 30
0.455807991
 10
5.5691568006
 20
4.2687880692
 30
0.4573277969
 10
5.5691568006
 20
4.2497837914
 30
0.459223476
 10
5.5691568006
 20
4.234580736
 30
0.4607412623
 10
5.5691568006
 20
4.2269791624
 30
0.4615
 11
5.5691568006
 21
4.6884791826
 31
0.0
 11
5.5691568006
 21
4.6862818836
 31
0.0224097883
 11
5.5691568006
 21
4.6840845847
 31
0.0448195765
 11
5.5691568006
 21
4.6829859352
 31
0.0560244707
 11
5.5691568006
 21
4.6818872857
 31
0.0672293648
 11
5.5691568006
 21
4.6807886363
 31
0.078434259
 11
5.5691568006
 21
4.6802393115
 31
0.084036706
 11
5.5691568006
 21
4.6799646492
 31
0.0868379296
 11
5.5691568006
 21
4.6796899868
 31
0.0896391531
 11
5.5691568006
 21
4.6788764615
 31
0.0923336789
 11
5.5691568006
 21
4.6780629362
 31
0.0950282047
 11
5.5691568006
 21
4.6764358856
 31
0.1004172563
 11
5.5691568006
 21
4.6731817844
 31
0.1111953595
 11
5.5691568006
 21
4.6666735819
 31
0.1327515659
 11
5.5691568006
 21
4.6601653795
 31
0.1543077723
 11
5.5691568006
 21
4.6569112783
 31
0.1650858755
 11
5.5691568006
 21
4.6552842277
 31
0.1704749271
 11
5.5691568006
 21
4.6544707024
 31
0.1731694529
 11
5.5691568006
 21
4.6536571771
 31
0.1758639787
 11
5.5691568006
 21
4.6523357758
 31
0.1783491731
 11
5.5691568006
 21
4.6510143745
 31
0.1808343675
 11
5.5691568006
 21
4.6483715719
 31
0.1858047563
 11
5.5691568006
 21
4.6430859666
 31
0.195745534
 11
5.5691568006
 21
4.6325147561
 31
0.2156270893
 11
5.5691568006
 21
4.6219435457
 31
0.2355086447
 11
5.5691568006
 21
4.6166579404
 31
0.2454494223
 11
5.5691568006
 21
4.6140151378
 31
0.2504198111
 11
5.5691568006
 21
4.6126937365
 31
0.2529050056
 11
5.5691568006
 21
4.6113723352
 31
0.2553902
 11
5.5691568006
 21
4.6095578548
 31
0.2576070618
 11
5.5691568006
 21
4.6077433744
 31
0.2598239237
 11
5.5691568006
 21
4.6041144135
 31
0.2642576474
 11
5.5691568006
 21
4.5968564919
 31
0.2731250949
 11
5.5691568006
 21
4.5895985703
 31
0.2819925423
 11
5.5691568006
 21
4.5823406486
 31
0.2908599897
 11
5.5691568006
 21
4.575082727
 31
0.2997274372
 11
5.5691568006
 21
4.5678248054
 31
0.3085948846
 11
5.5691568006
 21
4.5605668837
 31
0.3174623321
 11
5.5691568006
 21
4.5569379229
 31
0.3218960558
 11
5.5691568006
 21
4.5551234425
 31
0.3241129177
 11
5.5691568006
 21
4.5533089621
 31
0.3263297795
 11
5.5691568006
 21
4.5511339823
 31
0.3281163281
 11
5.5691568006
 21
4.5489590026
 31
0.3299028766
 11
5.5691568006
 21
4.544609043
 31
0.3334759736
 11
5.5691568006
 21
4.5359091239
 31
0.3406221678
 11
5.5691568006
 21
4.5185092856
 31
0.354914556
 11
5.5691568006
 21
4.5011094474
 31
0.3692069443
 11
5.5691568006
 21
4.4924095283
 31
0.3763531384
 11
5.5691568006
 21
4.4880595687
 31
0.3799262355
 11
5.5691568006
 21
4.4858845889
 31
0.381712784
 11
5.5691568006
 21
4.4837096091
 31
0.3834993326
 11
5.5691568006
 21
4.4812290424
 31
0.3848294008
 11
5.5691568006
 21
4.4787484757
 31
0.386159469
 11
5.5691568006
 21
4.4737873423
 31
0.3888196054
 11
5.5691568006
 21
4.4638650754
 31
0.3941398782
 11
5.5691568006
 21
4.4440205416
 31
0.4047804239
 11
5.5691568006
 21
4.4241760078
 31
0.4154209695
 11
5.5691568006
 21
4.4142537409
 31
0.4207412424
 11
5.5691568006
 21
4.4092926074
 31
0.4234013788
 11
5.5691568006
 21
4.4068120407
 31
0.424731447
 11
5.5691568006
 21
4.404331474
 31
0.4260615152
 11
5.5691568006
 21
4.4016398044
 31
0.4268844412
 11
5.5691568006
 21
4.3989481347
 31
0.4277073672
 11
5.5691568006
 21
4.3935647954
 31
0.4293532192
 11
5.5691568006
 21
4.3827981168
 31
0.4326449232
 11
5.5691568006
 21
4.3612647596
 31
0.4392283311
 11
5.5691568006
 21
4.3397314024
 31
0.4458117391
 11
5.5691568006
 21
4.3289647238
 31
0.4491034431
 11
5.5691568006
 21
4.3235813845
 31
0.4507492951
 11
5.5691568006
 21
4.3208897148
 31
0.4515722211
 11
5.5691568006
 21
4.3181980452
 31
0.4523951471
 11
5.5691568006
 21
4.3153474551
 31
0.4526796737
 11
5.5691568006
 21
4.312496865
 31
0.4529642004
 11
5.5691568006
 21
4.3067956848
 31
0.4535332537
 11
5.5691568006
 21
4.2953933245
 31
0.4546713603
 11
5.5691568006
 21
4.2839909641
 31
0.4558094669
 11
5.5691568006
 21
4.2725886038
 31
0.4569475735
 11
5.5691568006
 21
4.2497838831
 31
0.4592237868
 11
5.5691568006
 21
4.2269791624
 31
0.4615
  0
SPLINE
  5
40E
100
AcDbEntity
  8
0
100
AcDbSpline
 62
7
  6
CONTINUOUS
 70
0
 71
3
 72
85
 73
81
 74
79
 42
0.0000001
 43
0.0000001
 44
0.0000000001
 12
0.0
 22
-0.0703135665
 32
0.7171132247
 13
0.0
 23
-0.7297510621
 33
0.0728388233
 40
0.0
 40
0.0
 40
0.0
 40
0.0
 40
0.03125
 40
0.0625
 40
0.078125
 40
0.09375
 40
0.109375
 40
0.1171875
 40
0.12109375
 40
0.125
 40
0.12890625
 40
0.1328125
 40
0.140625
 40
0.15625
 40
0.1875
 40
0.21875
 40
0.234375
 40
0.2421875
 40
0.24609375
 40
0.25
 40
0.25390625
 40
0.2578125
 40
0.265625
 40
0.28125
 40
0.3125
 40
0.34375
 40
0.359375
 40
0.3671875
 40
0.37109375
 40
0.375
 40
0.37890625
 40
0.3828125
 40
0.390625
 40
0.40625
 40
0.421875
 40
0.4375
 40
0.453125
 40
0.46875
 40
0.484375
 40
0.4921875
 40
0.49609375
 40
0.5
 40
0.50390625
 40
0.5078125
 40
0.515625
 40
0.53125
 40
0.5625
 40
0.59375
 40
0.609375
 40
0.6171875
 40
0.62109375
 40
0.625
 40
0.62890625
 40
0.6328125
 40
0.640625
 40
0.65625
 40
0.6875
 40
0.71875
 40
0.734375
 40
0.7421875
 40
0.74609375
 40
0.75
 40
0.75390625
 40
0.7578125
 40
0.765625
 40
0.78125
 40
0.8125
 40
0.84375
 40
0.859375
 40
0.8671875
 40
0.87109375
 40
0.875
 40
0.87890625
 40
0.8828125
 40
0.890625
 40
0.90625
 40
0.921875
 40
0.9375
 40
0.96875
 40
1.0
 40
1.0
 40
1.0
 40
1.0
 10
5.8946360746
 20
4.6884791826
 30
0.0
 10
5.8946360746
 20
4.6877467496
 30
0.0074699294
 10
5.8946360746
 20
4.6862815726
 30
0.0224097267
 10
5.8946360746
 20
4.6844516564
 30
0.0410847812
 10
5.8946360746
 20
4.682984458
 30
0.0560241782
 10
5.8946360746
 20
4.6818929226
 30
0.0672304809
 10
5.8946360746
 20
4.6809551256
 30
0.076563486
 10
5.8946360746
 20
4.6803539766
 30
0.0831075409
 10
5.8946360746
 20
4.679924103
 30
0.0868299012
 10
5.8946360746
 20
4.6798449749
 30
0.0896698416
 10
5.8946360746
 20
4.6788359183
 30
0.092325651
 10
5.8946360746
 20
4.6778148551
 30
0.0959309535
 10
5.8946360746
 20
4.6758771155
 30
0.1022103462
 10
5.8946360746
 20
4.6721093706
 30
0.1147905999
 10
5.8946360746
 20
4.6666656068
 30
0.132749158
 10
5.8946360746
 20
4.6612617189
 30
0.1507197554
 10
5.8946360746
 20
4.6574381477
 30
0.1632831542
 10
5.8946360746
 20
4.6555771692
 30
0.1695857224
 10
5.8946360746
 20
4.6544324907
 30
0.1731537033
 10
5.8946360746
 20
4.6538032519
 30
0.1759241864
 10
5.8946360746
 20
4.6522975642
 30
0.1783334233
 10
5.8946360746
 20
4.6505956734
 30
0.1816717374
 10
5.8946360746
 20
4.6474751608
 30
0.1874551679
 10
5.8946360746
 20
4.6413356923
 30
0.1990639691
 10
5.8946360746
 20
4.6325071298
 30
0.21562345
 10
5.8946360746
 20
4.623716699
 30
0.2322011277
 10
5.8946360746
 20
4.6175238461
 30
0.2437844533
 10
5.8946360746
 20
4.6144767371
 30
0.2496029126
 10
5.8946360746
 20
4.6126566379
 30
0.2528848167
 10
5.8946360746
 20
4.6115141549
 30
0.2554673779
 10
5.8946360746
 20
4.6095207535
 30
0.2575868714
 10
5.8946360746
 20
4.6071596952
 30
0.2605743863
 10
5.8946360746
 20
4.6028895494
 30
0.2657272761
 10
5.8946360746
 20
4.5968616788
 30
0.2731279305
 10
5.8946360746
 20
4.589597113
 30
0.281991702
 10
5.8946360746
 20
4.5823412909
 30
0.2908605154
 10
5.8946360746
 20
4.5750816152
 30
0.2997261748
 10
5.8946360746
 20
4.5678286103
 30
0.3085994087
 10
5.8946360746
 20
4.561765415
 30
0.3159711501
 10
5.8946360746
 20
4.5575582113
 30
0.3211755575
 10
5.8946360746
 20
4.5550963171
 30
0.3240805391
 10
5.8946360746
 20
4.5534126492
 30
0.3264535465
 10
5.8946360746
 20
4.551106859
 30
0.3280839519
 10
5.8946360746
 20
4.5482494589
 30
0.3305168351
 10
5.8946360746
 20
4.5431480745
 30
0.3346538894
 10
5.8946360746
 20
4.5330173371
 30
0.3430140939
 10
5.8946360746
 20
4.5185042107
 30
0.3549077995
 10
5.8946360746
 20
4.504016459
 30
0.3668352878
 10
5.8946360746
 20
4.4938501969
 30
0.3751481966
 10
5.8946360746
 20
4.488797659
 30
0.3793502826
 10
5.8946360746
 20
4.4858615971
 30
0.3816784394
 10
5.8946360746
 20
4.4837975018
 30
0.383630625
 10
5.8946360746
 20
4.4812060508
 30
0.384795056
 10
5.8946360746
 20
4.477934716
 30
0.3866223889
 10
5.8946360746
 20
4.4721243262
 30
0.3896924014
 10
5.8946360746
 20
4.4605645454
 30
0.3959237859
 10
5.8946360746
 20
4.4440166049
 30
0.404773082
 10
5.8946360746
 20
4.4274883478
 30
0.4136590875
 10
5.8946360746
 20
4.4159010103
 30
0.4198390789
 10
5.8946360746
 20
4.410128511
 30
0.422979757
 10
5.8946360746
 20
4.4067961576
 30
0.4246932906
 10
5.8946360746
 20
4.4043921912
 30
0.426207379
 10
5.8946360746
 20
4.4016239214
 30
0.4268462847
 10
5.8946360746
 20
4.3980599584
 30
0.4280034108
 10
5.8946360746
 20
4.3917639199
 30
0.429886378
 10
5.8946360746
 20
4.379213998
 30
0.4337537803
 10
5.8946360746
 20
4.3612619404
 30
0.4392203651
 10
5.8946360746
 20
4.3433239788
 30
0.4447267802
 10
5.8946360746
 20
4.3307543224
 30
0.44853842
 10
5.8946360746
 20
4.324485419
 30
0.4504980606
 10
5.8946360746
 20
4.3208777578
 30
0.4515317128
 10
5.8946360746
 20
4.318243754
 30
0.4525500018
 10
5.8946360746
 20
4.3153354973
 30
0.4526391624
 10
5.8946360746
 20
4.3115534841
 30
0.4530821337
 10
5.8946360746
 20
4.3048903902
 30
0.4537063336
 10
5.8946360746
 20
4.2953949869
 30
0.4546769923
 10
5.8946360746
 20
4.2839905285
 30
0.455807991
 10
5.8946360746
 20
4.2687880692
 30
0.4573277969
 10
5.8946360746
 20
4.2497837914
 30
0.459223476
 10
5.8946360746
 20
4.234580736
 30
0.4607412623
 10
5.8946360746
 20
4.2269791624
 30
0.4615
 11
5.8946360746
 21
4.6884791826
 31
0.0
 11
5.8946360746
 21
4.6862818836
 31
0.0224097883
 11
5.8946360746
 21
4.6840845847
 31
0.0448195765
 11
5.8946360746
 21
4.6829859352
 31
0.0560244707
 11
5.8946360746
 21
4.6818872857
 31
0.0672293648
 11
5.8946360746
 21
4.6807886363
 31
0.078434259
 11
5.8946360746
 21
4.6802393115
 31
0.084036706
 11
5.8946360746
 21
4.6799646492
 31
0.0868379296
 11
5.8946360746
 21
4.6796899868
 31
0.0896391531
 11
5.8946360746
 21
4.6788764615
 31
0.0923336789
 11
5.8946360746
 21
4.6780629362
 31
0.0950282047
 11
5.8946360746
 21
4.6764358856
 31
0.1004172563
 11
5.8946360746
 21
4.6731817844
 31
0.1111953595
 11
5.8946360746
 21
4.6666735819
 31
0.1327515659
 11
5.8946360746
 21
4.6601653795
 31
0.1543077723
 11
5.8946360746
 21
4.6569112783
 31
0.1650858755
 11
5.8946360746
 21
4.6552842277
 31
0.1704749271
 11
5.8946360746
 21
4.6544707024
 31
0.1731694529
 11
5.8946360746
 21
4.6536571771
 31
0.1758639787
 11
5.8946360746
 21
4.6523357758
 31
0.1783491731
 11
5.8946360746
 21
4.6510143745
 31
0.1808343675
 11
5.8946360746
 21
4.6483715719
 31
0.1858047563
 11
5.8946360746
 21
4.6430859666
 31
0.195745534
 11
5.8946360746
 21
4.6325147561
 31
0.2156270893
 11
5.8946360746
 21
4.6219435457
 31
0.2355086447
 11
5.8946360746
 21
4.6166579404
 31
0.2454494223
 11
5.8946360746
 21
4.6140151378
 31
0.2504198111
 11
5.8946360746
 21
4.6126937365
 31
0.2529050056
 11
5.8946360746
 21
4.6113723352
 31
0.2553902
 11
5.8946360746
 21
4.6095578548
 31
0.2576070618
 11
5.8946360746
 21
4.6077433744
 31
0.2598239237
 11
5.8946360746
 21
4.6041144135
 31
0.2642576474
 11
5.8946360746
 21
4.5968564919
 31
0.2731250949
 11
5.8946360746
 21
4.5895985703
 31
0.2819925423
 11
5.8946360746
 21
4.5823406486
 31
0.2908599897
 11
5.8946360746
 21
4.575082727
 31
0.2997274372
 11
5.8946360746
 21
4.5678248054
 31
0.3085948846
 11
5.8946360746
 21
4.5605668837
 31
0.3174623321
 11
5.8946360746
 21
4.5569379229
 31
0.3218960558
 11
5.8946360746
 21
4.5551234425
 31
0.3241129177
 11
5.8946360746
 21
4.5533089621
 31
0.3263297795
 11
5.8946360746
 21
4.5511339823
 31
0.3281163281
 11
5.8946360746
 21
4.5489590026
 31
0.3299028766
 11
5.8946360746
 21
4.544609043
 31
0.3334759736
 11
5.8946360746
 21
4.5359091239
 31
0.3406221678
 11
5.8946360746
 21
4.5185092856
 31
0.354914556
 11
5.8946360746
 21
4.5011094474
 31
0.3692069443
 11
5.8946360746
 21
4.4924095283
 31
0.3763531384
 11
5.8946360746
 21
4.4880595687
 31
0.3799262355
 11
5.8946360746
 21
4.4858845889
 31
0.381712784
 11
5.8946360746
 21
4.4837096091
 31
0.3834993326
 11
5.8946360746
 21
4.4812290424
 31
0.3848294008
 11
5.8946360746
 21
4.4787484757
 31
0.386159469
 11
5.8946360746
 21
4.4737873423
 31
0.3888196054
 11
5.8946360746
 21
4.4638650754
 31
0.3941398782
 11
5.8946360746
 21
4.4440205416
 31
0.4047804239
 11
5.8946360746
 21
4.4241760078
 31
0.4154209695
 11
5.8946360746
 21
4.4142537409
 31
0.4207412424
 11
5.8946360746
 21
4.4092926074
 31
0.4234013788
 11
5.8946360746
 21
4.4068120407
 31
0.424731447
 11
5.8946360746
 21
4.404331474
 31
0.4260615152
 11
5.8946360746
 21
4.4016398044
 31
0.4268844412
 11
5.8946360746
 21
4.3989481347
 31
0.4277073672
 11
5.8946360746
 21
4.3935647954
 31
0.4293532192
 11
5.8946360746
 21
4.3827981168
 31
0.4326449232
 11
5.8946360746
 21
4.3612647596
 31
0.4392283311
 11
5.8946360746
 21
4.3397314024
 31
0.4458117391
 11
5.8946360746
 21
4.3289647238
 31
0.4491034431
 11
5.8946360746
 21
4.3235813845
 31
0.4507492951
 11
5.8946360746
 21
4.3208897148
 31
0.4515722211
 11
5.8946360746
 21
4.3181980452
 31
0.4523951471
 11
5.8946360746
 21
4.3153474551
 31
0.4526796737
 11
5.8946360746
 21
4.312496865
 31
0.4529642004
 11
5.8946360746
 21
4.3067956848
 31
0.4535332537
 11
5.8946360746
 21
4.2953933245
 31
0.4546713603
 11
5.8946360746
 21
4.2839909641
 31
0.4558094669
 11
5.8946360746
 21
4.2725886038
 31
0.4569475735
 11
5.8946360746
 21
4.2497838831
 31
0.4592237868
 11
5.8946360746
 21
4.2269791624
 31
0.4615
  0
SPLINE
  5
40F
100
AcDbEntity
  8
0
100
AcDbSpline
 62
7
  6
CONTINUOUS
 70
0
 71
3
 72
15
 73
11
 74
9
 42
0.0000001
 43
0.0000001
 44
0.0000000001
 12
0.0
 22
0.1099409465
 32
0.0
 13
0.0
 23
-0.1099409465
 33
0.0
 40
0.0
 40
0.0
 40
0.0
 40
0.0
 40
0.125
 40
0.25
 40
0.375
 40
0.5
 40
0.625
 40
0.75
 40
0.875
 40
1.0
 40
1.0
 40
1.0
 40
1.0
 10
6.6231360746
 20
4.6439791826
 30
0.0
 10
6.6231360746
 20
4.6485600554
 30
0.0
 10
6.6213136901
 20
4.6577218009
 30
0.0
 10
6.6135291222
 20
4.6693722302
 30
0.0
 10
6.6018786929
 20
4.6771567981
 30
0.0
 10
6.5881360746
 20
4.6798903748
 30
0.0
 10
6.5743934563
 20
4.6771567981
 30
0.0
 10
6.5627430271
 20
4.6693722302
 30
0.0
 10
6.5549584591
 20
4.6577218009
 30
0.0
 10
6.5531360746
 20
4.6485600554
 30
0.0
 10
6.5531360746
 20
4.6439791826
 30
0.0
 11
6.6231360746
 21
4.6439791826
 31
0.0
 11
6.6204718583
 21
4.6573731027
 31
0.0
 11
6.612884812
 21
4.6687279199
 31
0.0
 11
6.6015299948
 21
4.6763149662
 31
0.0
 11
6.5881360746
 21
4.6789791826
 31
0.0
 11
6.5747421545
 21
4.6763149662
 31
0.0
 11
6.5633873373
 21
4.6687279199
 31
0.0
 11
6.555800291
 21
4.6573731027
 31
0.0
 11
6.5531360746
 21
4.6439791826
 31
0.0
  0
SPLINE
  5
410
100
AcDbEntity
  8
0
100
AcDbSpline
 62
7
  6
CONTINUOUS
 70
0
 71
3
 72
15
 73
11
 74
9
 42
0.0000001
 43
0.0000001
 44
0.0000000001
 12
0.0
 22
-0.1099409465
 32
0.0
 13
0.0
 23
0.1099409465
 33
0.0
 40
0.0
 40
0.0
 40
0.0
 40
0.0
 40
0.125
 40
0.25
 40
0.375
 40
0.5
 40
0.625
 40
0.75
 40
0.875
 40
1.0
 40
1.0
 40
1.0
 40
1.0
 10
6.6231360746
 20
3.8099791826
 30
0.0
 10
6.6231360746
 20
3.8053983098
 30
0.0
 10
6.6213136901
 20
3.7962365643
 30
0.0
 10
6.6135291222
 20
3.784586135
 30
0.0
 10
6.6018786929
 20
3.7768015671
 30
0.0
 10
6.5881360746
 20
3.7740679903
 30
0.0
 10
6.5743934563
 20
3.7768015671
 30
0.0
 10
6.5627430271
 20
3.784586135
 30
0.0
 10
6.5549584591
 20
3.7962365643
 30
0.0
 10
6.5531360746
 20
3.8053983098
 30
0.0
 10
6.5531360746
 20
3.8099791826
 30
0.0
 11
6.6231360746
 21
3.8099791826
 31
0.0
 11
6.6204718583
 21
3.7965852625
 31
0.0
 11
6.612884812
 21
3.7852304453
 31
0.0
 11
6.6015299948
 21
3.777643399
 31
0.0
 11
6.5881360746
 21
3.7749791826
 31
0.0
 11
6.5747421545
 21
3.777643399
 31
0.0
 11
6.5633873373
 21
3.7852304453
 31
0.0
 11
6.555800291
 21
3.7965852625
 31
0.0
 11
6.5531360746
 21
3.8099791826
 31
0.0
  0
SPLINE
  5
411
100
AcDbEntity
  8
0
100
AcDbSpline
 62
7
  6
CONTINUOUS
 70
0
 71
3
 72
14
 73
10
 74
8
 42
0.0000001
 43
0.0000001
 44
0.0000000001
 12
0.0
 22
0.0916172274
 32
0.0
 13
-0.045846371
 23
-0.079336773
 33
0.0
 40
0.0
 40
0.0
 40
0.0
 40
0.0
 40
0.1500003733
 40
0.3000007465
 40
0.4500011198
 40
0.6000014931
 40
0.7500018663
 40
0.9000022396
 40
1.0
 40
1.0
 40
1.0
 40
1.0
 10
5.4961360746
 20
4.7199791826
 30
0.0
 10
5.4961360746
 20
4.7245600554
 30
0.0
 10
5.4943136901
 20
4.7337218009
 30
0.0
 10
5.4865291222
 20
4.7453722302
 30
0.0
 10
5.4748786929
 20
4.7531567981
 30
0.0
 10
5.4611360746
 20
4.7558903748
 30
0.0
 10
5.4473934563
 20
4.7531567981
 30
0.0
 10
5.4370375836
 20
4.7462372252
 30
0.0
 10
5.4323549023
 20
4.7401227933
 30
0.0
 10
5.4308267242
 20
4.7374782934
 30
0.0
 11
5.4961360746
 21
4.7199791826
 31
0.0
 11
5.4934718583
 21
4.7333731027
 31
0.0
 11
5.485884812
 21
4.7447279199
 31
0.0
 11
5.4745299948
 21
4.7523149662
 31
0.0
 11
5.4611360746
 21
4.7549791826
 31
0.0
 11
5.4477421545
 21
4.7523149662
 31
0.0
 11
5.4363873373
 21
4.7447279199
 31
0.0
 11
5.4308267242
 21
4.7374782934
 31
0.0
  0
SPLINE
  5
412
100
AcDbEntity
  8
0
100
AcDbSpline
 62
7
  6
CONTINUOUS
 70
0
 71
3
 72
9
 73
5
 74
3
 42
0.0000001
 43
0.0000001
 44
0.0000000001
 12
-0.0091694111
 22
-0.0158675915
 32
0.0
 13
0.0
 23
-0.0183237191
 33
0.0
 40
0.0
 40
0.0
 40
0.0
 40
0.0
 40
0.2500093315
 40
1.0
 40
1.0
 40
1.0
 40
1.0
 10
5.4308267242
 20
4.7374782934
 30
0.0
 10
5.4300625781
 20
4.7361559448
 30
0.0
 10
5.4273510127
 20
4.7306679617
 30
0.0
 10
5.4261360746
 20
4.7245600554
 30
0.0
 10
5.4261360746
 20
4.7199791826
 30
0.0
 11
5.4308267242
 21
4.7374782934
 31
0.0
 11
5.428800291
 21
4.7333731027
 31
0.0
 11
5.4261360746
 21
4.7199791826
 31
0.0
  0
SPLINE
  5
413
100
AcDbEntity
  8
0
100
AcDbSpline
 62
7
  6
CONTINUOUS
 70
0
 71
3
 72
14
 73
10
 74
8
 42
0.0000001
 43
0.0000001
 44
0.0000000001
 12
0.0
 22
-0.0916172274
 32
0.0
 13
-0.045846371
 23
0.079336773
 33
0.0
 40
0.0
 40
0.0
 40
0.0
 40
0.0
 40
0.1500003733
 40
0.3000007465
 40
0.4500011198
 40
0.6000014931
 40
0.7500018663
 40
0.9000022396
 40
1.0
 40
1.0
 40
1.0
 40
1.0
 10
5.4961360746
 20
3.7339791826
 30
0.0
 10
5.4961360746
 20
3.7293983098
 30
0.0
 10
5.4943136901
 20
3.7202365643
 30
0.0
 10
5.4865291222
 20
3.708586135
 30
0.0
 10
5.4748786929
 20
3.7008015671
 30
0.0
 10
5.4611360746
 20
3.6980679903
 30
0.0
 10
5.4473934563
 20
3.7008015671
 30
0.0
 10
5.4370375836
 20
3.70772114
 30
0.0
 10
5.4323549023
 20
3.7138355719
 30
0.0
 10
5.4308267242
 20
3.7164800718
 30
0.0
 11
5.4961360746
 21
3.7339791826
 31
0.0
 11
5.4934718583
 21
3.7205852625
 31
0.0
 11
5.485884812
 21
3.7092304453
 31
0.0
 11
5.4745299948
 21
3.701643399
 31
0.0
 11
5.4611360746
 21
3.6989791826
 31
0.0
 11
5.4477421545
 21
3.701643399
 31
0.0
 11
5.4363873373
 21
3.7092304453
 31
0.0
 11
5.4308267242
 21
3.7164800718
 31
0.0
  0
SPLINE
  5
414
100
AcDbEntity
  8
0
100
AcDbSpline
 62
7
  6
CONTINUOUS
 70
0
 71
3
 72
9
 73
5
 74
3
 42
0.0000001
 43
0.0000001
 44
0.0000000001
 12
-0.0091694111
 22
0.0158675915
 32
0.0
 13
0.0
 23
0.0183237191
 33
0.0
 40
0.0
 40
0.0
 40
0.0
 40
0.0
 40
0.2500093315
 40
1.0
 40
1.0
 40
1.0
 40
1.0
 10
5.4308267242
 20
3.7164800718
 30
0.0
 10
5.4300625781
 20
3.7178024204
 30
0.0
 10
5.4273510127
 20
3.7232904035
 30
0.0
 10
5.4261360746
 20
3.7293983098
 30
0.0
 10
5.4261360746
 20
3.7339791826
 30
0.0
 11
5.4308267242
 21
3.7164800718
 31
0.0
 11
5.428800291
 21
3.7205852625
 31
0.0
 11
5.4261360746
 21
3.7339791826
 31
0.0
  0
SPLINE
  5
415
100
AcDbEntity
  8
0
100
AcDbSpline
 62
7
  6
CONTINUOUS
 70
0
 71
3
 72
15
 73
11
 74
9
 42
0.0000001
 43
0.0000001
 44
0.0000000001
 12
0.0
 22
0.1099409465
 32
0.0
 13
-0.0
 23
-0.1099409465
 33
0.0
 40
0.0
 40
0.0
 40
0.0
 40
0.0
 40
0.125
 40
0.25
 40
0.375
 40
0.5
 40
0.625
 40
0.75
 40
0.875
 40
1.0
 40
1.0
 40
1.0
 40
1.0
 10
4.8741360746
 20
4.7444791826
 30
0.0
 10
4.8741360746
 20
4.7490600554
 30
0.0
 10
4.8723136901
 20
4.7582218009
 30
0.0
 10
4.8645291222
 20
4.7698722302
 30
0.0
 10
4.8528786929
 20
4.7776567981
 30
0.0
 10
4.8391360746
 20
4.7803903748
 30
0.0
 10
4.8253934563
 20
4.7776567981
 30
0.0
 10
4.8137430271
 20
4.7698722302
 30
0.0
 10
4.8059584591
 20
4.7582218009
 30
0.0
 10
4.8041360746
 20
4.7490600554
 30
0.0
 10
4.8041360746
 20
4.7444791826
 30
0.0
 11
4.8741360746
 21
4.7444791826
 31
0.0
 11
4.8714718583
 21
4.7578731027
 31
0.0
 11
4.863884812
 21
4.7692279199
 31
0.0
 11
4.8525299948
 21
4.7768149662
 31
0.0
 11
4.8391360746
 21
4.7794791826
 31
0.0
 11
4.8257421545
 21
4.7768149662
 31
0.0
 11
4.8143873373
 21
4.7692279199
 31
0.0
 11
4.806800291
 21
4.7578731027
 31
0.0
 11
4.8041360746
 21
4.7444791826
 31
0.0
  0
SPLINE
  5
416
100
AcDbEntity
  8
0
100
AcDbSpline
 62
7
  6
CONTINUOUS
 70
0
 71
3
 72
15
 73
11
 74
9
 42
0.0000001
 43
0.0000001
 44
0.0000000001
 12
0.0
 22
-0.1099409465
 32
0.0
 13
-0.0
 23
0.1099409465
 33
0.0
 40
0.0
 40
0.0
 40
0.0
 40
0.0
 40
0.125
 40
0.25
 40
0.375
 40
0.5
 40
0.625
 40
0.75
 40
0.875
 40
1.0
 40
1.0
 40
1.0
 40
1.0
 10
4.8741360746
 20
3.7094791826
 30
0.0
 10
4.8741360746
 20
3.7048983098
 30
0.0
 10
4.8723136901
 20
3.6957365643
 30
0.0
 10
4.8645291222
 20
3.684086135
 30
0.0
 10
4.8528786929
 20
3.6763015671
 30
0.0
 10
4.8391360746
 20
3.6735679903
 30
0.0
 10
4.8253934563
 20
3.6763015671
 30
0.0
 10
4.8137430271
 20
3.684086135
 30
0.0
 10
4.8059584591
 20
3.6957365643
 30
0.0
 10
4.8041360746
 20
3.7048983098
 30
0.0
 10
4.8041360746
 20
3.7094791826
 30
0.0
 11
4.8741360746
 21
3.7094791826
 31
0.0
 11
4.8714718583
 21
3.6960852625
 31
0.0
 11
4.863884812
 21
3.6847304453
 31
0.0
 11
4.8525299948
 21
3.677143399
 31
0.0
 11
4.8391360746
 21
3.6744791826
 31
0.0
 11
4.8257421545
 21
3.677143399
 31
0.0
 11
4.8143873373
 21
3.6847304453
 31
0.0
 11
4.806800291
 21
3.6960852625
 31
0.0
 11
4.8041360746
 21
3.7094791826
 31
0.0
  0
SPLINE
  5
417
100
AcDbEntity
  8
0
100
AcDbSpline
 62
7
  6
CONTINUOUS
 70
0
 71
3
 72
23
 73
19
 74
17
 42
0.0000001
 43
0.0000001
 44
0.0000000001
 12
-0.2416477546
 22
-0.0806568003
 32
0.0
 13
-0.2416477685
 23
0.0806568082
 33
0.0
 40
0.0
 40
0.0
 40
0.0
 40
0.0
 40
0.0096944652
 40
0.0402294392
 40
0.0907565092
 40
0.1569782306
 40
0.2357901648
 40
0.3233263694
 40
0.4156780259
 40
0.5102213319
 40
0.6048663152
 40
0.6957168669
 40
0.779931405
 40
0.853969228
 40
0.9153283395
 40
0.9614636898
 40
0.9902434762
 40
1.0
 40
1.0
 40
1.0
 40
1.0
 10
6.2891360746
 20
4.6014791826
 30
0.0
 10
6.2883551927
 20
4.6012185411
 30
0.0
 10
6.2851120273
 20
4.6001450487
 30
0.0
 10
6.2777702438
 20
4.5978001002
 30
0.0
 10
6.2657741725
 20
4.5942560018
 30
0.0
 10
6.2496962276
 20
4.5900825459
 30
0.0
 10
6.2303720703
 20
4.5859675291
 30
0.0
 10
6.2086569449
 20
4.5825596918
 30
0.0
 10
6.1854385812
 20
4.5803784571
 30
0.0
 10
6.1615207878
 20
4.5797368896
 30
0.0
 10
6.1377425792
 20
4.5807268659
 30
0.0
 10
6.1149564313
 20
4.5831872151
 30
0.0
 10
6.094087436
 20
4.5867103647
 30
0.0
 10
6.0758739777
 20
4.5907474616
 30
0.0
 10
6.0609693466
 20
4.5946953241
 30
0.0
 10
6.0498772298
 20
4.59799798
 30
0.0
 10
6.043028643
 20
4.6001886097
 30
0.0
 10
6.0399219554
 20
4.6012168726
 30
0.0
 10
6.0391360746
 20
4.6014791826
 30
0.0
 11
6.2891360746
 21
4.6014791826
 31
0.0
 11
6.2867914697
 21
4.6007031395
 31
0.0
 11
6.2793811481
 21
4.5983370652
 31
0.0
 11
6.2670357335
 21
4.594693188
 31
0.0
 11
6.2507048669
 21
4.5904615147
 31
0.0
 11
6.2310652368
 21
4.5862906947
 31
0.0
 11
6.2090327847
 21
4.5828456808
 31
0.0
 11
6.1856081239
 21
4.5806545972
 31
0.0
 11
6.1615314605
 21
4.5800118072
 31
0.0
 11
6.1374409901
 21
4.5810100817
 31
0.0
 11
6.1144291405
 21
4.5834844831
 31
0.0
 11
6.0932725857
 21
4.5870442935
 31
0.0
 11
6.0748560864
 21
4.5911167477
 31
0.0
 11
6.0597442395
 21
4.5951135402
 31
0.0
 11
6.0484790967
 21
4.5984650996
 31
0.0
 11
6.041495701
 21
4.6006982097
 31
0.0
 11
6.0391360746
 21
4.6014791826
 31
0.0
  0
SPLINE
  5
418
100
AcDbEntity
  8
0
100
AcDbSpline
 62
7
  6
CONTINUOUS
 70
0
 71
3
 72
23
 73
19
 74
17
 42
0.0000001
 43
0.0000001
 44
0.0000000001
 12
0.2416477483
 22
0.0806567982
 32
0.0
 13
0.2416477618
 23
-0.0806568059
 33
0.0
 40
0.0
 40
0.0
 40
0.0
 40
0.0
 40
0.0096862301
 40
0.0402084297
 40
0.0907306615
 40
0.1569562176
 40
0.2357590639
 40
0.3232573649
 40
0.4156343396
 40
0.5101973463
 40
0.6048691779
 40
0.6957556838
 40
0.7799608023
 40
0.8539961206
 40
0.915347865
 40
0.9614716401
 40
0.9902445077
 40
1.0
 40
1.0
 40
1.0
 40
1.0
 10
6.0391360746
 20
3.8524791826
 30
0.0
 10
6.0399162932
 20
3.8527396027
 30
0.0
 10
6.0431577625
 20
3.8538125413
 30
0.0
 10
6.0504974364
 20
3.8561568784
 30
0.0
 10
6.0624923389
 20
3.8597008006
 30
0.0
 10
6.0785693948
 20
3.8638742688
 30
0.0
 10
6.0978898959
 20
3.8679888431
 30
0.0
 10
6.1196030738
 20
3.8713971156
 30
0.0
 10
6.1428219621
 20
3.8735793348
 30
0.0
 10
6.1667458513
 20
3.8742216522
 30
0.0
 10
6.1905310826
 20
3.8732315632
 30
0.0
 10
6.2133217165
 20
3.8707703873
 30
0.0
 10
6.2341926404
 20
3.8672464275
 30
0.0
 10
6.2524044272
 20
3.8632093663
 30
0.0
 10
6.2673072426
 20
3.8592617692
 30
0.0
 10
6.2783972287
 20
3.855959657
 30
0.0
 10
6.2852442307
 20
3.8537695164
 30
0.0
 10
6.288350277
 20
3.8527414649
 30
0.0
 10
6.2891360746
 20
3.8524791826
 30
0.0
 11
6.0391360746
 21
3.8524791826
 31
0.0
 11
6.0414786861
 21
3.8532545715
 31
0.0
 11
6.048885889
 21
3.8556197135
 31
0.0
 11
6.0612300737
 21
3.8592634024
 31
0.0
 11
6.0775618259
 21
3.8634955508
 31
0.0
 11
6.0971991208
 21
3.867666219
 31
0.0
 11
6.1192219162
 21
3.8711104826
 31
0.0
 11
6.1426529115
 21
3.8733030931
 31
0.0
 11
6.1667345756
 21
3.8739466031
 31
0.0
 11
6.1908318867
 21
3.8729482286
 31
0.0
 11
6.2138528069
 21
3.8704725158
 31
0.0
 11
6.2350069141
 21
3.866912625
 31
0.0
 11
6.2534227184
 21
3.8628399856
 31
0.0
 11
6.2685326961
 21
3.8588434677
 31
0.0
 11
6.2797949867
 21
3.8554926634
 31
0.0
 11
6.286776698
 21
3.8532600735
 31
0.0
 11
6.2891360746
 21
3.8524791826
 31
0.0
  0
SPLINE
  5
419
100
AcDbEntity
  8
127-310_FEATURES
100
AcDbSpline
 62
7
  6
CONTINUOUS
 70
0
 71
3
 72
13
 73
9
 74
7
 42
0.0000001
 43
0.0000001
 44
0.0000000001
 12
0.009519916
 22
-0.0355586502
 32
0.0
 13
0.0090289695
 23
-0.0356864693
 33
0.0
 40
0.0
 40
0.0
 40
0.0
 40
0.0
 40
0.2669032758
 40
0.5112715733
 40
0.7172710095
 40
0.8734407932
 40
0.9690823596
 40
1.0
 40
1.0
 40
1.0
 40
1.0
 10
5.2927001392
 20
3.7700289107
 30
0.0
 10
5.2935471048
 20
3.7668653373
 30
0.0
 10
5.2951569424
 20
3.760801919
 30
0.0
 10
5.2973837784
 20
3.7522871311
 30
0.0
 10
5.2992446293
 20
3.7450811045
 30
0.0
 10
5.3006363516
 20
3.7396387449
 30
0.0
 10
5.3014905174
 20
3.7362763678
 30
0.0
 10
5.301871701
 20
3.7347709558
 30
0.0
 10
5.3019647525
 20
3.7344031754
 30
0.0
 11
5.2927001392
 21
3.7700289107
 31
0.0
 11
5.2952217537
 21
3.7605330491
 31
0.0
 11
5.2974980445
 21
3.7518303905
 31
0.0
 11
5.2993942208
 21
3.7444882552
 31
0.0
 11
5.3008185331
 21
3.7389187343
 31
0.0
 11
5.3016853895
 21
3.735506464
 31
0.0
 11
5.3019647525
 21
3.7344031754
 31
0.0
  0
SPLINE
  5
41A
100
AcDbEntity
  8
127-310_FEATURES
100
AcDbSpline
 62
7
  6
CONTINUOUS
 70
0
 71
3
 72
15
 73
11
 74
9
 42
0.0000001
 43
0.0000001
 44
0.0000000001
 12
0.0438110474
 22
0.0020010645
 32
0.0
 13
0.0438566975
 23
0.0000503171
 33
0.0
 40
0.0
 40
0.0
 40
0.0
 40
0.0
 40
0.0310947105
 40
0.113557534
 40
0.2293659188
 40
0.3668616462
 40
0.51630426
 40
0.6732801653
 40
0.8354236034
 40
1.0
 40
1.0
 40
1.0
 40
1.0
 10
5.2488595188
 20
3.7689791826
 30
0.0
 10
5.2493136161
 20
3.7689999234
 30
0.0
 10
5.2509720232
 20
3.7690746041
 30
0.0
 10
5.2543220607
 20
3.7692175556
 30
0.0
 10
5.2592269926
 20
3.7694064028
 30
0.0
 10
5.2651115255
 20
3.7696010845
 30
0.0
 10
5.2715987809
 20
3.7697750907
 30
0.0
 10
5.2784473353
 20
3.7699119967
 30
0.0
 10
5.2855179304
 20
3.7700018748
 30
0.0
 10
5.2902942135
 20
3.7700261504
 30
0.0
 10
5.2927001392
 20
3.7700289107
 30
0.0
 11
5.2488595188
 21
3.7689791826
 31
0.0
 11
5.2502218505
 21
3.7690405292
 31
0.0
 11
5.2538351129
 21
3.7691946875
 31
0.0
 11
5.258910332
 21
3.7693900197
 31
0.0
 11
5.2649371512
 21
3.7695892874
 31
0.0
 11
5.2714888628
 21
3.7697648641
 31
0.0
 11
5.2783719407
 21
3.7699022734
 31
0.0
 11
5.2854824493
 21
3.7699924494
 31
0.0
 11
5.2927001392
 21
3.7700289107
 31
0.0
  0
SPLINE
  5
41B
100
AcDbEntity
  8
0
100
AcDbSpline
 62
7
  6
CONTINUOUS
 70
0
 71
3
 72
15
 73
11
 74
9
 42
0.0000001
 43
0.0000001
 44
0.0000000001
 12
-0.144303637
 22
0.2708573861
 32
0.0
 13
0.144303637
 23
0.2708573861
 33
0.0
 40
0.0
 40
0.0
 40
0.0
 40
0.0
 40
0.1355060615
 40
0.2616268072
 40
0.3821382325
 40
0.5000411188
 40
0.6179405518
 40
0.7384429083
 40
0.8645194725
 40
1.0
 40
1.0
 40
1.0
 40
1.0
 10
4.0497467459
 20
3.5935938731
 30
0.0
 10
4.0432287401
 20
3.6058281457
 30
0.0
 10
4.0315954751
 20
3.6299831265
 30
0.0
 10
4.0183874928
 20
3.6668655553
 30
0.0
 10
4.0102910228
 20
3.7033846918
 30
0.0
 10
4.0075486276
 20
3.7398665243
 30
0.0
 10
4.0102946574
 20
3.776347129
 30
0.0
 10
4.0183928869
 20
3.8128598751
 30
0.0
 10
4.0315996281
 20
3.8497340808
 30
0.0
 10
4.0432299683
 20
3.8738825249
 30
0.0
 10
4.0497467459
 20
3.8861144921
 30
0.0
 11
4.0497467459
 21
3.5935938731
 31
0.0
 11
4.0318730956
 21
3.631143694
 31
0.0
 11
4.0189903151
 21
3.6676432591
 31
0.0
 11
4.0111171957
 21
3.7037804416
 31
0.0
 11
4.0084566756
 21
3.7398668284
 31
0.0
 11
4.011120718
 21
3.7759518926
 31
0.0
 11
4.0189962311
 21
3.8120857049
 31
0.0
 11
4.0318761112
 21
3.8485719146
 31
0.0
 11
4.0497467459
 21
3.8861144921
 31
0.0
  0
SPLINE
  5
41C
100
AcDbEntity
  8
0
100
AcDbSpline
 62
7
  6
CONTINUOUS
 70
0
 71
3
 72
15
 73
11
 74
9
 42
0.0000001
 43
0.0000001
 44
0.0000000001
 12
0.144303637
 22
0.2708573861
 32
0.0
 13
-0.144303637
 23
0.2708573861
 33
0.0
 40
0.0
 40
0.0
 40
0.0
 40
0.0
 40
0.1355060615
 40
0.2616268072
 40
0.3821382325
 40
0.5000411188
 40
0.6179405518
 40
0.7384429083
 40
0.8645194725
 40
1.0
 40
1.0
 40
1.0
 40
1.0
 10
4.5117104488
 20
3.5935938731
 30
0.0
 10
4.5182284546
 20
3.6058281457
 30
0.0
 10
4.5298617196
 20
3.6299831265
 30
0.0
 10
4.5430697019
 20
3.6668655553
 30
0.0
 10
4.5511661718
 20
3.7033846918
 30
0.0
 10
4.5539085671
 20
3.7398665243
 30
0.0
 10
4.5511625373
 20
3.776347129
 30
0.0
 10
4.5430643078
 20
3.8128598751
 30
0.0
 10
4.5298575666
 20
3.8497340808
 30
0.0
 10
4.5182272264
 20
3.8738825249
 30
0.0
 10
4.5117104488
 20
3.8861144921
 30
0.0
 11
4.5117104488
 21
3.5935938731
 31
0.0
 11
4.5295840991
 21
3.631143694
 31
0.0
 11
4.5424668796
 21
3.6676432591
 31
0.0
 11
4.550339999
 21
3.7037804416
 31
0.0
 11
4.5530005191
 21
3.7398668284
 31
0.0
 11
4.5503364767
 21
3.7759518926
 31
0.0
 11
4.5424609636
 21
3.8120857049
 31
0.0
 11
4.5295810834
 21
3.8485719146
 31
0.0
 11
4.5117104488
 21
3.8861144921
 31
0.0
  0
SPLINE
  5
41D
100
AcDbEntity
  8
0
100
AcDbSpline
 62
7
  6
CONTINUOUS
 70
0
 71
3
 72
15
 73
11
 74
9
 42
0.0000001
 43
0.0000001
 44
0.0000000001
 12
-0.1524995809
 22
0.5724822844
 32
0.0
 13
0.1524995809
 23
0.5724822844
 33
0.0
 40
0.0
 40
0.0
 40
0.0
 40
0.0
 40
0.1303027146
 40
0.2554233163
 40
0.3781382012
 40
0.500042666
 40
0.6219428883
 40
0.7446469008
 40
0.8697222521
 40
1.0
 40
1.0
 40
1.0
 40
1.0
 10
4.0497467459
 20
3.9344585637
 30
0.0
 10
4.0431230428
 20
3.9593238956
 30
0.0
 10
4.031351251
 20
4.0084030202
 30
0.0
 10
4.0182510129
 20
4.0819686402
 30
0.0
 10
4.0102569334
 20
4.15460673
 30
0.0
 10
4.0075586237
 20
4.2270036603
 30
0.0
 10
4.0102605169
 20
4.2993982978
 30
0.0
 10
4.0182564073
 20
4.3720241688
 30
0.0
 10
4.0313555255
 20
4.4455736668
 30
0.0
 10
4.0431243119
 20
4.494639234
 30
0.0
 10
4.0497467459
 20
4.5194998015
 30
0.0
 11
4.0497467459
 21
3.9344585637
 31
0.0
 11
4.0318730956
 21
4.0095582054
 31
0.0
 11
4.0189903151
 21
4.0825573356
 31
0.0
 11
4.0111171957
 21
4.1548317005
 31
0.0
 11
4.0084566756
 21
4.2270044741
 31
0.0
 11
4.011120718
 21
4.2991746026
 31
0.0
 11
4.0189962311
 21
4.3714422273
 31
0.0
 11
4.0318761112
 21
4.4444146466
 31
0.0
 11
4.0497467459
 21
4.5194998015
 31
0.0
  0
SPLINE
  5
41E
100
AcDbEntity
  8
0
100
AcDbSpline
 62
7
  6
CONTINUOUS
 70
0
 71
3
 72
15
 73
11
 74
9
 42
0.0000001
 43
0.0000001
 44
0.0000000001
 12
0.1524995809
 22
0.5724822844
 32
0.0
 13
-0.1524995809
 23
0.5724822844
 33
0.0
 40
0.0
 40
0.0
 40
0.0
 40
0.0
 40
0.1303027146
 40
0.2554233163
 40
0.3781382012
 40
0.500042666
 40
0.6219428883
 40
0.7446469008
 40
0.8697222521
 40
1.0
 40
1.0
 40
1.0
 40
1.0
 10
4.5117104488
 20
3.9344585637
 30
0.0
 10
4.5183341519
 20
3.9593238956
 30
0.0
 10
4.5301059437
 20
4.0084030202
 30
0.0
 10
4.5432061818
 20
4.0819686402
 30
0.0
 10
4.5512002613
 20
4.15460673
 30
0.0
 10
4.553898571
 20
4.2270036603
 30
0.0
 10
4.5511966778
 20
4.2993982978
 30
0.0
 10
4.5432007873
 20
4.3720241688
 30
0.0
 10
4.5301016692
 20
4.4455736668
 30
0.0
 10
4.5183328828
 20
4.494639234
 30
0.0
 10
4.5117104488
 20
4.5194998015
 30
0.0
 11
4.5117104488
 21
3.9344585637
 31
0.0
 11
4.5295840991
 21
4.0095582054
 31
0.0
 11
4.5424668796
 21
4.0825573356
 31
0.0
 11
4.550339999
 21
4.1548317005
 31
0.0
 11
4.5530005191
 21
4.2270044741
 31
0.0
 11
4.5503364767
 21
4.2991746026
 31
0.0
 11
4.5424609636
 21
4.3714422273
 31
0.0
 11
4.5295810834
 21
4.4444146466
 31
0.0
 11
4.5117104488
 21
4.5194998015
 31
0.0
  0
SPLINE
  5
41F
100
AcDbEntity
  8
0
100
AcDbSpline
 62
7
  6
CONTINUOUS
 70
0
 71
3
 72
15
 73
11
 74
9
 42
0.0000001
 43
0.0000001
 44
0.0000000001
 12
-0.144303637
 22
0.2708573861
 32
0.0
 13
0.144303637
 23
0.2708573861
 33
0.0
 40
0.0
 40
0.0
 40
0.0
 40
0.0
 40
0.1355060615
 40
0.2616268072
 40
0.3821382325
 40
0.5000411188
 40
0.6179405518
 40
0.7384429083
 40
0.8645194725
 40
1.0
 40
1.0
 40
1.0
 40
1.0
 10
4.0497467459
 20
4.5678438731
 30
0.0
 10
4.0432287401
 20
4.5800781457
 30
0.0
 10
4.0315954751
 20
4.6042331265
 30
0.0
 10
4.0183874928
 20
4.6411155553
 30
0.0
 10
4.0102910228
 20
4.6776346918
 30
0.0
 10
4.0075486276
 20
4.7141165243
 30
0.0
 10
4.0102946574
 20
4.750597129
 30
0.0
 10
4.0183928869
 20
4.7871098751
 30
0.0
 10
4.0315996281
 20
4.8239840808
 30
0.0
 10
4.0432299683
 20
4.8481325249
 30
0.0
 10
4.0497467459
 20
4.8603644921
 30
0.0
 11
4.0497467459
 21
4.5678438731
 31
0.0
 11
4.0318730956
 21
4.605393694
 31
0.0
 11
4.0189903151
 21
4.6418932591
 31
0.0
 11
4.0111171957
 21
4.6780304416
 31
0.0
 11
4.0084566756
 21
4.7141168284
 31
0.0
 11
4.011120718
 21
4.7502018926
 31
0.0
 11
4.0189962311
 21
4.7863357049
 31
0.0
 11
4.0318761112
 21
4.8228219146
 31
0.0
 11
4.0497467459
 21
4.8603644921
 31
0.0
  0
SPLINE
  5
420
100
AcDbEntity
  8
0
100
AcDbSpline
 62
7
  6
CONTINUOUS
 70
0
 71
3
 72
15
 73
11
 74
9
 42
0.0000001
 43
0.0000001
 44
0.0000000001
 12
0.144303637
 22
0.2708573861
 32
0.0
 13
-0.144303637
 23
0.2708573861
 33
0.0
 40
0.0
 40
0.0
 40
0.0
 40
0.0
 40
0.1355060615
 40
0.2616268072
 40
0.3821382325
 40
0.5000411188
 40
0.6179405518
 40
0.7384429083
 40
0.8645194725
 40
1.0
 40
1.0
 40
1.0
 40
1.0
 10
4.5117104488
 20
4.5678438731
 30
0.0
 10
4.5182284546
 20
4.5800781457
 30
0.0
 10
4.5298617196
 20
4.6042331265
 30
0.0
 10
4.5430697019
 20
4.6411155553
 30
0.0
 10
4.5511661718
 20
4.6776346918
 30
0.0
 10
4.5539085671
 20
4.7141165243
 30
0.0
 10
4.5511625373
 20
4.750597129
 30
0.0
 10
4.5430643078
 20
4.7871098751
 30
0.0
 10
4.5298575666
 20
4.8239840808
 30
0.0
 10
4.5182272264
 20
4.8481325249
 30
0.0
 10
4.5117104488
 20
4.8603644921
 30
0.0
 11
4.5117104488
 21
4.5678438731
 31
0.0
 11
4.5295840991
 21
4.605393694
 31
0.0
 11
4.5424668796
 21
4.6418932591
 31
0.0
 11
4.550339999
 21
4.6780304416
 31
0.0
 11
4.5530005191
 21
4.7141168284
 31
0.0
 11
4.5503364767
 21
4.7502018926
 31
0.0
 11
4.5424609636
 21
4.7863357049
 31
0.0
 11
4.5295810834
 21
4.8228219146
 31
0.0
 11
4.5117104488
 21
4.8603644921
 31
0.0
  0
ENDSEC
  0
SECTION
  2
OBJECTS
  0
DICTIONARY
  5
C
100
AcDbDictionary
280
0
281
1
  3
ACAD_GROUP
350
D
  3
ACAD_MLINESTYLE
350
17
  3
ACAD_LAYOUT
350
1A
  3
ACAD_PLOTSETTINGS
350
19
  3
ACAD_PLOTSTYLENAME
350
E
  0
DICTIONARY
  5
D
102
{ACAD_REACTORS
330
C
102
}
100
AcDbDictionary
280
0
281
1
  0
ACDBDICTIONARYWDFLT
  5
E
102
{ACAD_REACTORS
330
C
102
}
100
AcDbDictionary
281
1
  3
Normal
350
F
100
AcDbDictionaryWithDefault
340
F
  0
DICTIONARY
  5
17
102
{ACAD_REACTORS
330
C
102
}
100
AcDbDictionary
280
0
281
1
  3
Standard
350
18
  0
DICTIONARY
  5
19
102
{ACAD_REACTORS
330
C
102
}
100
AcDbDictionary
281
1
  0
DICTIONARY
  5
1A
102
{ACAD_REACTORS
330
C
102
}
100
AcDbDictionary
281
1
  3
Layout1
350
1E
  3
Model
350
22
  0
ACDBPLACEHOLDER
  5
F
102
{ACAD_REACTORS
330
E
102
}
  0
MLINESTYLE
  5
18
102
{ACAD_REACTORS
330
17
102
}
100
AcDbMlineStyle
  2
STANDARD
 70
0
  3

 62
256
 51
90.0
 52
90.0
 71
2
 49
0.5
 62
256
  6
BYLAYER
 49
-0.5
 62
256
  6
BYLAYER
  0
LAYOUT
  5
1E
102
{ACAD_REACTORS
330
1A
102
}
100
AcDbPlotSettings
  1

  2

  4

  6

 40
0.0
 41
0.0
 42
0.0
 43
0.0
 44
0.0
 45
0.0
 46
0.0
 47
0.0
 48
0.0
 49
0.0
140
0.0
141
0.0
142
1.0
143
1.0
 70
0
 72
0
 73
0
 74
0
  7

 75
0
147
1.0
148
0.0
149
0.0
100
AcDbLayout
  1
Layout1
 70
0
 71
0
 10
0.0
 20
0.0
 11
0.0
 21
0.0
 12
0.0
 22
0.0
 32
0.0
 14
0.0
 24
0.0
 34
0.0
 15
0.0
 25
0.0
 35
0.0
146
0.0
 13
0.0
 23
0.0
 33
0.0
 16
0.0
 26
0.0
 36
0.0
 17
0.0
 27
0.0
 37
0.0
 76
0
330
1B
331
0
345
0
346
0
  0
LAYOUT
  5
22
102
{ACAD_REACTORS
330
1A
102
}
100
AcDbPlotSettings
  1

  2

  4

  6

 40
0.0
 41
0.0
 42
0.0
 43
0.0
 44
0.0
 45
0.0
 46
0.0
 47
0.0
 48
0.0
 49
0.0
140
0.0
141
0.0
142
1.0
143
1.0
 70
0
 72
0
 73
0
 74
0
  7

 75
0
147
1.0
148
0.0
149
0.0
100
AcDbLayout
  1
Model
 70
0
 71
0
 10
0.0
 20
0.0
 11
0.0
 21
0.0
 12
0.0
 22
0.0
 32
0.0
 14
0.0
 24
0.0
 34
0.0
 15
0.0
 25
0.0
 35
0.0
146
0.0
 13
0.0
 23
0.0
 33
0.0
 16
0.0
 26
0.0
 36
0.0
 17
0.0
 27
0.0
 37
0.0
 76
0
330
1F
331
0
345
0
346
0
  0
ENDSEC
  0
EOF
