999
DXF file: CKEB-LCN.dxf
999
Pro/ENGINEER 2006240 by Parametric Technology Corporation
  0
SECTION
  2
HEADER
  9
$ACADVER
  1
AC1015
  9
$DWGCODEPAGE
  3
ANSI_1252
  9
$EXTMAX
 10
11.6929133858
 20
8.2677165354
 30
0.0
  9
$EXTMIN
 10
0.0
 20
0.0
 30
0.0
  9
$LIMMIN
 10
0.0
 20
0.0
  9
$LIMMAX
 10
11.6929133858
 20
8.2677165354
  9
$VIEWCTR
 10
5.8464566929
 20
4.1338582677
  9
$VIEWSIZE
 40
8.2677165354
  9
$CLAYER
  8
0
  9
$LTSCALE
 40
0.6431102362
  9
$CELTYPE
  6
BYLAYER
  9
$DIMSCALE
 40
1.0
  9
$DIMASZ
 40
0.1875
  9
$DIMEXO
 40
0.0730807087
  9
$DIMDLI
 40
0.4443307087
  9
$DIMEXE
 40
0.2104724409
  9
$DIMCEN
 40
0.1052362205
  9
$DIMLFAC
 40
1.0
  9
$DIMBLK
  1
_CLOSED
  9
$DIMTXT
 40
0.15625
  9
$DIMTOL
 70
0
  9
$DIMLIM
 70
0
  9
$DIMTFAC
 40
1.0
  9
$PDMODE
 70
3
  9
$PDSIZE
 40
0.3125
  9
$HANDSEED
  5
469
  9
$MEASUREMENT
 70
0
  9
$INSUNITS
 70
1
  0
ENDSEC
  0
SECTION
  2
CLASSES
  0
CLASS
  1
ACDBDICTIONARYWDFLT
  2
AcDbDictionaryWithDefault
  3
AutoCAD 2000
 90
0
280
0
281
0
  0
CLASS
  1
ACDBPLACEHOLDER
  2
AcDbPlaceHolder
  3
AutoCAD 2000
 90
0
280
0
281
0
  0
CLASS
  1
LAYOUT
  2
AcDbLayout
  3
AutoCAD 2000
 90
0
280
0
281
0
  0
ENDSEC
  0
SECTION
  2
TABLES
  0
TABLE
  2
VPORT
  5
8
100
AcDbSymbolTable
 70
2
  0
VPORT
  5
1F4
100
AcDbSymbolTableRecord
100
AcDbViewportTableRecord
  2
*ACTIVE
 70
0
 10
0.0
 20
0.0
 11
1.0
 21
1.0
 12
5.8464566929
 22
4.1338582677
 13
0.0
 23
0.0
 14
1.0
 24
1.0
 15
0.0
 25
0.0
 16
0.0
 26
0.0
 36
1.0
 17
0.0
 27
0.0
 37
0.0
 40
8.2677165354
 41
1.4142857143
 42
50.0
 43
0.0
 44
0.0
 50
0.0
 51
0.0
 71
0
 72
100
 73
1
 74
1
 75
0
 76
0
 77
0
 78
0
  0
ENDTAB
  0
TABLE
  2
LTYPE
  5
5
100
AcDbSymbolTable
 70
6
  0
LTYPE
  5
14
100
AcDbSymbolTableRecord
100
AcDbLinetypeTableRecord
  2
BYBLOCK
 70
0
  3

 72
65
 73
0
 40
0.0
  0
LTYPE
  5
15
100
AcDbSymbolTableRecord
100
AcDbLinetypeTableRecord
  2
BYLAYER
 70
0
  3

 72
65
 73
0
 40
0.0
  0
LTYPE
  5
16
100
AcDbSymbolTableRecord
100
AcDbLinetypeTableRecord
  2
CONTINUOUS
 70
64
  3
Solid line
 72
65
 73
0
 40
0.0
  0
LTYPE
  5
1F5
100
AcDbSymbolTableRecord
100
AcDbLinetypeTableRecord
  2
CENTER
 70
64
  3
____ _ ____ _ ____ _ ____ _ ____ _ ____ _ ____
 72
65
 73
4
 40
0.6
 49
0.375
 74
0
 49
-0.075
 74
0
 49
0.075
 74
0
 49
-0.075
 74
0
  0
LTYPE
  5
1F6
100
AcDbSymbolTableRecord
100
AcDbLinetypeTableRecord
  2
HIDDEN
 70
64
  3
- - - - - - - - - - - - - - - - - - - -
 72
65
 73
2
 40
0.2
 49
0.1
 74
0
 49
-0.1
 74
0
  0
LTYPE
  5
1F7
100
AcDbSymbolTableRecord
100
AcDbLinetypeTableRecord
  2
PHANTOM
 70
64
  3
_____ _ _ _____ _ _ _____ _ _ _____
 72
65
 73
6
 40
0.8
 49
0.45
 74
0
 49
-0.05
 74
0
 49
0.1
 74
0
 49
-0.05
 74
0
 49
0.1
 74
0
 49
-0.05
 74
0
  0
LTYPE
  5
1F8
100
AcDbSymbolTableRecord
100
AcDbLinetypeTableRecord
  2
DOT
 70
64
  3
. . . . . . . . . . . . . . . . . . . .
 72
65
 73
2
 40
0.2
 49
0.1
 74
0
 49
-0.1
 74
0
  0
LTYPE
  5
1F9
100
AcDbSymbolTableRecord
100
AcDbLinetypeTableRecord
  2
DASHED
 70
64
  3
- - - - - - - - - - - - - - - - - - - -
 72
65
 73
2
 40
0.2
 49
0.1
 74
0
 49
-0.1
 74
0
  0
ENDTAB
  0
TABLE
  2
LAYER
  5
2
100
AcDbSymbolTable
 70
36
  0
LAYER
  5
10
100
AcDbSymbolTableRecord
100
AcDbLayerTableRecord
  2
0
 70
0
 62
7
  6
CONTINUOUS
370
-3
390
F
  0
LAYER
  5
1FA
100
AcDbSymbolTableRecord
100
AcDbLayerTableRecord
  2
DEFAULT_1
 70
0
 62
7
  6
CENTER
370
-3
390
F
  0
LAYER
  5
1FB
100
AcDbSymbolTableRecord
100
AcDbLayerTableRecord
  2
DEFAULT_2
 70
0
 62
8
  6
HIDDEN
370
-3
390
F
  0
LAYER
  5
1FC
100
AcDbSymbolTableRecord
100
AcDbLayerTableRecord
  2
DEFAULT_3
 70
0
 62
7
  6
PHANTOM
370
-3
390
F
  0
LAYER
  5
1FD
100
AcDbSymbolTableRecord
100
AcDbLayerTableRecord
  2
_BLACK_HOLE
 70
0
 62
7
  6
CONTINUOUS
370
-3
390
F
  0
LAYER
  5
1FE
100
AcDbSymbolTableRecord
100
AcDbLayerTableRecord
  2
01_ALL_DTM_PLN
 70
0
 62
7
  6
CONTINUOUS
370
-3
390
F
  0
LAYER
  5
1FF
100
AcDbSymbolTableRecord
100
AcDbLayerTableRecord
  2
01__ASM_ALL_DTM_PLN
 70
0
 62
7
  6
CONTINUOUS
370
-3
390
F
  0
LAYER
  5
200
100
AcDbSymbolTableRecord
100
AcDbLayerTableRecord
  2
01__ASM_DEF_DTM_PLN
 70
0
 62
7
  6
CONTINUOUS
370
-3
390
F
  0
LAYER
  5
201
100
AcDbSymbolTableRecord
100
AcDbLayerTableRecord
  2
01___PRT_ALL_DTM_PLN
 70
0
 62
7
  6
CONTINUOUS
370
-3
390
F
  0
LAYER
  5
202
100
AcDbSymbolTableRecord
100
AcDbLayerTableRecord
  2
01___PRT_DEF_DTM_PLN
 70
0
 62
7
  6
CONTINUOUS
370
-3
390
F
  0
LAYER
  5
203
100
AcDbSymbolTableRecord
100
AcDbLayerTableRecord
  2
02_ALL_AXES
 70
0
 62
7
  6
CONTINUOUS
370
-3
390
F
  0
LAYER
  5
204
100
AcDbSymbolTableRecord
100
AcDbLayerTableRecord
  2
02__ASM_ALL_AXES
 70
0
 62
7
  6
CONTINUOUS
370
-3
390
F
  0
LAYER
  5
205
100
AcDbSymbolTableRecord
100
AcDbLayerTableRecord
  2
02___PRT_ALL_AXES
 70
0
 62
7
  6
CONTINUOUS
370
-3
390
F
  0
LAYER
  5
206
100
AcDbSymbolTableRecord
100
AcDbLayerTableRecord
  2
03_ALL_CURVES
 70
0
 62
7
  6
CONTINUOUS
370
-3
390
F
  0
LAYER
  5
207
100
AcDbSymbolTableRecord
100
AcDbLayerTableRecord
  2
03__ASM_ALL_CURVES
 70
0
 62
7
  6
CONTINUOUS
370
-3
390
F
  0
LAYER
  5
208
100
AcDbSymbolTableRecord
100
AcDbLayerTableRecord
  2
03___PRT_ALL_CURVES
 70
0
 62
7
  6
CONTINUOUS
370
-3
390
F
  0
LAYER
  5
209
100
AcDbSymbolTableRecord
100
AcDbLayerTableRecord
  2
04_ALL_DTM_PNT
 70
0
 62
7
  6
CONTINUOUS
370
-3
390
F
  0
LAYER
  5
20A
100
AcDbSymbolTableRecord
100
AcDbLayerTableRecord
  2
04__ASM_ALL_DTM_PNT
 70
0
 62
7
  6
CONTINUOUS
370
-3
390
F
  0
LAYER
  5
20B
100
AcDbSymbolTableRecord
100
AcDbLayerTableRecord
  2
04___PRT_ALL_DTM_PNT
 70
0
 62
7
  6
CONTINUOUS
370
-3
390
F
  0
LAYER
  5
20C
100
AcDbSymbolTableRecord
100
AcDbLayerTableRecord
  2
05_ALL_DTM_CSYS
 70
0
 62
7
  6
CONTINUOUS
370
-3
390
F
  0
LAYER
  5
20D
100
AcDbSymbolTableRecord
100
AcDbLayerTableRecord
  2
05__ASM_ALL_DTM_CSYS
 70
0
 62
7
  6
CONTINUOUS
370
-3
390
F
  0
LAYER
  5
20E
100
AcDbSymbolTableRecord
100
AcDbLayerTableRecord
  2
05__ASM_DEF_DTM_CSYS
 70
0
 62
7
  6
CONTINUOUS
370
-3
390
F
  0
LAYER
  5
20F
100
AcDbSymbolTableRecord
100
AcDbLayerTableRecord
  2
05___PRT_ALL_DTM_CSYS
 70
0
 62
7
  6
CONTINUOUS
370
-3
390
F
  0
LAYER
  5
210
100
AcDbSymbolTableRecord
100
AcDbLayerTableRecord
  2
05___PRT_DEF_DTM_CSYS
 70
0
 62
7
  6
CONTINUOUS
370
-3
390
F
  0
LAYER
  5
211
100
AcDbSymbolTableRecord
100
AcDbLayerTableRecord
  2
06_ALL_SURFS
 70
0
 62
7
  6
CONTINUOUS
370
-3
390
F
  0
LAYER
  5
212
100
AcDbSymbolTableRecord
100
AcDbLayerTableRecord
  2
06__ASM_ALL_SURFS
 70
0
 62
7
  6
CONTINUOUS
370
-3
390
F
  0
LAYER
  5
213
100
AcDbSymbolTableRecord
100
AcDbLayerTableRecord
  2
06___PRT_ALL_SURFS
 70
0
 62
7
  6
CONTINUOUS
370
-3
390
F
  0
LAYER
  5
214
100
AcDbSymbolTableRecord
100
AcDbLayerTableRecord
  2
07__ASM_ALL_SKELETONS
 70
0
 62
7
  6
CONTINUOUS
370
-3
390
F
  0
LAYER
  5
215
100
AcDbSymbolTableRecord
100
AcDbLayerTableRecord
  2
127-001_FEATURES
 70
0
 62
7
  6
CONTINUOUS
370
-3
390
F
  0
LAYER
  5
216
100
AcDbSymbolTableRecord
100
AcDbLayerTableRecord
  2
127-001_REF_GEOMETRY
 70
0
 62
7
  6
CONTINUOUS
370
-3
390
F
  0
LAYER
  5
217
100
AcDbSymbolTableRecord
100
AcDbLayerTableRecord
  2
127-004_FEATURES
 70
0
 62
7
  6
CONTINUOUS
370
-3
390
F
  0
LAYER
  5
218
100
AcDbSymbolTableRecord
100
AcDbLayerTableRecord
  2
127-004_REF_GEOMETRY
 70
0
 62
7
  6
CONTINUOUS
370
-3
390
F
  0
LAYER
  5
219
100
AcDbSymbolTableRecord
100
AcDbLayerTableRecord
  2
127-008_FEATURES
 70
0
 62
7
  6
CONTINUOUS
370
-3
390
F
  0
LAYER
  5
21A
100
AcDbSymbolTableRecord
100
AcDbLayerTableRecord
  2
127-008_REF_GEOMETRY
 70
0
 62
7
  6
CONTINUOUS
370
-3
390
F
  0
LAYER
  5
21B
100
AcDbSymbolTableRecord
100
AcDbLayerTableRecord
  2
127-410_FEATURES
 70
0
 62
7
  6
CONTINUOUS
370
-3
390
F
  0
LAYER
  5
21C
100
AcDbSymbolTableRecord
100
AcDbLayerTableRecord
  2
127-410_REF_GEOMETRY
 70
0
 62
7
  6
CONTINUOUS
370
-3
390
F
  0
LAYER
  5
21D
100
AcDbSymbolTableRecord
100
AcDbLayerTableRecord
  2
127-411_FEATURES
 70
0
 62
7
  6
CONTINUOUS
370
-3
390
F
  0
LAYER
  5
21E
100
AcDbSymbolTableRecord
100
AcDbLayerTableRecord
  2
127-411_REF_GEOMETRY
 70
0
 62
7
  6
CONTINUOUS
370
-3
390
F
  0
LAYER
  5
21F
100
AcDbSymbolTableRecord
100
AcDbLayerTableRecord
  2
127-412_FEATURES
 70
0
 62
7
  6
CONTINUOUS
370
-3
390
F
  0
LAYER
  5
220
100
AcDbSymbolTableRecord
100
AcDbLayerTableRecord
  2
127-412_REF_GEOMETRY
 70
0
 62
7
  6
CONTINUOUS
370
-3
390
F
  0
LAYER
  5
221
100
AcDbSymbolTableRecord
100
AcDbLayerTableRecord
  2
127-413_FEATURES
 70
0
 62
7
  6
CONTINUOUS
370
-3
390
F
  0
LAYER
  5
222
100
AcDbSymbolTableRecord
100
AcDbLayerTableRecord
  2
127-413_REF_GEOMETRY
 70
0
 62
7
  6
CONTINUOUS
370
-3
390
F
  0
LAYER
  5
223
100
AcDbSymbolTableRecord
100
AcDbLayerTableRecord
  2
127-414_FEATURES
 70
0
 62
7
  6
CONTINUOUS
370
-3
390
F
  0
LAYER
  5
224
100
AcDbSymbolTableRecord
100
AcDbLayerTableRecord
  2
127-414_REF_GEOMETRY
 70
0
 62
7
  6
CONTINUOUS
370
-3
390
F
  0
LAYER
  5
225
100
AcDbSymbolTableRecord
100
AcDbLayerTableRecord
  2
127-415_FEATURES
 70
0
 62
7
  6
CONTINUOUS
370
-3
390
F
  0
LAYER
  5
226
100
AcDbSymbolTableRecord
100
AcDbLayerTableRecord
  2
127-415_REF_GEOMETRY
 70
0
 62
7
  6
CONTINUOUS
370
-3
390
F
  0
LAYER
  5
227
100
AcDbSymbolTableRecord
100
AcDbLayerTableRecord
  2
127-416_FEATURES
 70
0
 62
7
  6
CONTINUOUS
370
-3
390
F
  0
LAYER
  5
228
100
AcDbSymbolTableRecord
100
AcDbLayerTableRecord
  2
127-416_REF_GEOMETRY
 70
0
 62
7
  6
CONTINUOUS
370
-3
390
F
  0
LAYER
  5
229
100
AcDbSymbolTableRecord
100
AcDbLayerTableRecord
  2
250-NPTF_PORT
 70
0
 62
7
  6
CONTINUOUS
370
-3
390
F
  0
LAYER
  5
22A
100
AcDbSymbolTableRecord
100
AcDbLayerTableRecord
  2
COPY_GEO_FET
 70
0
 62
7
  6
CONTINUOUS
370
-3
390
F
  0
LAYER
  5
22B
100
AcDbSymbolTableRecord
100
AcDbLayerTableRecord
  2
COSMETIC
 70
0
 62
7
  6
CONTINUOUS
370
-3
390
F
  0
LAYER
  5
22C
100
AcDbSymbolTableRecord
100
AcDbLayerTableRecord
  2
CROSS_HOLE_DATUMS
 70
0
 62
7
  6
CONTINUOUS
370
-3
390
F
  0
LAYER
  5
22D
100
AcDbSymbolTableRecord
100
AcDbLayerTableRecord
  2
CURVES
 70
0
 62
7
  6
CONTINUOUS
370
-3
390
F
  0
LAYER
  5
22E
100
AcDbSymbolTableRecord
100
AcDbLayerTableRecord
  2
CUT_REF_SURF
 70
0
 62
7
  6
CONTINUOUS
370
-3
390
F
  0
LAYER
  5
22F
100
AcDbSymbolTableRecord
100
AcDbLayerTableRecord
  2
DATUM
 70
0
 62
7
  6
CONTINUOUS
370
-3
390
F
  0
LAYER
  5
230
100
AcDbSymbolTableRecord
100
AcDbLayerTableRecord
  2
DATUMCURVES
 70
0
 62
7
  6
CONTINUOUS
370
-3
390
F
  0
LAYER
  5
231
100
AcDbSymbolTableRecord
100
AcDbLayerTableRecord
  2
DIMENSIONS
 70
0
 62
7
  6
CONTINUOUS
370
-3
390
F
  0
LAYER
  5
232
100
AcDbSymbolTableRecord
100
AcDbLayerTableRecord
  2
DRAWINGNOTES
 70
0
 62
7
  6
CONTINUOUS
370
-3
390
F
  0
LAYER
  5
233
100
AcDbSymbolTableRecord
100
AcDbLayerTableRecord
  2
DTM
 70
0
 62
7
  6
CONTINUOUS
370
-3
390
F
  0
LAYER
  5
234
100
AcDbSymbolTableRecord
100
AcDbLayerTableRecord
  2
DTM230
 70
0
 62
7
  6
CONTINUOUS
370
-3
390
F
  0
LAYER
  5
235
100
AcDbSymbolTableRecord
100
AcDbLayerTableRecord
  2
DTM_500001
 70
0
 62
7
  6
CONTINUOUS
370
-3
390
F
  0
LAYER
  5
236
100
AcDbSymbolTableRecord
100
AcDbLayerTableRecord
  2
DTM_500002
 70
0
 62
7
  6
CONTINUOUS
370
-3
390
F
  0
LAYER
  5
237
100
AcDbSymbolTableRecord
100
AcDbLayerTableRecord
  2
DTM_515002
 70
0
 62
7
  6
CONTINUOUS
370
-3
390
F
  0
LAYER
  5
238
100
AcDbSymbolTableRecord
100
AcDbLayerTableRecord
  2
DTM_525001
 70
0
 62
7
  6
CONTINUOUS
370
-3
390
F
  0
LAYER
  5
239
100
AcDbSymbolTableRecord
100
AcDbLayerTableRecord
  2
DTM_SPRING_LH
 70
0
 62
7
  6
CONTINUOUS
370
-3
390
F
  0
LAYER
  5
23A
100
AcDbSymbolTableRecord
100
AcDbLayerTableRecord
  2
DTM_SPRING_RH
 70
0
 62
7
  6
CONTINUOUS
370
-3
390
F
  0
LAYER
  5
23B
100
AcDbSymbolTableRecord
100
AcDbLayerTableRecord
  2
DTM_SP_LH_CONSTR
 70
0
 62
7
  6
CONTINUOUS
370
-3
390
F
  0
LAYER
  5
23C
100
AcDbSymbolTableRecord
100
AcDbLayerTableRecord
  2
DTM_SP_RH_CONSTR
 70
0
 62
7
  6
CONTINUOUS
370
-3
390
F
  0
LAYER
  5
23D
100
AcDbSymbolTableRecord
100
AcDbLayerTableRecord
  2
FLUTE_DATUMS
 70
0
 62
7
  6
CONTINUOUS
370
-3
390
F
  0
LAYER
  5
23E
100
AcDbSymbolTableRecord
100
AcDbLayerTableRecord
  2
GEOMETRICTOLERANCES
 70
0
 62
7
  6
CONTINUOUS
370
-3
390
F
  0
LAYER
  5
23F
100
AcDbSymbolTableRecord
100
AcDbLayerTableRecord
  2
LAY0001
 70
0
 62
7
  6
CONTINUOUS
370
-3
390
F
  0
LAYER
  5
240
100
AcDbSymbolTableRecord
100
AcDbLayerTableRecord
  2
PARAMETERDIMENSIONS
 70
0
 62
7
  6
CONTINUOUS
370
-3
390
F
  0
LAYER
  5
241
100
AcDbSymbolTableRecord
100
AcDbLayerTableRecord
  2
PLANE
 70
0
 62
7
  6
CONTINUOUS
370
-3
390
F
  0
LAYER
  5
242
100
AcDbSymbolTableRecord
100
AcDbLayerTableRecord
  2
SUN_SAE-4_PORT
 70
0
 62
7
  6
CONTINUOUS
370
-3
390
F
  0
LAYER
  5
243
100
AcDbSymbolTableRecord
100
AcDbLayerTableRecord
  2
TEXT
 70
0
 62
7
  6
CONTINUOUS
370
-3
390
F
  0
LAYER
  5
244
100
AcDbSymbolTableRecord
100
AcDbLayerTableRecord
  2
THREAD
 70
0
 62
7
  6
CONTINUOUS
370
-3
390
F
  0
ENDTAB
  0
TABLE
  2
STYLE
  5
3
100
AcDbSymbolTable
 70
1
  0
STYLE
  5
11
100
AcDbSymbolTableRecord
100
AcDbTextStyleTableRecord
  2
STANDARD
 70
0
 40
0.0
 41
0.8
 50
0.0
 71
0
 42
0.2
  3
txt
  4

  0
ENDTAB
  0
TABLE
  2
VIEW
  5
6
100
AcDbSymbolTable
 70
0
  0
ENDTAB
  0
TABLE
  2
UCS
  5
7
100
AcDbSymbolTable
 70
0
  0
ENDTAB
  0
TABLE
  2
APPID
  5
9
100
AcDbSymbolTable
 70
1
  0
APPID
  5
245
100
AcDbSymbolTableRecord
100
AcDbRegAppTableRecord
  2
ACAD
 70
0
  0
ENDTAB
  0
TABLE
  2
BLOCK_RECORD
  5
1
100
AcDbSymbolTable
 70
0
  0
BLOCK_RECORD
  5
1F
100
AcDbSymbolTableRecord
100
AcDbBlockTableRecord
  2
*MODEL_SPACE
  0
BLOCK_RECORD
  5
1B
100
AcDbSymbolTableRecord
100
AcDbBlockTableRecord
  2
*PAPER_SPACE
  0
ENDTAB
  0
TABLE
  2
DIMSTYLE
  5
A
100
AcDbSymbolTable
 70
1
100
AcDbDimStyleTable
 71
0
  0
DIMSTYLE
105
246
100
AcDbSymbolTableRecord
100
AcDbDimStyleTableRecord
  2
STANDARD
 70
0
  3

  4

 40
1.0
 41
0.1875
 42
0.0625
 43
0.38
 44
0.18
 45
0.0
 46
0.0
 47
0.01
 48
0.01
140
0.15625
141
0.09
142
0.0
143
25.4
144
1.0
145
0.0
146
1.0
147
0.09
 71
0.0
 72
0.0
 73
1
 74
1
 75
0
 76
0
 77
0
 78
4
170
0
171
2
172
0
173
0
174
0
175
0
176
0
177
0
178
0
270
2
271
2
272
2
273
2
274
2
275
0
280
0
281
0
282
0
283
1
284
4
285
0
286
0
287
3
288
0
340
11
  0
ENDTAB
  0
ENDSEC
  0
SECTION
  2
BLOCKS
  0
BLOCK
  5
20
100
AcDbEntity
  8
0
100
AcDbBlockBegin
  2
*MODEL_SPACE
 70
0
 10
0.0
 20
0.0
 30
0.0
  3
*MODEL_SPACE
  1

  0
ENDBLK
  5
21
100
AcDbEntity
  8
0
100
AcDbBlockEnd
  0
BLOCK
  5
1C
100
AcDbEntity
  8
0
100
AcDbBlockBegin
  2
*PAPER_SPACE
 70
0
 10
0.0
 20
0.0
 30
0.0
  3
*PAPER_SPACE
  1

  0
ENDBLK
  5
1D
100
AcDbEntity
  8
0
100
AcDbBlockEnd
  0
ENDSEC
  0
SECTION
  2
ENTITIES
  0
LINE
  5
247
100
AcDbEntity
  8
0
100
AcDbLine
 62
7
  6
CONTINUOUS
 10
3.3535399813
 20
4.3484640576
 11
3.3535399813
 21
4.0424640576
  0
LINE
  5
248
100
AcDbEntity
  8
03__ASM_ALL_CURVES
100
AcDbLine
 62
40
  6
CONTINUOUS
 10
3.3535399813
 20
4.3484640576
 11
3.3535399813
 21
5.1027020576
  0
LINE
  5
249
100
AcDbEntity
  8
0
100
AcDbLine
 62
7
  6
CONTINUOUS
 10
3.3845399813
 20
4.3794640576
 11
3.3845399813
 21
4.0114640576
  0
LINE
  5
24A
100
AcDbEntity
  8
03__ASM_ALL_CURVES
100
AcDbLine
 62
40
  6
CONTINUOUS
 10
3.4791499813
 20
5.0817670576
 11
3.4791499813
 21
5.0398970576
  0
LINE
  5
24B
100
AcDbEntity
  8
0
100
AcDbLine
 62
7
  6
CONTINUOUS
 10
3.5835399813
 20
4.3794640576
 11
3.5835399813
 21
4.0114640576
  0
LINE
  5
24C
100
AcDbEntity
  8
0
100
AcDbLine
 62
7
  6
CONTINUOUS
 10
3.6215399813
 20
4.3794640576
 11
3.6215399813
 21
4.0114640576
  0
LINE
  5
24D
100
AcDbEntity
  8
0
100
AcDbLine
 62
7
  6
CONTINUOUS
 10
3.8535399813
 20
3.9478128725
 11
3.8535399813
 21
4.4431152427
  0
LINE
  5
24E
100
AcDbEntity
  8
0
100
AcDbLine
 62
7
  6
CONTINUOUS
 10
3.3535399813
 20
4.0424640576
 11
3.3845399813
 21
4.0114640576
  0
LINE
  5
24F
100
AcDbEntity
  8
0
100
AcDbLine
 62
7
  6
CONTINUOUS
 10
3.9155399813
 20
3.9244640576
 11
3.9155399813
 21
4.4664640576
  0
LINE
  5
250
100
AcDbEntity
  8
0
100
AcDbLine
 62
7
  6
CONTINUOUS
 10
3.9215399813
 20
3.9244640576
 11
3.9215399813
 21
4.4664640576
  0
LINE
  5
251
100
AcDbEntity
  8
0
100
AcDbLine
 62
7
  6
CONTINUOUS
 10
3.9270399813
 20
3.9299640576
 11
3.9270399813
 21
4.4609640576
  0
LINE
  5
252
100
AcDbEntity
  8
0
100
AcDbLine
 62
7
  6
CONTINUOUS
 10
3.9430399813
 20
3.9299640576
 11
3.9430399813
 21
4.4609640576
  0
LINE
  5
253
100
AcDbEntity
  8
03__ASM_ALL_CURVES
100
AcDbLine
 62
40
  6
CONTINUOUS
 10
4.2165384188
 20
5.1288708076
 11
4.2099962313
 21
5.1027020576
  0
LINE
  5
254
100
AcDbEntity
  8
03__ASM_ALL_CURVES
100
AcDbLine
 62
40
  6
CONTINUOUS
 10
4.2099962313
 20
5.1899312222
 11
4.2165384188
 21
5.198654143
  0
LINE
  5
255
100
AcDbEntity
  8
03__ASM_ALL_CURVES
100
AcDbLine
 62
40
  6
CONTINUOUS
 10
4.2296227938
 20
5.1463166399
 11
4.2165384188
 21
5.1288708076
  0
LINE
  5
256
100
AcDbEntity
  8
03__ASM_ALL_CURVES
100
AcDbLine
 62
40
  6
CONTINUOUS
 10
4.2623337313
 20
5.172485393
 11
4.2557915438
 21
5.1637624722
  0
LINE
  5
257
100
AcDbEntity
  8
0
100
AcDbLine
 62
7
  6
CONTINUOUS
 10
3.3535399813
 20
4.3484640576
 11
3.3845399813
 21
4.3794640576
  0
LINE
  5
258
100
AcDbEntity
  8
0
100
AcDbLine
 62
7
  6
CONTINUOUS
 10
4.1345399813
 20
3.9244640576
 11
4.1345399813
 21
4.4664640576
  0
LINE
  5
259
100
AcDbEntity
  8
0
100
AcDbLine
 62
7
  6
CONTINUOUS
 10
4.1655399813
 20
3.7604640576
 11
4.1655399813
 21
4.6304640576
  0
LINE
  5
25A
100
AcDbEntity
  8
0
100
AcDbLine
 62
7
  6
CONTINUOUS
 10
4.2275399813
 20
3.6984640576
 11
4.2275399813
 21
4.6924640576
  0
LINE
  5
25B
100
AcDbEntity
  8
03__ASM_ALL_CURVES
100
AcDbLine
 62
40
  6
CONTINUOUS
 10
4.4193462313
 20
5.1899312222
 11
4.4258884188
 21
5.198654143
  0
LINE
  5
25C
100
AcDbEntity
  8
03__ASM_ALL_CURVES
100
AcDbLine
 62
40
  6
CONTINUOUS
 10
4.4128040438
 20
5.1375937253
 11
4.4258884188
 21
5.1550395576
  0
LINE
  5
25D
100
AcDbEntity
  8
03__ASM_ALL_CURVES
100
AcDbLine
 62
40
  6
CONTINUOUS
 10
4.4716837313
 20
5.1812083076
 11
4.4651415438
 21
5.172485393
  0
LINE
  5
25E
100
AcDbEntity
  8
03__ASM_ALL_CURVES
100
AcDbLine
 62
40
  6
CONTINUOUS
 10
4.4782259188
 20
5.1288708076
 11
4.4651415438
 21
5.1114249745
  0
LINE
  5
25F
100
AcDbEntity
  8
03__ASM_ALL_CURVES
100
AcDbLine
 62
40
  6
CONTINUOUS
 10
4.2165384188
 20
5.198654143
 11
4.2296227938
 21
5.2073770576
  0
LINE
  5
260
100
AcDbEntity
  8
03__ASM_ALL_CURVES
100
AcDbLine
 62
40
  6
CONTINUOUS
 10
4.2557915438
 20
5.1637624722
 11
4.2296227938
 21
5.1463166399
  0
LINE
  5
261
100
AcDbEntity
  8
0
100
AcDbLine
 62
7
  6
CONTINUOUS
 10
3.9585407668
 20
3.914463272
 11
3.9430399813
 21
3.9299640576
  0
LINE
  5
262
100
AcDbEntity
  8
03__ASM_ALL_CURVES
100
AcDbLine
 62
40
  6
CONTINUOUS
 10
4.2623337313
 20
5.1899312222
 11
4.2623337313
 21
5.172485393
  0
LINE
  5
263
100
AcDbEntity
  8
03__ASM_ALL_CURVES
100
AcDbLine
 62
40
  6
CONTINUOUS
 10
4.3342977938
 20
5.1027020576
 11
4.3342977938
 21
5.1114249745
  0
LINE
  5
264
100
AcDbEntity
  8
03__ASM_ALL_CURVES
100
AcDbLine
 62
40
  6
CONTINUOUS
 10
4.4128040438
 20
5.1288708076
 11
4.4128040438
 21
5.1375937253
  0
LINE
  5
265
100
AcDbEntity
  8
03__ASM_ALL_CURVES
100
AcDbLine
 62
40
  6
CONTINUOUS
 10
4.4193462313
 20
5.1812083076
 11
4.4193462313
 21
5.1899312222
  0
LINE
  5
266
100
AcDbEntity
  8
03__ASM_ALL_CURVES
100
AcDbLine
 62
40
  6
CONTINUOUS
 10
4.6614071688
 20
5.2073770576
 11
4.6483227938
 21
5.1899312222
  0
LINE
  5
267
100
AcDbEntity
  8
0
100
AcDbLine
 62
7
  6
CONTINUOUS
 10
3.9585407668
 20
4.4764648432
 11
3.9430399813
 21
4.4609640576
  0
LINE
  5
268
100
AcDbEntity
  8
0
100
AcDbLine
 62
7
  6
CONTINUOUS
 10
4.2275399813
 20
4.6924640576
 11
4.1655399813
 21
4.6304640576
  0
LINE
  5
269
100
AcDbEntity
  8
03__ASM_ALL_CURVES
100
AcDbLine
 62
40
  6
CONTINUOUS
 10
4.4258884188
 20
5.198654143
 11
4.4389727938
 21
5.2073770576
  0
LINE
  5
26A
100
AcDbEntity
  8
03__ASM_ALL_CURVES
100
AcDbLine
 62
40
  6
CONTINUOUS
 10
4.4258884188
 20
5.1550395576
 11
4.4389727938
 21
5.1637624722
  0
LINE
  5
26B
100
AcDbEntity
  8
03__ASM_ALL_CURVES
100
AcDbLine
 62
40
  6
CONTINUOUS
 10
4.4651415438
 20
5.172485393
 11
4.4520571688
 21
5.1637624722
  0
LINE
  5
26C
100
AcDbEntity
  8
03__ASM_ALL_CURVES
100
AcDbLine
 62
40
  6
CONTINUOUS
 10
4.4651415438
 20
5.1114249745
 11
4.4520571688
 21
5.1027020576
  0
LINE
  5
26D
100
AcDbEntity
  8
0
100
AcDbLine
 62
7
  6
CONTINUOUS
 10
4.2275399813
 20
3.6984640576
 11
4.1655399813
 21
3.7604640576
  0
LINE
  5
26E
100
AcDbEntity
  8
03__ASM_ALL_CURVES
100
AcDbLine
 62
40
  6
CONTINUOUS
 10
4.4716837313
 20
5.1899312222
 11
4.4716837313
 21
5.1812083076
  0
LINE
  5
26F
100
AcDbEntity
  8
03__ASM_ALL_CURVES
100
AcDbLine
 62
40
  6
CONTINUOUS
 10
4.4782259188
 20
5.1375937253
 11
4.4782259188
 21
5.1288708076
  0
LINE
  5
270
100
AcDbEntity
  8
03__ASM_ALL_CURVES
100
AcDbLine
 62
40
  6
CONTINUOUS
 10
4.5501899813
 20
5.2073770576
 11
4.5501899813
 21
5.1027020576
  0
LINE
  5
271
100
AcDbEntity
  8
03__ASM_ALL_CURVES
100
AcDbLine
 62
40
  6
CONTINUOUS
 10
4.6483227938
 20
5.1899312222
 11
4.6417806063
 21
5.1637624722
  0
LINE
  5
272
100
AcDbEntity
  8
03__ASM_ALL_CURVES
100
AcDbLine
 62
40
  6
CONTINUOUS
 10
4.7660821688
 20
5.1463166399
 11
4.7726243563
 21
5.172485393
  0
LINE
  5
273
100
AcDbEntity
  8
03__ASM_ALL_CURVES
100
AcDbLine
 62
40
  6
CONTINUOUS
 10
4.7726243563
 20
5.172485393
 11
4.7857087313
 21
5.2073770576
  0
LINE
  5
274
100
AcDbEntity
  8
0
100
AcDbLine
 62
7
  6
CONTINUOUS
 10
4.1345399813
 20
3.9244640576
 11
4.1284452091
 21
3.9139076026
  0
LINE
  5
275
100
AcDbEntity
  8
0
100
AcDbLine
 62
7
  6
CONTINUOUS
 10
4.7108844837
 20
4.8290030397
 11
4.6655399813
 21
4.7504640576
  0
LINE
  5
276
100
AcDbEntity
  8
0
100
AcDbLine
 62
7
  6
CONTINUOUS
 10
3.9270399813
 20
4.4609640576
 11
3.9215399813
 21
4.4664640576
  0
LINE
  5
277
100
AcDbEntity
  8
0
100
AcDbLine
 62
7
  6
CONTINUOUS
 10
4.1345399813
 20
4.4664640576
 11
4.1284452091
 21
4.4770205126
  0
LINE
  5
278
100
AcDbEntity
  8
0
100
AcDbLine
 62
7
  6
CONTINUOUS
 10
4.7111506525
 20
3.5614640576
 11
4.6655399813
 21
3.6404640576
  0
LINE
  5
279
100
AcDbEntity
  8
03__ASM_ALL_CURVES
100
AcDbLine
 62
40
  6
CONTINUOUS
 10
4.6417806063
 20
5.1637624722
 11
4.6417806063
 21
5.1463166399
  0
LINE
  5
27A
100
AcDbEntity
  8
0
100
AcDbLine
 62
7
  6
CONTINUOUS
 10
4.6655399813
 20
3.6404640576
 11
4.6655399813
 21
4.7504640576
  0
LINE
  5
27B
100
AcDbEntity
  8
0
100
AcDbLine
 62
7
  6
CONTINUOUS
 10
4.7111506525
 20
3.5614640576
 11
4.7111506525
 21
3.5620787481
  0
LINE
  5
27C
100
AcDbEntity
  8
0
100
AcDbLine
 62
7
  6
CONTINUOUS
 10
4.7111506525
 20
3.8545993671
 11
4.7111506525
 21
3.9029434387
  0
LINE
  5
27D
100
AcDbEntity
  8
0
100
AcDbLine
 62
7
  6
CONTINUOUS
 10
4.7111506525
 20
4.4879846765
 11
4.7111506525
 21
4.5363287481
  0
LINE
  5
27E
100
AcDbEntity
  8
0
100
AcDbLine
 62
7
  6
CONTINUOUS
 10
4.7111506525
 20
4.8288493671
 11
4.7111506525
 21
4.8294640576
  0
LINE
  5
27F
100
AcDbEntity
  8
03__ASM_ALL_CURVES
100
AcDbLine
 62
40
  6
CONTINUOUS
 10
4.7595399813
 20
5.1027020576
 11
4.7660821688
 21
5.1463166399
  0
LINE
  5
280
100
AcDbEntity
  8
03__ASM_ALL_CURVES
100
AcDbLine
 62
40
  6
CONTINUOUS
 10
5.0997337313
 20
5.1812083076
 11
5.0931915438
 21
5.172485393
  0
LINE
  5
281
100
AcDbEntity
  8
03__ASM_ALL_CURVES
100
AcDbLine
 62
40
  6
CONTINUOUS
 10
5.1062759188
 20
5.1288708076
 11
5.0931915438
 21
5.1114249745
  0
LINE
  5
282
100
AcDbEntity
  8
0
100
AcDbLine
 62
7
  6
CONTINUOUS
 10
3.9270399813
 20
3.9299640576
 11
3.9215399813
 21
3.9244640576
  0
LINE
  5
283
100
AcDbEntity
  8
03__ASM_ALL_CURVES
100
AcDbLine
 62
40
  6
CONTINUOUS
 10
5.0539384188
 20
5.198654143
 11
5.0670227938
 21
5.2073770576
  0
LINE
  5
284
100
AcDbEntity
  8
03__ASM_ALL_CURVES
100
AcDbLine
 62
40
  6
CONTINUOUS
 10
5.0931915438
 20
5.172485393
 11
5.0801071688
 21
5.1637624722
  0
LINE
  5
285
100
AcDbEntity
  8
03__ASM_ALL_CURVES
100
AcDbLine
 62
40
  6
CONTINUOUS
 10
5.0931915438
 20
5.1114249745
 11
5.0801071688
 21
5.1027020576
  0
LINE
  5
286
100
AcDbEntity
  8
03__ASM_ALL_CURVES
100
AcDbLine
 62
40
  6
CONTINUOUS
 10
4.8642149813
 20
5.2073770576
 11
4.8642149813
 21
5.1027020576
  0
LINE
  5
287
100
AcDbEntity
  8
03__ASM_ALL_CURVES
100
AcDbLine
 62
40
  6
CONTINUOUS
 10
5.1913243563
 20
5.172485393
 11
5.2044087313
 21
5.2073770576
  0
LINE
  5
288
100
AcDbEntity
  8
03__ASM_ALL_CURVES
100
AcDbLine
 62
40
  6
CONTINUOUS
 10
5.2894571688
 20
5.1201478914
 11
5.2763727938
 21
5.1027020576
  0
LINE
  5
289
100
AcDbEntity
  8
03__ASM_ALL_CURVES
100
AcDbLine
 62
40
  6
CONTINUOUS
 10
6.8919403534
 20
3.3669578076
 11
6.8821270722
 21
3.3669578076
  0
LINE
  5
28A
100
AcDbEntity
  8
03__ASM_ALL_CURVES
100
AcDbLine
 62
40
  6
CONTINUOUS
 10
6.0550058061
 20
3.3669578076
 11
6.0451925248
 21
3.3669578076
  0
LINE
  5
28B
100
AcDbEntity
  8
03__ASM_ALL_CURVES
100
AcDbLine
 62
40
  6
CONTINUOUS
 10
5.8194870561
 20
3.3669578076
 11
5.8096737748
 21
3.3669578076
  0
LINE
  5
28C
100
AcDbEntity
  8
03__ASM_ALL_CURVES
100
AcDbLine
 62
40
  6
CONTINUOUS
 10
7.1029259003
 20
3.3669578076
 11
7.1421790253
 21
3.3669578076
  0
LINE
  5
28D
100
AcDbEntity
  8
03__ASM_ALL_CURVES
100
AcDbLine
 62
40
  6
CONTINUOUS
 10
6.9704466034
 20
3.4062109326
 11
6.9459134003
 21
3.4062109326
  0
LINE
  5
28E
100
AcDbEntity
  8
03__ASM_ALL_CURVES
100
AcDbLine
 62
40
  6
CONTINUOUS
 10
6.8134341034
 20
3.4062109326
 11
6.7889009003
 21
3.4062109326
  0
LINE
  5
28F
100
AcDbEntity
  8
03__ASM_ALL_CURVES
100
AcDbLine
 62
40
  6
CONTINUOUS
 10
5.8979933061
 20
3.4062109326
 11
5.8734601029
 21
3.4062109326
  0
LINE
  5
290
100
AcDbEntity
  8
03__ASM_ALL_CURVES
100
AcDbLine
 62
40
  6
CONTINUOUS
 10
5.7409808061
 20
3.4062109326
 11
5.7164476029
 21
3.4062109326
  0
LINE
  5
291
100
AcDbEntity
  8
03__ASM_ALL_CURVES
100
AcDbLine
 62
40
  6
CONTINUOUS
 10
6.0451925248
 20
3.4127531185
 11
6.0550058061
 21
3.4127531185
  0
LINE
  5
292
100
AcDbEntity
  8
03__ASM_ALL_CURVES
100
AcDbLine
 62
40
  6
CONTINUOUS
 10
4.6417806063
 20
5.1463166399
 11
4.6483227938
 21
5.1201478914
  0
LINE
  5
293
100
AcDbEntity
  8
03__ASM_ALL_CURVES
100
AcDbLine
 62
40
  6
CONTINUOUS
 10
4.9623477938
 20
5.1027020576
 11
4.9623477938
 21
5.1114249745
  0
LINE
  5
294
100
AcDbEntity
  8
03__ASM_ALL_CURVES
100
AcDbLine
 62
40
  6
CONTINUOUS
 10
5.0997337313
 20
5.1899312222
 11
5.0997337313
 21
5.1812083076
  0
LINE
  5
295
100
AcDbEntity
  8
03__ASM_ALL_CURVES
100
AcDbLine
 62
40
  6
CONTINUOUS
 10
5.1062759188
 20
5.1375937253
 11
5.1062759188
 21
5.1288708076
  0
LINE
  5
296
100
AcDbEntity
  8
03__ASM_ALL_CURVES
100
AcDbLine
 62
40
  6
CONTINUOUS
 10
5.1782399813
 20
5.1027020576
 11
5.1847821688
 21
5.1463166399
  0
LINE
  5
297
100
AcDbEntity
  8
03__ASM_ALL_CURVES
100
AcDbLine
 62
40
  6
CONTINUOUS
 10
5.1847821688
 20
5.1463166399
 11
5.1913243563
 21
5.172485393
  0
LINE
  5
298
100
AcDbEntity
  8
03__ASM_ALL_CURVES
100
AcDbLine
 62
40
  6
CONTINUOUS
 10
5.2959993563
 20
5.1463166399
 11
5.2894571688
 21
5.1201478914
  0
LINE
  5
299
100
AcDbEntity
  8
0
100
AcDbLine
 62
7
  6
CONTINUOUS
 10
6.1868963877
 20
3.6802941846
 11
6.1893963877
 21
3.6809640576
  0
LINE
  5
29A
100
AcDbEntity
  8
03__ASM_ALL_CURVES
100
AcDbLine
 62
40
  6
CONTINUOUS
 10
5.7164476029
 20
3.4454640576
 11
5.7409808061
 21
3.4454640576
  0
LINE
  5
29B
100
AcDbEntity
  8
03__ASM_ALL_CURVES
100
AcDbLine
 62
40
  6
CONTINUOUS
 10
5.8096737748
 20
3.4454640576
 11
5.8194870561
 21
3.4454640576
  0
LINE
  5
29C
100
AcDbEntity
  8
03__ASM_ALL_CURVES
100
AcDbLine
 62
40
  6
CONTINUOUS
 10
5.8734601029
 20
3.4454640576
 11
5.8979933061
 21
3.4454640576
  0
LINE
  5
29D
100
AcDbEntity
  8
03__ASM_ALL_CURVES
100
AcDbLine
 62
40
  6
CONTINUOUS
 10
5.9470597123
 20
3.4454640576
 11
5.9961261186
 21
3.4454640576
  0
LINE
  5
29E
100
AcDbEntity
  8
03__ASM_ALL_CURVES
100
AcDbLine
 62
40
  6
CONTINUOUS
 10
6.0451925248
 20
3.4454640576
 11
6.0550058061
 21
3.4454640576
  0
LINE
  5
29F
100
AcDbEntity
  8
03__ASM_ALL_CURVES
100
AcDbLine
 62
40
  6
CONTINUOUS
 10
6.7889009003
 20
3.4454640576
 11
6.8134341034
 21
3.4454640576
  0
LINE
  5
2A0
100
AcDbEntity
  8
03__ASM_ALL_CURVES
100
AcDbLine
 62
40
  6
CONTINUOUS
 10
6.8821270722
 20
3.4454640576
 11
6.8919403534
 21
3.4454640576
  0
LINE
  5
2A1
100
AcDbEntity
  8
03__ASM_ALL_CURVES
100
AcDbLine
 62
40
  6
CONTINUOUS
 10
6.9459134003
 20
3.4454640576
 11
6.9704466034
 21
3.4454640576
  0
LINE
  5
2A2
100
AcDbEntity
  8
03__ASM_ALL_CURVES
100
AcDbLine
 62
40
  6
CONTINUOUS
 10
7.0195130097
 20
3.4454640576
 11
7.0685794159
 21
3.4454640576
  0
LINE
  5
2A3
100
AcDbEntity
  8
03__ASM_ALL_CURVES
100
AcDbLine
 62
40
  6
CONTINUOUS
 10
7.1176458222
 20
3.4454640576
 11
7.1274591034
 21
3.4454640576
  0
LINE
  5
2A4
100
AcDbEntity
  8
0
100
AcDbLine
 62
7
  6
CONTINUOUS
 10
5.2981143554
 20
3.5614640576
 11
4.7111506525
 21
3.5614640576
  0
LINE
  5
2A5
100
AcDbEntity
  8
0
100
AcDbLine
 62
7
  6
CONTINUOUS
 10
5.2981143554
 20
3.5620787481
 11
4.7111506525
 21
3.5620787481
  0
LINE
  5
2A6
100
AcDbEntity
  8
03__ASM_ALL_CURVES
100
AcDbLine
 62
40
  6
CONTINUOUS
 10
5.8096737748
 20
3.3669578076
 11
5.7998604936
 21
3.3734999953
  0
LINE
  5
2A7
100
AcDbEntity
  8
03__ASM_ALL_CURVES
100
AcDbLine
 62
40
  6
CONTINUOUS
 10
5.7409808061
 20
3.4454640576
 11
5.7507940873
 21
3.4389218717
  0
LINE
  5
2A8
100
AcDbEntity
  8
03__ASM_ALL_CURVES
100
AcDbLine
 62
40
  6
CONTINUOUS
 10
5.8194870561
 20
3.4454640576
 11
5.8293003373
 21
3.4389218717
  0
LINE
  5
2A9
100
AcDbEntity
  8
03__ASM_ALL_CURVES
100
AcDbLine
 62
40
  6
CONTINUOUS
 10
4.2557915438
 20
5.198654143
 11
4.2623337313
 21
5.1899312222
  0
LINE
  5
2AA
100
AcDbEntity
  8
03__ASM_ALL_CURVES
100
AcDbLine
 62
40
  6
CONTINUOUS
 10
4.3342977938
 20
5.1114249745
 11
4.3408399813
 21
5.1027020576
  0
LINE
  5
2AB
100
AcDbEntity
  8
03__ASM_ALL_CURVES
100
AcDbLine
 62
40
  6
CONTINUOUS
 10
5.2959993563
 20
5.1637624722
 11
5.2959993563
 21
5.1463166399
  0
LINE
  5
2AC
100
AcDbEntity
  8
0
100
AcDbLine
 62
7
  6
CONTINUOUS
 10
5.2981143554
 20
3.5614640576
 11
5.2981143554
 21
3.5620787481
  0
LINE
  5
2AD
100
AcDbEntity
  8
0
100
AcDbLine
 62
7
  6
CONTINUOUS
 10
5.2981143554
 20
3.8545993671
 11
5.2981143554
 21
3.9029434387
  0
LINE
  5
2AE
100
AcDbEntity
  8
0
100
AcDbLine
 62
7
  6
CONTINUOUS
 10
5.2981143554
 20
4.4879846765
 11
5.2981143554
 21
4.5363287481
  0
LINE
  5
2AF
100
AcDbEntity
  8
0
100
AcDbLine
 62
7
  6
CONTINUOUS
 10
5.2981143554
 20
4.8288493671
 11
5.2981143554
 21
4.8294640576
  0
LINE
  5
2B0
100
AcDbEntity
  8
0
100
AcDbLine
 62
7
  6
CONTINUOUS
 10
6.1625399813
 20
3.6574640576
 11
6.1005399813
 21
3.6574640576
  0
LINE
  5
2B1
100
AcDbEntity
  8
0
100
AcDbLine
 62
7
  6
CONTINUOUS
 10
5.7265399813
 20
3.6574640576
 11
5.6815399813
 21
3.6574640576
  0
LINE
  5
2B2
100
AcDbEntity
  8
0
100
AcDbLine
 62
7
  6
CONTINUOUS
 10
5.5405399813
 20
3.6574640576
 11
5.3535399813
 21
3.6574640576
  0
LINE
  5
2B3
100
AcDbEntity
  8
0
100
AcDbLine
 62
7
  6
CONTINUOUS
 10
5.5405399813
 20
3.6589640576
 11
5.5905399813
 21
3.6589640576
  0
LINE
  5
2B4
100
AcDbEntity
  8
THREAD
100
AcDbLine
 62
7
  6
CONTINUOUS
 10
6.2125399813
 20
3.6809640576
 11
6.1893963877
 21
3.6809640576
  0
LINE
  5
2B5
100
AcDbEntity
  8
0
100
AcDbLine
 62
7
  6
CONTINUOUS
 10
6.2825399813
 20
3.6834640576
 11
6.3325399813
 21
3.6834640576
  0
LINE
  5
2B6
100
AcDbEntity
  8
0
100
AcDbLine
 62
7
  6
CONTINUOUS
 10
4.6655399813
 20
3.6984640576
 11
4.2275399813
 21
3.6984640576
  0
LINE
  5
2B7
100
AcDbEntity
  8
THREAD
100
AcDbLine
 62
7
  6
CONTINUOUS
 10
6.6465399813
 20
3.6994640576
 11
6.3754792915
 21
3.6994640576
  0
LINE
  5
2B8
100
AcDbEntity
  8
0
100
AcDbLine
 62
7
  6
CONTINUOUS
 10
5.6815399813
 20
3.7129640576
 11
5.6605399813
 21
3.7129640576
  0
LINE
  5
2B9
100
AcDbEntity
  8
THREAD
100
AcDbLine
 62
7
  6
CONTINUOUS
 10
6.3460344278
 20
3.7374640576
 11
6.3325399813
 21
3.7374640576
  0
LINE
  5
2BA
100
AcDbEntity
  8
0
100
AcDbLine
 62
7
  6
CONTINUOUS
 10
6.0791040459
 20
3.7374640576
 11
5.7479759167
 21
3.7374640576
  0
LINE
  5
2BB
100
AcDbEntity
  8
THREAD
100
AcDbLine
 62
7
  6
CONTINUOUS
 10
6.7745399813
 20
3.7434640576
 11
6.6905399813
 21
3.7434640576
  0
LINE
  5
2BC
100
AcDbEntity
  8
0
100
AcDbLine
 62
7
  6
CONTINUOUS
 10
7.2285399813
 20
3.7592140576
 11
7.2860399813
 21
3.7592140576
  0
LINE
  5
2BD
100
AcDbEntity
  8
0
100
AcDbLine
 62
7
  6
CONTINUOUS
 10
7.4835399813
 20
3.7592140576
 11
7.5255399813
 21
3.7592140576
  0
LINE
  5
2BE
100
AcDbEntity
  8
0
100
AcDbLine
 62
7
  6
CONTINUOUS
 10
7.2860399813
 20
3.7594640576
 11
7.3360399813
 21
3.7594640576
  0
LINE
  5
2BF
100
AcDbEntity
  8
0
100
AcDbLine
 62
7
  6
CONTINUOUS
 10
7.4060399813
 20
3.7594640576
 11
7.4560399813
 21
3.7594640576
  0
LINE
  5
2C0
100
AcDbEntity
  8
03__ASM_ALL_CURVES
100
AcDbLine
 62
40
  6
CONTINUOUS
 10
5.8979933061
 20
3.4454640576
 11
5.9078065873
 21
3.4389218717
  0
LINE
  5
2C1
100
AcDbEntity
  8
03__ASM_ALL_CURVES
100
AcDbLine
 62
40
  6
CONTINUOUS
 10
6.0451925248
 20
3.3669578076
 11
6.0353792436
 21
3.3734999953
  0
LINE
  5
2C2
100
AcDbEntity
  8
03__ASM_ALL_CURVES
100
AcDbLine
 62
40
  6
CONTINUOUS
 10
6.0550058061
 20
3.4127531185
 11
6.0648190873
 21
3.4062109326
  0
LINE
  5
2C3
100
AcDbEntity
  8
03__ASM_ALL_CURVES
100
AcDbLine
 62
40
  6
CONTINUOUS
 10
6.0550058061
 20
3.4454640576
 11
6.0648190873
 21
3.4389218717
  0
LINE
  5
2C4
100
AcDbEntity
  8
03__ASM_ALL_CURVES
100
AcDbLine
 62
40
  6
CONTINUOUS
 10
4.4258884188
 20
5.1114249745
 11
4.4128040438
 21
5.1288708076
  0
LINE
  5
2C5
100
AcDbEntity
  8
03__ASM_ALL_CURVES
100
AcDbLine
 62
40
  6
CONTINUOUS
 10
4.4258884188
 20
5.172485393
 11
4.4193462313
 21
5.1812083076
  0
LINE
  5
2C6
100
AcDbEntity
  8
03__ASM_ALL_CURVES
100
AcDbLine
 62
40
  6
CONTINUOUS
 10
5.7998604936
 20
3.3734999953
 11
5.7900472123
 21
3.3865843701
  0
LINE
  5
2C7
100
AcDbEntity
  8
03__ASM_ALL_CURVES
100
AcDbLine
 62
40
  6
CONTINUOUS
 10
5.7507940873
 20
3.4389218717
 11
5.7557007279
 21
3.432379681
  0
LINE
  5
2C8
100
AcDbEntity
  8
03__ASM_ALL_CURVES
100
AcDbLine
 62
40
  6
CONTINUOUS
 10
4.4651415438
 20
5.1550395576
 11
4.4782259188
 21
5.1375937253
  0
LINE
  5
2C9
100
AcDbEntity
  8
03__ASM_ALL_CURVES
100
AcDbLine
 62
40
  6
CONTINUOUS
 10
4.4651415438
 20
5.198654143
 11
4.4716837313
 21
5.1899312222
  0
LINE
  5
2CA
100
AcDbEntity
  8
0
100
AcDbLine
 62
7
  6
CONTINUOUS
 10
5.3535399813
 20
3.6574640576
 11
5.3535399813
 21
4.7334640576
  0
LINE
  5
2CB
100
AcDbEntity
  8
03__ASM_ALL_CURVES
100
AcDbLine
 62
40
  6
CONTINUOUS
 10
6.4442371682
 20
5.198654143
 11
6.4573215432
 21
5.2073770576
  0
LINE
  5
2CC
100
AcDbEntity
  8
03__ASM_ALL_CURVES
100
AcDbLine
 62
40
  6
CONTINUOUS
 10
6.5489121682
 20
5.198654143
 11
6.5619965432
 21
5.2073770576
  0
LINE
  5
2CD
100
AcDbEntity
  8
0
100
AcDbLine
 62
7
  6
CONTINUOUS
 10
6.7915399813
 20
3.7894640576
 11
6.8835399813
 21
3.7894640576
  0
LINE
  5
2CE
100
AcDbEntity
  8
0
100
AcDbLine
 62
7
  6
CONTINUOUS
 10
7.4835399813
 20
3.8134640576
 11
7.4560399813
 21
3.8134640576
  0
LINE
  5
2CF
100
AcDbEntity
  8
0
100
AcDbLine
 62
7
  6
CONTINUOUS
 10
7.2285399813
 20
3.8214640576
 11
7.1212915233
 21
3.8214640576
  0
LINE
  5
2D0
100
AcDbEntity
  8
0
100
AcDbLine
 62
7
  6
CONTINUOUS
 10
6.9597884392
 20
3.8214640576
 11
6.9155399813
 21
3.8214640576
  0
LINE
  5
2D1
100
AcDbEntity
  8
0
100
AcDbLine
 62
7
  6
CONTINUOUS
 10
6.7915399813
 20
3.8214640576
 11
6.7905399813
 21
3.8214640576
  0
LINE
  5
2D2
100
AcDbEntity
  8
0
100
AcDbLine
 62
7
  6
CONTINUOUS
 10
5.2981143554
 20
3.8545993671
 11
4.7111506525
 21
3.8545993671
  0
LINE
  5
2D3
100
AcDbEntity
  8
0
100
AcDbLine
 62
7
  6
CONTINUOUS
 10
5.2981143554
 20
3.9029434387
 11
4.7111506525
 21
3.9029434387
  0
LINE
  5
2D4
100
AcDbEntity
  8
0
100
AcDbLine
 62
7
  6
CONTINUOUS
 10
3.9585399813
 20
3.9144640576
 11
4.128763703
 21
3.9144640576
  0
LINE
  5
2D5
100
AcDbEntity
  8
0
100
AcDbLine
 62
7
  6
CONTINUOUS
 10
4.1655399813
 20
3.9244640576
 11
4.1345399813
 21
3.9244640576
  0
LINE
  5
2D6
100
AcDbEntity
  8
0
100
AcDbLine
 62
7
  6
CONTINUOUS
 10
3.9215399813
 20
3.9244640576
 11
3.9155399813
 21
3.9244640576
  0
LINE
  5
2D7
100
AcDbEntity
  8
0
100
AcDbLine
 62
7
  6
CONTINUOUS
 10
3.9430399813
 20
3.9299640576
 11
3.9270399813
 21
3.9299640576
  0
LINE
  5
2D8
100
AcDbEntity
  8
03__ASM_ALL_CURVES
100
AcDbLine
 62
40
  6
CONTINUOUS
 10
5.8293003373
 20
3.4389218717
 11
5.8391136186
 21
3.4258374951
  0
LINE
  5
2D9
100
AcDbEntity
  8
03__ASM_ALL_CURVES
100
AcDbLine
 62
40
  6
CONTINUOUS
 10
5.9078065873
 20
3.4389218717
 11
5.9127132279
 21
3.432379681
  0
LINE
  5
2DA
100
AcDbEntity
  8
03__ASM_ALL_CURVES
100
AcDbLine
 62
40
  6
CONTINUOUS
 10
4.6483227938
 20
5.1201478914
 11
4.6614071688
 21
5.1027020576
  0
LINE
  5
2DB
100
AcDbEntity
  8
03__ASM_ALL_CURVES
100
AcDbLine
 62
40
  6
CONTINUOUS
 10
6.0353792436
 20
3.3734999953
 11
6.0304726029
 21
3.380042183
  0
LINE
  5
2DC
100
AcDbEntity
  8
0
100
AcDbLine
 62
7
  6
CONTINUOUS
 10
5.5405399813
 20
3.6574640576
 11
5.5405399813
 21
4.7334640576
  0
LINE
  5
2DD
100
AcDbEntity
  8
0
100
AcDbLine
 62
7
  6
CONTINUOUS
 10
5.5905399813
 20
3.6589640576
 11
5.5905399813
 21
4.7319640576
  0
LINE
  5
2DE
100
AcDbEntity
  8
03__ASM_ALL_CURVES
100
AcDbLine
 62
40
  6
CONTINUOUS
 10
6.4834902932
 20
5.1114249745
 11
6.4704059182
 21
5.1027020576
  0
LINE
  5
2DF
100
AcDbEntity
  8
03__ASM_ALL_CURVES
100
AcDbLine
 62
40
  6
CONTINUOUS
 10
6.5881652932
 20
5.1114249745
 11
6.5750809182
 21
5.1027020576
  0
LINE
  5
2E0
100
AcDbEntity
  8
0
100
AcDbLine
 62
7
  6
CONTINUOUS
 10
3.3845399813
 20
4.0114640576
 11
3.5835399813
 21
4.0114640576
  0
LINE
  5
2E1
100
AcDbEntity
  8
0
100
AcDbLine
 62
7
  6
CONTINUOUS
 10
3.6215399813
 20
4.0114640576
 11
3.8535399813
 21
4.0114640576
  0
LINE
  5
2E2
100
AcDbEntity
  8
0
100
AcDbLine
 62
7
  6
CONTINUOUS
 10
3.5835399813
 20
4.0444640576
 11
3.6215399813
 21
4.0444640576
  0
LINE
  5
2E3
100
AcDbEntity
  8
03__ASM_ALL_CURVES
100
AcDbLine
 62
40
  6
CONTINUOUS
 10
6.8821270722
 20
3.3669578076
 11
6.8723137909
 21
3.3734999953
  0
LINE
  5
2E4
100
AcDbEntity
  8
03__ASM_ALL_CURVES
100
AcDbLine
 62
40
  6
CONTINUOUS
 10
6.0648190873
 20
3.4062109326
 11
6.0746323686
 21
3.3931265584
  0
LINE
  5
2E5
100
AcDbEntity
  8
03__ASM_ALL_CURVES
100
AcDbLine
 62
40
  6
CONTINUOUS
 10
6.0648190873
 20
3.4389218717
 11
6.0697257279
 21
3.432379681
  0
LINE
  5
2E6
100
AcDbEntity
  8
03__ASM_ALL_CURVES
100
AcDbLine
 62
40
  6
CONTINUOUS
 10
4.9623477938
 20
5.1114249745
 11
4.9688899813
 21
5.1027020576
  0
LINE
  5
2E7
100
AcDbEntity
  8
0
100
AcDbLine
 62
7
  6
CONTINUOUS
 10
5.3535399813
 20
4.7334640576
 11
5.2983805242
 21
4.8290030397
  0
LINE
  5
2E8
100
AcDbEntity
  8
03__ASM_ALL_CURVES
100
AcDbLine
 62
40
  6
CONTINUOUS
 10
5.8979933061
 20
3.4062109326
 11
5.9127132279
 21
3.3669578076
  0
LINE
  5
2E9
100
AcDbEntity
  8
03__ASM_ALL_CURVES
100
AcDbLine
 62
40
  6
CONTINUOUS
 10
5.2894571688
 20
5.1899312222
 11
5.2959993563
 21
5.1637624722
  0
LINE
  5
2EA
100
AcDbEntity
  8
03__ASM_ALL_CURVES
100
AcDbLine
 62
40
  6
CONTINUOUS
 10
5.7900472123
 20
3.3865843701
 11
5.7851405717
 21
3.4062109326
  0
LINE
  5
2EB
100
AcDbEntity
  8
03__ASM_ALL_CURVES
100
AcDbLine
 62
40
  6
CONTINUOUS
 10
5.8391136186
 20
3.4258374951
 11
5.8440202592
 21
3.4062109326
  0
LINE
  5
2EC
100
AcDbEntity
  8
0
100
AcDbLine
 62
7
  6
CONTINUOUS
 10
5.6605399813
 20
4.7129640576
 11
5.6605399813
 21
3.6779640576
  0
LINE
  5
2ED
100
AcDbEntity
  8
0
100
AcDbLine
 62
7
  6
CONTINUOUS
 10
5.6815399813
 20
3.6574640576
 11
5.6815399813
 21
4.7334640576
  0
LINE
  5
2EE
100
AcDbEntity
  8
03__ASM_ALL_CURVES
100
AcDbLine
 62
40
  6
CONTINUOUS
 10
5.7164476029
 20
3.3669578076
 11
5.7164476029
 21
3.4454640576
  0
LINE
  5
2EF
100
AcDbEntity
  8
0
100
AcDbLine
 62
7
  6
CONTINUOUS
 10
5.7265399813
 20
3.6574640576
 11
5.7265399813
 21
4.7334640576
  0
LINE
  5
2F0
100
AcDbEntity
  8
127-413_FEATURES
100
AcDbLine
 62
7
  6
CONTINUOUS
 10
5.7479759167
 20
3.7374640576
 11
5.7479759167
 21
4.1779651088
  0
LINE
  5
2F1
100
AcDbEntity
  8
127-413_FEATURES
100
AcDbLine
 62
7
  6
CONTINUOUS
 10
5.7479759167
 20
4.2129630064
 11
5.7479759167
 21
4.6534640576
  0
LINE
  5
2F2
100
AcDbEntity
  8
03__ASM_ALL_CURVES
100
AcDbLine
 62
40
  6
CONTINUOUS
 10
5.7557007279
 20
3.432379681
 11
5.7557007279
 21
3.4192953092
  0
LINE
  5
2F3
100
AcDbEntity
  8
0
100
AcDbLine
 62
7
  6
CONTINUOUS
 10
5.3535399813
 20
3.6574640576
 11
5.2983805242
 21
3.5619250755
  0
LINE
  5
2F4
100
AcDbEntity
  8
03__ASM_ALL_CURVES
100
AcDbLine
 62
40
  6
CONTINUOUS
 10
6.4311527932
 20
5.1812083076
 11
6.4442371682
 21
5.198654143
  0
LINE
  5
2F5
100
AcDbEntity
  8
03__ASM_ALL_CURVES
100
AcDbLine
 62
40
  6
CONTINUOUS
 10
7.0722871682
 20
5.198654143
 11
7.0853715432
 21
5.2073770576
  0
LINE
  5
2F6
100
AcDbEntity
  8
127-413_FEATURES
100
AcDbLine
 62
7
  6
CONTINUOUS
 10
5.7479759167
 20
4.1779651088
 11
5.7479136272
 21
4.1779640577
  0
LINE
  5
2F7
100
AcDbEntity
  8
0
100
AcDbLine
 62
7
  6
CONTINUOUS
 10
4.1036685709
 20
4.1954640576
 11
4.0020108326
 21
4.1954640576
  0
LINE
  5
2F8
100
AcDbEntity
  8
03__ASM_ALL_CURVES
100
AcDbLine
 62
40
  6
CONTINUOUS
 10
8.0185794335
 20
4.2163990576
 11
8.0087661522
 21
4.2163990576
  0
LINE
  5
2F9
100
AcDbEntity
  8
03__ASM_ALL_CURVES
100
AcDbLine
 62
40
  6
CONTINUOUS
 10
8.0970856835
 20
4.2556521826
 11
8.0725524804
 21
4.2556521826
  0
LINE
  5
2FA
100
AcDbEntity
  8
03__ASM_ALL_CURVES
100
AcDbLine
 62
40
  6
CONTINUOUS
 10
7.9400731835
 20
4.2556521826
 11
7.9155399804
 21
4.2556521826
  0
LINE
  5
2FB
100
AcDbEntity
  8
03__ASM_ALL_CURVES
100
AcDbLine
 62
40
  6
CONTINUOUS
 10
7.9155399804
 20
4.2949053076
 11
7.9400731835
 21
4.2949053076
  0
LINE
  5
2FC
100
AcDbEntity
  8
03__ASM_ALL_CURVES
100
AcDbLine
 62
40
  6
CONTINUOUS
 10
8.0087661522
 20
4.2949053076
 11
8.0185794335
 21
4.2949053076
  0
LINE
  5
2FD
100
AcDbEntity
  8
03__ASM_ALL_CURVES
100
AcDbLine
 62
40
  6
CONTINUOUS
 10
8.0725524804
 20
4.2949053076
 11
8.0970856835
 21
4.2949053076
  0
LINE
  5
2FE
100
AcDbEntity
  8
03__ASM_ALL_CURVES
100
AcDbLine
 62
40
  6
CONTINUOUS
 10
8.1461520897
 20
4.2949053076
 11
8.195218496
 21
4.2949053076
  0
LINE
  5
2FF
100
AcDbEntity
  8
127-413_FEATURES
100
AcDbLine
 62
7
  6
CONTINUOUS
 10
5.747911723
 20
4.2129640565
 11
5.7479759167
 21
4.2129630064
  0
LINE
  5
300
100
AcDbEntity
  8
03__ASM_ALL_CURVES
100
AcDbLine
 62
40
  6
CONTINUOUS
 10
6.8134341034
 20
3.4454640576
 11
6.8232473847
 21
3.4389218717
  0
LINE
  5
301
100
AcDbEntity
  8
03__ASM_ALL_CURVES
100
AcDbLine
 62
40
  6
CONTINUOUS
 10
4.2427071688
 20
5.2073770576
 11
4.2557915438
 21
5.198654143
  0
LINE
  5
302
100
AcDbEntity
  8
03__ASM_ALL_CURVES
100
AcDbLine
 62
40
  6
CONTINUOUS
 10
6.8919403534
 20
3.4454640576
 11
6.9017536347
 21
3.4389218717
  0
LINE
  5
303
100
AcDbEntity
  8
03__ASM_ALL_CURVES
100
AcDbLine
 62
40
  6
CONTINUOUS
 10
4.4389727938
 20
5.1027020576
 11
4.4258884188
 21
5.1114249745
  0
LINE
  5
304
100
AcDbEntity
  8
03__ASM_ALL_CURVES
100
AcDbLine
 62
40
  6
CONTINUOUS
 10
6.9704466034
 20
3.4454640576
 11
6.9802598847
 21
3.4389218717
  0
LINE
  5
305
100
AcDbEntity
  8
03__ASM_ALL_CURVES
100
AcDbLine
 62
40
  6
CONTINUOUS
 10
4.4389727938
 20
5.1637624722
 11
4.4258884188
 21
5.172485393
  0
LINE
  5
306
100
AcDbEntity
  8
03__ASM_ALL_CURVES
100
AcDbLine
 62
40
  6
CONTINUOUS
 10
4.4520571688
 20
5.1637624722
 11
4.4651415438
 21
5.1550395576
  0
LINE
  5
307
100
AcDbEntity
  8
03__ASM_ALL_CURVES
100
AcDbLine
 62
40
  6
CONTINUOUS
 10
4.4520571688
 20
5.2073770576
 11
4.4651415438
 21
5.198654143
  0
LINE
  5
308
100
AcDbEntity
  8
03__ASM_ALL_CURVES
100
AcDbLine
 62
40
  6
CONTINUOUS
 10
5.0539384188
 20
5.1114249745
 11
5.0473962313
 21
5.1201478914
  0
LINE
  5
309
100
AcDbEntity
  8
03__ASM_ALL_CURVES
100
AcDbLine
 62
40
  6
CONTINUOUS
 10
5.0931915438
 20
5.1550395576
 11
5.1062759188
 21
5.1375937253
  0
LINE
  5
30A
100
AcDbEntity
  8
03__ASM_ALL_CURVES
100
AcDbLine
 62
40
  6
CONTINUOUS
 10
5.0931915438
 20
5.198654143
 11
5.0997337313
 21
5.1899312222
  0
LINE
  5
30B
100
AcDbEntity
  8
03__ASM_ALL_CURVES
100
AcDbLine
 62
40
  6
CONTINUOUS
 10
5.8734601029
 20
3.3669578076
 11
5.8734601029
 21
3.4454640576
  0
LINE
  5
30C
100
AcDbEntity
  8
03__ASM_ALL_CURVES
100
AcDbLine
 62
40
  6
CONTINUOUS
 10
5.9127132279
 20
3.432379681
 11
5.9127132279
 21
3.4192953092
  0
LINE
  5
30D
100
AcDbEntity
  8
03__ASM_ALL_CURVES
100
AcDbLine
 62
40
  6
CONTINUOUS
 10
5.9715929154
 20
3.4454640576
 11
5.9715929154
 21
3.3669578076
  0
LINE
  5
30E
100
AcDbEntity
  8
0
100
AcDbLine
 62
7
  6
CONTINUOUS
 10
5.7479759167
 20
3.7374640576
 11
5.7265399813
 21
3.6574640576
  0
LINE
  5
30F
100
AcDbEntity
  8
0
100
AcDbLine
 62
7
  6
CONTINUOUS
 10
6.1005399813
 20
4.7334640576
 11
6.0791040459
 21
4.6534640576
  0
LINE
  5
310
100
AcDbEntity
  8
03__ASM_ALL_CURVES
100
AcDbLine
 62
40
  6
CONTINUOUS
 10
6.4965746682
 20
5.1288708076
 11
6.4834902932
 21
5.1114249745
  0
LINE
  5
311
100
AcDbEntity
  8
03__ASM_ALL_CURVES
100
AcDbLine
 62
40
  6
CONTINUOUS
 10
6.5358277932
 20
5.1812083076
 11
6.5489121682
 21
5.198654143
  0
LINE
  5
312
100
AcDbEntity
  8
03__ASM_ALL_CURVES
100
AcDbLine
 62
40
  6
CONTINUOUS
 10
6.5947074807
 20
5.1201478914
 11
6.5881652932
 21
5.1114249745
  0
LINE
  5
313
100
AcDbEntity
  8
03__ASM_ALL_CURVES
100
AcDbLine
 62
40
  6
CONTINUOUS
 10
7.1115402932
 20
5.1114249745
 11
7.0984559182
 21
5.1027020576
  0
LINE
  5
314
100
AcDbEntity
  8
03__ASM_ALL_CURVES
100
AcDbLine
 62
40
  6
CONTINUOUS
 10
7.2947215432
 20
5.2073770576
 11
7.2816371682
 21
5.198654143
  0
LINE
  5
315
100
AcDbEntity
  8
03__ASM_ALL_CURVES
100
AcDbLine
 62
40
  6
CONTINUOUS
 10
7.3208902932
 20
5.1114249745
 11
7.3078059182
 21
5.1027020576
  0
LINE
  5
316
100
AcDbEntity
  8
03__ASM_ALL_CURVES
100
AcDbLine
 62
40
  6
CONTINUOUS
 10
7.4909871682
 20
5.198654143
 11
7.5040715432
 21
5.2073770576
  0
LINE
  5
317
100
AcDbEntity
  8
0
100
AcDbLine
 62
7
  6
CONTINUOUS
 10
3.5835399813
 20
4.3464640576
 11
3.6215399813
 21
4.3464640576
  0
LINE
  5
318
100
AcDbEntity
  8
0
100
AcDbLine
 62
7
  6
CONTINUOUS
 10
3.3845399813
 20
4.3794640576
 11
3.5835399813
 21
4.3794640576
  0
LINE
  5
319
100
AcDbEntity
  8
0
100
AcDbLine
 62
7
  6
CONTINUOUS
 10
3.6215399813
 20
4.3794640576
 11
3.8535399813
 21
4.3794640576
  0
LINE
  5
31A
100
AcDbEntity
  8
0
100
AcDbLine
 62
7
  6
CONTINUOUS
 10
3.9430399813
 20
4.4609640576
 11
3.9270399813
 21
4.4609640576
  0
LINE
  5
31B
100
AcDbEntity
  8
0
100
AcDbLine
 62
7
  6
CONTINUOUS
 10
4.1655399813
 20
4.4664640576
 11
4.1345399813
 21
4.4664640576
  0
LINE
  5
31C
100
AcDbEntity
  8
0
100
AcDbLine
 62
7
  6
CONTINUOUS
 10
3.9215399813
 20
4.4664640576
 11
3.9155399813
 21
4.4664640576
  0
LINE
  5
31D
100
AcDbEntity
  8
0
100
AcDbLine
 62
7
  6
CONTINUOUS
 10
3.9585399813
 20
4.4764640576
 11
4.128763703
 21
4.4764640576
  0
LINE
  5
31E
100
AcDbEntity
  8
03__ASM_ALL_CURVES
100
AcDbLine
 62
40
  6
CONTINUOUS
 10
7.1274591034
 20
3.4454640576
 11
7.1372723847
 21
3.4389218717
  0
LINE
  5
31F
100
AcDbEntity
  8
03__ASM_ALL_CURVES
100
AcDbLine
 62
40
  6
CONTINUOUS
 10
5.2763727938
 20
5.2073770576
 11
5.2894571688
 21
5.1899312222
  0
LINE
  5
320
100
AcDbEntity
  8
0
100
AcDbLine
 62
7
  6
CONTINUOUS
 10
5.7479759167
 20
4.6534640576
 11
5.7265399813
 21
4.7334640576
  0
LINE
  5
321
100
AcDbEntity
  8
0
100
AcDbLine
 62
7
  6
CONTINUOUS
 10
6.1005399813
 20
3.6574640576
 11
6.0791040459
 21
3.7374640576
  0
LINE
  5
322
100
AcDbEntity
  8
03__ASM_ALL_CURVES
100
AcDbLine
 62
40
  6
CONTINUOUS
 10
6.0399299813
 20
5.0817670576
 11
6.0399299813
 21
5.0398970576
  0
LINE
  5
323
100
AcDbEntity
  8
03__ASM_ALL_CURVES
100
AcDbLine
 62
40
  6
CONTINUOUS
 10
6.0697257279
 20
3.432379681
 11
6.0697257279
 21
3.4258374951
  0
LINE
  5
324
100
AcDbEntity
  8
03__ASM_ALL_CURVES
100
AcDbLine
 62
40
  6
CONTINUOUS
 10
6.0746323686
 20
3.3931265584
 11
6.0746323686
 21
3.3865843701
  0
LINE
  5
325
100
AcDbEntity
  8
0
100
AcDbLine
 62
7
  6
CONTINUOUS
 10
6.0791040459
 20
3.7374640576
 11
6.0791040459
 21
4.6534640576
  0
LINE
  5
326
100
AcDbEntity
  8
0
100
AcDbLine
 62
7
  6
CONTINUOUS
 10
6.1005399813
 20
3.6574640576
 11
6.1005399813
 21
4.7334640576
  0
LINE
  5
327
100
AcDbEntity
  8
0
100
AcDbLine
 62
7
  6
CONTINUOUS
 10
6.1625399813
 20
4.7334640576
 11
6.1625399813
 21
3.6574640576
  0
LINE
  5
328
100
AcDbEntity
  8
0
100
AcDbLine
 62
7
  6
CONTINUOUS
 10
6.1655399813
 20
4.7304640576
 11
6.1655399813
 21
3.6604640576
  0
LINE
  5
329
100
AcDbEntity
  8
03__ASM_ALL_CURVES
100
AcDbLine
 62
40
  6
CONTINUOUS
 10
6.1655399813
 20
4.7543990576
 11
6.1655399813
 21
5.1027020576
  0
LINE
  5
32A
100
AcDbEntity
  8
0
100
AcDbLine
 62
7
  6
CONTINUOUS
 10
6.1680399813
 20
3.6694074333
 11
6.1680399813
 21
4.7215206819
  0
LINE
  5
32B
100
AcDbEntity
  8
03__ASM_ALL_CURVES
100
AcDbLine
 62
40
  6
CONTINUOUS
 10
5.7851405717
 20
3.4062109326
 11
5.7900472123
 21
3.4258374951
  0
LINE
  5
32C
100
AcDbEntity
  8
03__ASM_ALL_CURVES
100
AcDbLine
 62
40
  6
CONTINUOUS
 10
5.8440202592
 20
3.4062109326
 11
5.8391136186
 21
3.3865843701
  0
LINE
  5
32D
100
AcDbEntity
  8
THREAD
100
AcDbLine
 62
7
  6
CONTINUOUS
 10
6.3754792915
 20
4.6914640576
 11
6.357292758
 21
4.6599640576
  0
LINE
  5
32E
100
AcDbEntity
  8
03__ASM_ALL_CURVES
100
AcDbLine
 62
40
  6
CONTINUOUS
 10
7.5302402932
 20
5.1114249745
 11
7.5171559182
 21
5.1027020576
  0
LINE
  5
32F
100
AcDbEntity
  8
03__ASM_ALL_CURVES
100
AcDbLine
 62
40
  6
CONTINUOUS
 10
7.6349152932
 20
5.1114249745
 11
7.6218309182
 21
5.1027020576
  0
LINE
  5
330
100
AcDbEntity
  8
0
100
AcDbLine
 62
7
  6
CONTINUOUS
 10
5.2981143554
 20
4.4879846765
 11
4.7111506525
 21
4.4879846765
  0
LINE
  5
331
100
AcDbEntity
  8
0
100
AcDbLine
 62
7
  6
CONTINUOUS
 10
5.2981143554
 20
4.5363287481
 11
4.7111506525
 21
4.5363287481
  0
LINE
  5
332
100
AcDbEntity
  8
0
100
AcDbLine
 62
7
  6
CONTINUOUS
 10
7.2285399813
 20
4.5694640576
 11
7.1212915233
 21
4.5694640576
  0
LINE
  5
333
100
AcDbEntity
  8
0
100
AcDbLine
 62
7
  6
CONTINUOUS
 10
6.9597884392
 20
4.5694640576
 11
6.9155399813
 21
4.5694640576
  0
LINE
  5
334
100
AcDbEntity
  8
0
100
AcDbLine
 62
7
  6
CONTINUOUS
 10
6.7915399813
 20
4.5694640576
 11
6.7905399813
 21
4.5694640576
  0
LINE
  5
335
100
AcDbEntity
  8
0
100
AcDbLine
 62
7
  6
CONTINUOUS
 10
7.4835399813
 20
4.5774640576
 11
7.4560399813
 21
4.5774640576
  0
LINE
  5
336
100
AcDbEntity
  8
0
100
AcDbLine
 62
7
  6
CONTINUOUS
 10
6.7915399813
 20
4.6014640576
 11
6.8835399813
 21
4.6014640576
  0
LINE
  5
337
100
AcDbEntity
  8
0
100
AcDbLine
 62
7
  6
CONTINUOUS
 10
7.2860399813
 20
4.6314640576
 11
7.3360399813
 21
4.6314640576
  0
LINE
  5
338
100
AcDbEntity
  8
0
100
AcDbLine
 62
7
  6
CONTINUOUS
 10
7.4060399813
 20
4.6314640576
 11
7.4560399813
 21
4.6314640576
  0
LINE
  5
339
100
AcDbEntity
  8
0
100
AcDbLine
 62
7
  6
CONTINUOUS
 10
7.2285399813
 20
4.6317140576
 11
7.2860399813
 21
4.6317140576
  0
LINE
  5
33A
100
AcDbEntity
  8
0
100
AcDbLine
 62
7
  6
CONTINUOUS
 10
7.4835399813
 20
4.6317140576
 11
7.5255399813
 21
4.6317140576
  0
LINE
  5
33B
100
AcDbEntity
  8
THREAD
100
AcDbLine
 62
7
  6
CONTINUOUS
 10
6.7745399813
 20
4.6474640576
 11
6.6905399813
 21
4.6474640576
  0
LINE
  5
33C
100
AcDbEntity
  8
THREAD
100
AcDbLine
 62
7
  6
CONTINUOUS
 10
6.3460344278
 20
4.6534640576
 11
6.3325399813
 21
4.6534640576
  0
LINE
  5
33D
100
AcDbEntity
  8
0
100
AcDbLine
 62
7
  6
CONTINUOUS
 10
6.0791040459
 20
4.6534640576
 11
5.7479759167
 21
4.6534640576
  0
LINE
  5
33E
100
AcDbEntity
  8
03__ASM_ALL_CURVES
100
AcDbLine
 62
40
  6
CONTINUOUS
 10
3.4791499813
 20
5.0398970576
 11
3.3535399813
 21
5.0608320576
  0
LINE
  5
33F
100
AcDbEntity
  8
03__ASM_ALL_CURVES
100
AcDbLine
 62
40
  6
CONTINUOUS
 10
5.0670227938
 20
5.1027020576
 11
5.0539384188
 21
5.1114249745
  0
LINE
  5
340
100
AcDbEntity
  8
03__ASM_ALL_CURVES
100
AcDbLine
 62
40
  6
CONTINUOUS
 10
5.0801071688
 20
5.1637624722
 11
5.0931915438
 21
5.1550395576
  0
LINE
  5
341
100
AcDbEntity
  8
03__ASM_ALL_CURVES
100
AcDbLine
 62
40
  6
CONTINUOUS
 10
5.0801071688
 20
5.2073770576
 11
5.0931915438
 21
5.198654143
  0
LINE
  5
342
100
AcDbEntity
  8
03__ASM_ALL_CURVES
100
AcDbLine
 62
40
  6
CONTINUOUS
 10
6.8723137909
 20
3.3734999953
 11
6.8625005097
 21
3.3865843701
  0
LINE
  5
343
100
AcDbEntity
  8
03__ASM_ALL_CURVES
100
AcDbLine
 62
40
  6
CONTINUOUS
 10
6.8232473847
 20
3.4389218717
 11
6.8281540253
 21
3.432379681
  0
LINE
  5
344
100
AcDbEntity
  8
03__ASM_ALL_CURVES
100
AcDbLine
 62
40
  6
CONTINUOUS
 10
6.9017536347
 20
3.4389218717
 11
6.9115669159
 21
3.4258374951
  0
LINE
  5
345
100
AcDbEntity
  8
THREAD
100
AcDbLine
 62
7
  6
CONTINUOUS
 10
6.3754792915
 20
3.6994640576
 11
6.357292758
 21
3.7309640576
  0
LINE
  5
346
100
AcDbEntity
  8
0
100
AcDbLine
 62
7
  6
CONTINUOUS
 10
6.1868963877
 20
3.6802941846
 11
6.1868963812
 21
3.680964033
  0
LINE
  5
347
100
AcDbEntity
  8
0
100
AcDbLine
 62
7
  6
CONTINUOUS
 10
6.1868963812
 20
3.680964033
 11
6.1868963877
 21
4.7106339306
  0
LINE
  5
348
100
AcDbEntity
  8
0
100
AcDbLine
 62
7
  6
CONTINUOUS
 10
6.1893963877
 20
3.6809640576
 11
6.1893963877
 21
4.7099640576
  0
LINE
  5
349
100
AcDbEntity
  8
THREAD
100
AcDbLine
 62
7
  6
CONTINUOUS
 10
6.2125399813
 20
3.6809640576
 11
6.2125399813
 21
4.7099640576
  0
LINE
  5
34A
100
AcDbEntity
  8
0
100
AcDbLine
 62
7
  6
CONTINUOUS
 10
6.2825399813
 20
3.6834640576
 11
6.2825399813
 21
4.7074640576
  0
LINE
  5
34B
100
AcDbEntity
  8
03__ASM_ALL_CURVES
100
AcDbLine
 62
40
  6
CONTINUOUS
 10
6.2911499813
 20
5.0817670576
 11
6.2911499813
 21
5.0398970576
  0
LINE
  5
34C
100
AcDbEntity
  8
0
100
AcDbLine
 62
7
  6
CONTINUOUS
 10
6.3325399813
 20
3.6834640576
 11
6.3325399813
 21
4.7074640576
  0
LINE
  5
34D
100
AcDbEntity
  8
03__ASM_ALL_CURVES
100
AcDbLine
 62
40
  6
CONTINUOUS
 10
6.3330199807
 20
5.2073770576
 11
6.3330199807
 21
5.1027020576
  0
LINE
  5
34E
100
AcDbEntity
  8
THREAD
100
AcDbLine
 62
7
  6
CONTINUOUS
 10
6.3460344278
 20
3.7374640576
 11
6.3460344278
 21
4.6534640576
  0
LINE
  5
34F
100
AcDbEntity
  8
03__ASM_ALL_CURVES
100
AcDbLine
 62
40
  6
CONTINUOUS
 10
6.4246106057
 20
5.1550395576
 11
6.4311527932
 21
5.1812083076
  0
LINE
  5
350
100
AcDbEntity
  8
03__ASM_ALL_CURVES
100
AcDbLine
 62
40
  6
CONTINUOUS
 10
6.5031168557
 20
5.1550395576
 11
6.4965746682
 21
5.1288708076
  0
LINE
  5
351
100
AcDbEntity
  8
03__ASM_ALL_CURVES
100
AcDbLine
 62
40
  6
CONTINUOUS
 10
6.5292856057
 20
5.1550395576
 11
6.5358277932
 21
5.1812083076
  0
LINE
  5
352
100
AcDbEntity
  8
03__ASM_ALL_CURVES
100
AcDbLine
 62
40
  6
CONTINUOUS
 10
7.0592027932
 20
5.1812083076
 11
7.0722871682
 21
5.198654143
  0
LINE
  5
353
100
AcDbEntity
  8
03__ASM_ALL_CURVES
100
AcDbLine
 62
40
  6
CONTINUOUS
 10
5.7557007279
 20
3.4192953092
 11
5.7507940873
 21
3.4127531185
  0
LINE
  5
354
100
AcDbEntity
  8
03__ASM_ALL_CURVES
100
AcDbLine
 62
40
  6
CONTINUOUS
 10
5.7900472123
 20
3.4258374951
 11
5.7998604936
 21
3.4389218717
  0
LINE
  5
355
100
AcDbEntity
  8
03__ASM_ALL_CURVES
100
AcDbLine
 62
40
  6
CONTINUOUS
 10
7.8377231057
 20
5.1114249745
 11
7.8246387307
 21
5.1027020576
  0
LINE
  5
356
100
AcDbEntity
  8
03__ASM_ALL_CURVES
100
AcDbLine
 62
40
  6
CONTINUOUS
 10
8.0536152932
 20
5.1637624722
 11
8.0405309182
 21
5.1550395576
  0
LINE
  5
357
100
AcDbEntity
  8
0
100
AcDbLine
 62
7
  6
CONTINUOUS
 10
5.6815399813
 20
4.6779640576
 11
5.6605399813
 21
4.6779640576
  0
LINE
  5
358
100
AcDbEntity
  8
THREAD
100
AcDbLine
 62
7
  6
CONTINUOUS
 10
6.6465399813
 20
4.6914640576
 11
6.3754792915
 21
4.6914640576
  0
LINE
  5
359
100
AcDbEntity
  8
0
100
AcDbLine
 62
7
  6
CONTINUOUS
 10
4.6655399813
 20
4.6924640576
 11
4.2275399813
 21
4.6924640576
  0
LINE
  5
35A
100
AcDbEntity
  8
0
100
AcDbLine
 62
7
  6
CONTINUOUS
 10
6.2825399813
 20
4.7074640576
 11
6.3325399813
 21
4.7074640576
  0
LINE
  5
35B
100
AcDbEntity
  8
THREAD
100
AcDbLine
 62
7
  6
CONTINUOUS
 10
6.2125399813
 20
4.7099640576
 11
6.1893963877
 21
4.7099640576
  0
LINE
  5
35C
100
AcDbEntity
  8
0
100
AcDbLine
 62
7
  6
CONTINUOUS
 10
5.5405399813
 20
4.7319640576
 11
5.5905399813
 21
4.7319640576
  0
LINE
  5
35D
100
AcDbEntity
  8
0
100
AcDbLine
 62
7
  6
CONTINUOUS
 10
6.1625399813
 20
4.7334640576
 11
6.1005399813
 21
4.7334640576
  0
LINE
  5
35E
100
AcDbEntity
  8
0
100
AcDbLine
 62
7
  6
CONTINUOUS
 10
5.7265399813
 20
4.7334640576
 11
5.6815399813
 21
4.7334640576
  0
LINE
  5
35F
100
AcDbEntity
  8
0
100
AcDbLine
 62
7
  6
CONTINUOUS
 10
5.5405399813
 20
4.7334640576
 11
5.3535399813
 21
4.7334640576
  0
LINE
  5
360
100
AcDbEntity
  8
0
100
AcDbLine
 62
7
  6
CONTINUOUS
 10
5.2981143554
 20
4.8288493671
 11
4.7111506525
 21
4.8288493671
  0
LINE
  5
361
100
AcDbEntity
  8
0
100
AcDbLine
 62
7
  6
CONTINUOUS
 10
5.2981143554
 20
4.8294640576
 11
4.7111506525
 21
4.8294640576
  0
LINE
  5
362
100
AcDbEntity
  8
03__ASM_ALL_CURVES
100
AcDbLine
 62
40
  6
CONTINUOUS
 10
3.4791499813
 20
5.0468753909
 11
3.3535399813
 21
5.0608320576
  0
LINE
  5
363
100
AcDbEntity
  8
03__ASM_ALL_CURVES
100
AcDbLine
 62
40
  6
CONTINUOUS
 10
3.4791499813
 20
5.0433862243
 11
3.3535399813
 21
5.0608320576
  0
LINE
  5
364
100
AcDbEntity
  8
0
100
AcDbLine
 62
7
  6
CONTINUOUS
 10
6.1868963877
 20
4.7106339306
 11
6.1893963877
 21
4.7099640576
  0
LINE
  5
365
100
AcDbEntity
  8
03__ASM_ALL_CURVES
100
AcDbLine
 62
40
  6
CONTINUOUS
 10
6.9802598847
 20
3.4389218717
 11
6.9851665253
 21
3.432379681
  0
LINE
  5
366
100
AcDbEntity
  8
THREAD
100
AcDbLine
 62
7
  6
CONTINUOUS
 10
6.357292758
 20
3.7309640576
 11
6.357292758
 21
4.6599640576
  0
LINE
  5
367
100
AcDbEntity
  8
THREAD
100
AcDbLine
 62
7
  6
CONTINUOUS
 10
6.3754792915
 20
3.6994640576
 11
6.3754792915
 21
4.6914640576
  0
LINE
  5
368
100
AcDbEntity
  8
03__ASM_ALL_CURVES
100
AcDbLine
 62
40
  6
CONTINUOUS
 10
6.6405027932
 20
5.1027020576
 11
6.6732137307
 21
5.2073770576
  0
LINE
  5
369
100
AcDbEntity
  8
03__ASM_ALL_CURVES
100
AcDbLine
 62
40
  6
CONTINUOUS
 10
7.1180824807
 20
5.1201478914
 11
7.1115402932
 21
5.1114249745
  0
LINE
  5
36A
100
AcDbEntity
  8
03__ASM_ALL_CURVES
100
AcDbLine
 62
40
  6
CONTINUOUS
 10
5.8391136186
 20
3.3865843701
 11
5.8293003373
 21
3.3734999953
  0
LINE
  5
36B
100
AcDbEntity
  8
03__ASM_ALL_CURVES
100
AcDbLine
 62
40
  6
CONTINUOUS
 10
5.9127132279
 20
3.4192953092
 11
5.9078065873
 21
3.4127531185
  0
LINE
  5
36C
100
AcDbEntity
  8
03__ASM_ALL_CURVES
100
AcDbLine
 62
40
  6
CONTINUOUS
 10
7.2816371682
 20
5.198654143
 11
7.2750949807
 21
5.1899312222
  0
LINE
  5
36D
100
AcDbEntity
  8
03__ASM_ALL_CURVES
100
AcDbLine
 62
40
  6
CONTINUOUS
 10
5.7507940873
 20
3.4127531185
 11
5.7409808061
 21
3.4062109326
  0
LINE
  5
36E
100
AcDbEntity
  8
03__ASM_ALL_CURVES
100
AcDbLine
 62
40
  6
CONTINUOUS
 10
5.7998604936
 20
3.4389218717
 11
5.8096737748
 21
3.4454640576
  0
LINE
  5
36F
100
AcDbEntity
  8
THREAD
100
AcDbLine
 62
7
  6
CONTINUOUS
 10
6.1868963877
 20
3.6802941846
 11
6.1680399813
 21
3.6694074333
  0
LINE
  5
370
100
AcDbEntity
  8
03__ASM_ALL_CURVES
100
AcDbLine
 62
40
  6
CONTINUOUS
 10
6.0399299813
 20
5.0398970576
 11
6.2911499813
 21
5.0817670576
  0
LINE
  5
371
100
AcDbEntity
  8
03__ASM_ALL_CURVES
100
AcDbLine
 62
40
  6
CONTINUOUS
 10
6.0399299813
 20
5.0433862243
 11
6.2911499813
 21
5.0782778909
  0
LINE
  5
372
100
AcDbEntity
  8
03__ASM_ALL_CURVES
100
AcDbLine
 62
40
  6
CONTINUOUS
 10
3.4791499813
 20
5.0573428909
 11
3.3535399813
 21
5.0608320576
  0
LINE
  5
373
100
AcDbEntity
  8
03__ASM_ALL_CURVES
100
AcDbLine
 62
40
  6
CONTINUOUS
 10
3.4791499813
 20
5.0538537243
 11
3.3535399813
 21
5.0608320576
  0
LINE
  5
374
100
AcDbEntity
  8
03__ASM_ALL_CURVES
100
AcDbLine
 62
40
  6
CONTINUOUS
 10
3.4791499813
 20
5.0503645576
 11
3.3535399813
 21
5.0608320576
  0
LINE
  5
375
100
AcDbEntity
  8
THREAD
100
AcDbLine
 62
7
  6
CONTINUOUS
 10
6.1868963877
 20
4.7106339306
 11
6.1680399813
 21
4.7215206819
  0
LINE
  5
376
100
AcDbEntity
  8
03__ASM_ALL_CURVES
100
AcDbLine
 62
40
  6
CONTINUOUS
 10
7.1372723847
 20
3.4389218717
 11
7.1421790253
 21
3.432379681
  0
LINE
  5
377
100
AcDbEntity
  8
THREAD
100
AcDbLine
 62
7
  6
CONTINUOUS
 10
6.6465399813
 20
3.6994640576
 11
6.6465399813
 21
4.6914640576
  0
LINE
  5
378
100
AcDbEntity
  8
THREAD
100
AcDbLine
 62
7
  6
CONTINUOUS
 10
6.6905399813
 20
3.7434640576
 11
6.6905399813
 21
4.6474640576
  0
LINE
  5
379
100
AcDbEntity
  8
03__ASM_ALL_CURVES
100
AcDbLine
 62
40
  6
CONTINUOUS
 10
7.3274324807
 20
5.1201478914
 11
7.3208902932
 21
5.1114249745
  0
LINE
  5
37A
100
AcDbEntity
  8
03__ASM_ALL_CURVES
100
AcDbLine
 62
40
  6
CONTINUOUS
 10
6.0697257279
 20
3.4258374951
 11
6.0648190873
 21
3.4192953092
  0
LINE
  5
37B
100
AcDbEntity
  8
03__ASM_ALL_CURVES
100
AcDbLine
 62
40
  6
CONTINUOUS
 10
6.0746323686
 20
3.3865843701
 11
6.0648190873
 21
3.3734999953
  0
LINE
  5
37C
100
AcDbEntity
  8
03__ASM_ALL_CURVES
100
AcDbLine
 62
40
  6
CONTINUOUS
 10
7.4779027932
 20
5.1812083076
 11
7.4909871682
 21
5.198654143
  0
LINE
  5
37D
100
AcDbEntity
  8
03__ASM_ALL_CURVES
100
AcDbLine
 62
40
  6
CONTINUOUS
 10
7.5433246682
 20
5.1288708076
 11
7.5302402932
 21
5.1114249745
  0
LINE
  5
37E
100
AcDbEntity
  8
03__ASM_ALL_CURVES
100
AcDbLine
 62
40
  6
CONTINUOUS
 10
5.8293003373
 20
3.3734999953
 11
5.8194870561
 21
3.3669578076
  0
LINE
  5
37F
100
AcDbEntity
  8
03__ASM_ALL_CURVES
100
AcDbLine
 62
40
  6
CONTINUOUS
 10
5.9078065873
 20
3.4127531185
 11
5.8979933061
 21
3.4062109326
  0
LINE
  5
380
100
AcDbEntity
  8
03__ASM_ALL_CURVES
100
AcDbLine
 62
40
  6
CONTINUOUS
 10
6.0353792436
 20
3.4389218717
 11
6.0451925248
 21
3.4454640576
  0
LINE
  5
381
100
AcDbEntity
  8
03__ASM_ALL_CURVES
100
AcDbLine
 62
40
  6
CONTINUOUS
 10
6.0648190873
 20
3.4192953092
 11
6.0550058061
 21
3.4127531185
  0
LINE
  5
382
100
AcDbEntity
  8
03__ASM_ALL_CURVES
100
AcDbLine
 62
40
  6
CONTINUOUS
 10
6.0399299813
 20
5.0468753909
 11
6.2911499813
 21
5.0747887243
  0
LINE
  5
383
100
AcDbEntity
  8
03__ASM_ALL_CURVES
100
AcDbLine
 62
40
  6
CONTINUOUS
 10
6.0399299813
 20
5.0503645576
 11
6.2911499813
 21
5.0712995576
  0
LINE
  5
384
100
AcDbEntity
  8
03__ASM_ALL_CURVES
100
AcDbLine
 62
40
  6
CONTINUOUS
 10
6.0399299813
 20
5.0538537243
 11
6.2911499813
 21
5.0678103909
  0
LINE
  5
385
100
AcDbEntity
  8
03__ASM_ALL_CURVES
100
AcDbLine
 62
40
  6
CONTINUOUS
 10
6.0399299813
 20
5.0573428909
 11
6.2911499813
 21
5.0643212243
  0
LINE
  5
386
100
AcDbEntity
  8
03__ASM_ALL_CURVES
100
AcDbLine
 62
40
  6
CONTINUOUS
 10
3.4791499813
 20
5.0643212243
 11
3.3535399813
 21
5.0608320576
  0
LINE
  5
387
100
AcDbEntity
  8
03__ASM_ALL_CURVES
100
AcDbLine
 62
40
  6
CONTINUOUS
 10
3.3535399813
 20
5.0608320576
 11
8.1752999813
 21
5.0608320576
  0
LINE
  5
388
100
AcDbEntity
  8
03__ASM_ALL_CURVES
100
AcDbLine
 62
40
  6
CONTINUOUS
 10
7.9554824807
 20
5.1027020576
 11
7.9031449807
 21
5.1027020576
  0
LINE
  5
389
100
AcDbEntity
  8
03__ASM_ALL_CURVES
100
AcDbLine
 62
40
  6
CONTINUOUS
 10
7.8246387307
 20
5.1027020576
 11
7.7984699807
 21
5.1027020576
  0
LINE
  5
38A
100
AcDbEntity
  8
03__ASM_ALL_CURVES
100
AcDbLine
 62
40
  6
CONTINUOUS
 10
7.6218309182
 20
5.1027020576
 11
7.6087465432
 21
5.1027020576
  0
LINE
  5
38B
100
AcDbEntity
  8
03__ASM_ALL_CURVES
100
AcDbLine
 62
40
  6
CONTINUOUS
 10
7.5171559182
 20
5.1027020576
 11
7.5040715432
 21
5.1027020576
  0
LINE
  5
38C
100
AcDbEntity
  8
03__ASM_ALL_CURVES
100
AcDbLine
 62
40
  6
CONTINUOUS
 10
7.3078059182
 20
5.1027020576
 11
7.2947215432
 21
5.1027020576
  0
LINE
  5
38D
100
AcDbEntity
  8
03__ASM_ALL_CURVES
100
AcDbLine
 62
40
  6
CONTINUOUS
 10
7.0984559182
 20
5.1027020576
 11
7.0853715432
 21
5.1027020576
  0
LINE
  5
38E
100
AcDbEntity
  8
03__ASM_ALL_CURVES
100
AcDbLine
 62
40
  6
CONTINUOUS
 10
6.5750809182
 20
5.1027020576
 11
6.5619965432
 21
5.1027020576
  0
LINE
  5
38F
100
AcDbEntity
  8
03__ASM_ALL_CURVES
100
AcDbLine
 62
40
  6
CONTINUOUS
 10
6.4704059182
 20
5.1027020576
 11
6.4573215432
 21
5.1027020576
  0
LINE
  5
390
100
AcDbEntity
  8
03__ASM_ALL_CURVES
100
AcDbLine
 62
40
  6
CONTINUOUS
 10
5.0801071688
 20
5.1027020576
 11
5.0670227938
 21
5.1027020576
  0
LINE
  5
391
100
AcDbEntity
  8
03__ASM_ALL_CURVES
100
AcDbLine
 62
40
  6
CONTINUOUS
 10
4.9688899813
 20
5.1027020576
 11
4.9623477938
 21
5.1027020576
  0
LINE
  5
392
100
AcDbEntity
  8
03__ASM_ALL_CURVES
100
AcDbLine
 62
40
  6
CONTINUOUS
 10
4.4520571688
 20
5.1027020576
 11
4.4389727938
 21
5.1027020576
  0
LINE
  5
393
100
AcDbEntity
  8
03__ASM_ALL_CURVES
100
AcDbLine
 62
40
  6
CONTINUOUS
 10
4.3408399813
 20
5.1027020576
 11
4.3342977938
 21
5.1027020576
  0
LINE
  5
394
100
AcDbEntity
  8
03__ASM_ALL_CURVES
100
AcDbLine
 62
40
  6
CONTINUOUS
 10
4.2099962313
 20
5.1027020576
 11
4.2623337313
 21
5.1027020576
  0
LINE
  5
395
100
AcDbEntity
  8
03__ASM_ALL_CURVES
100
AcDbLine
 62
40
  6
CONTINUOUS
 10
6.3330199807
 20
5.1027020576
 11
6.3853574807
 21
5.1027020576
  0
LINE
  5
396
100
AcDbEntity
  8
03__ASM_ALL_CURVES
100
AcDbLine
 62
40
  6
CONTINUOUS
 10
7.6937949807
 20
5.1027020576
 11
7.7461324807
 21
5.1027020576
  0
LINE
  5
397
100
AcDbEntity
  8
03__ASM_ALL_CURVES
100
AcDbLine
 62
40
  6
CONTINUOUS
 10
6.6535871682
 20
5.1375937253
 11
6.6928402932
 21
5.1375937253
  0
LINE
  5
398
100
AcDbEntity
  8
03__ASM_ALL_CURVES
100
AcDbLine
 62
40
  6
CONTINUOUS
 10
8.0405309182
 20
5.1550395576
 11
8.0078199807
 21
5.1550395576
  0
LINE
  5
399
100
AcDbEntity
  8
03__ASM_ALL_CURVES
100
AcDbLine
 62
40
  6
CONTINUOUS
 10
7.0919137307
 20
5.1550395576
 11
7.1180824807
 21
5.1550395576
  0
LINE
  5
39A
100
AcDbEntity
  8
03__ASM_ALL_CURVES
100
AcDbLine
 62
40
  6
CONTINUOUS
 10
7.3797699807
 20
5.1550395576
 11
7.4321074807
 21
5.1550395576
  0
LINE
  5
39B
100
AcDbEntity
  8
03__ASM_ALL_CURVES
100
AcDbLine
 62
40
  6
CONTINUOUS
 10
7.9031449807
 20
5.1550395576
 11
7.9358559182
 21
5.1550395576
  0
LINE
  5
39C
100
AcDbEntity
  8
03__ASM_ALL_CURVES
100
AcDbLine
 62
40
  6
CONTINUOUS
 10
4.4389727938
 20
5.1637624722
 11
4.4520571688
 21
5.1637624722
  0
LINE
  5
39D
100
AcDbEntity
  8
03__ASM_ALL_CURVES
100
AcDbLine
 62
40
  6
CONTINUOUS
 10
5.0670227938
 20
5.1637624722
 11
5.0801071688
 21
5.1637624722
  0
LINE
  5
39E
100
AcDbEntity
  8
03__ASM_ALL_CURVES
100
AcDbLine
 62
40
  6
CONTINUOUS
 10
6.0399299813
 20
5.0643212243
 11
6.2911499813
 21
5.0573428909
  0
LINE
  5
39F
100
AcDbEntity
  8
03__ASM_ALL_CURVES
100
AcDbLine
 62
40
  6
CONTINUOUS
 10
6.0399299813
 20
5.0678103909
 11
6.2911499813
 21
5.0538537243
  0
LINE
  5
3A0
100
AcDbEntity
  8
03__ASM_ALL_CURVES
100
AcDbLine
 62
40
  6
CONTINUOUS
 10
6.0399299813
 20
5.0712995576
 11
6.2911499813
 21
5.0503645576
  0
LINE
  5
3A1
100
AcDbEntity
  8
03__ASM_ALL_CURVES
100
AcDbLine
 62
40
  6
CONTINUOUS
 10
6.0399299813
 20
5.0747887243
 11
6.2911499813
 21
5.0468753909
  0
LINE
  5
3A2
100
AcDbEntity
  8
03__ASM_ALL_CURVES
100
AcDbLine
 62
40
  6
CONTINUOUS
 10
6.0399299813
 20
5.0782778909
 11
6.2911499813
 21
5.0433862243
  0
LINE
  5
3A3
100
AcDbEntity
  8
03__ASM_ALL_CURVES
100
AcDbLine
 62
40
  6
CONTINUOUS
 10
6.2911499813
 20
5.0398970576
 11
6.0399299813
 21
5.0817670576
  0
LINE
  5
3A4
100
AcDbEntity
  8
THREAD
100
AcDbLine
 62
7
  6
CONTINUOUS
 10
6.6905399813
 20
4.6474640576
 11
6.6465399813
 21
4.6914640576
  0
LINE
  5
3A5
100
AcDbEntity
  8
03__ASM_ALL_CURVES
100
AcDbLine
 62
40
  6
CONTINUOUS
 10
6.9704466034
 20
3.4062109326
 11
6.9851665253
 21
3.3669578076
  0
LINE
  5
3A6
100
AcDbEntity
  8
03__ASM_ALL_CURVES
100
AcDbLine
 62
40
  6
CONTINUOUS
 10
6.8625005097
 20
3.3865843701
 11
6.8575938691
 21
3.4062109326
  0
LINE
  5
3A7
100
AcDbEntity
  8
03__ASM_ALL_CURVES
100
AcDbLine
 62
40
  6
CONTINUOUS
 10
6.4311527932
 20
5.1288708076
 11
6.4246106057
 21
5.1550395576
  0
LINE
  5
3A8
100
AcDbEntity
  8
03__ASM_ALL_CURVES
100
AcDbLine
 62
40
  6
CONTINUOUS
 10
6.9115669159
 20
3.4258374951
 11
6.9164735566
 21
3.4062109326
  0
LINE
  5
3A9
100
AcDbEntity
  8
03__ASM_ALL_CURVES
100
AcDbLine
 62
40
  6
CONTINUOUS
 10
6.4965746682
 20
5.1812083076
 11
6.5031168557
 21
5.1550395576
  0
LINE
  5
3AA
100
AcDbEntity
  8
0
100
AcDbLine
 62
7
  6
CONTINUOUS
 10
6.7745399813
 20
3.7434640576
 11
6.7745399813
 21
4.6474640576
  0
LINE
  5
3AB
100
AcDbEntity
  8
03__ASM_ALL_CURVES
100
AcDbLine
 62
40
  6
CONTINUOUS
 10
6.7778887307
 20
5.2073770576
 11
6.7778887307
 21
5.1027020576
  0
LINE
  5
3AC
100
AcDbEntity
  8
03__ASM_ALL_CURVES
100
AcDbLine
 62
40
  6
CONTINUOUS
 10
6.7889009003
 20
3.3669578076
 11
6.7889009003
 21
3.4454640576
  0
LINE
  5
3AD
100
AcDbEntity
  8
0
100
AcDbLine
 62
7
  6
CONTINUOUS
 10
6.7905399813
 20
3.7594640576
 11
6.7905399813
 21
4.6314640576
  0
LINE
  5
3AE
100
AcDbEntity
  8
0
100
AcDbLine
 62
7
  6
CONTINUOUS
 10
6.7915399813
 20
3.7894640576
 11
6.7915399813
 21
4.6014640576
  0
LINE
  5
3AF
100
AcDbEntity
  8
03__ASM_ALL_CURVES
100
AcDbLine
 62
40
  6
CONTINUOUS
 10
6.8281540253
 20
3.432379681
 11
6.8281540253
 21
3.4192953092
  0
LINE
  5
3B0
100
AcDbEntity
  8
03__ASM_ALL_CURVES
100
AcDbLine
 62
40
  6
CONTINUOUS
 10
7.0526606057
 20
5.1550395576
 11
7.0592027932
 21
5.1812083076
  0
LINE
  5
3B1
100
AcDbEntity
  8
03__ASM_ALL_CURVES
100
AcDbLine
 62
40
  6
CONTINUOUS
 10
7.6414574807
 20
5.1201478914
 11
7.6349152932
 21
5.1114249745
  0
LINE
  5
3B2
100
AcDbEntity
  8
THREAD
100
AcDbLine
 62
7
  6
CONTINUOUS
 10
6.6905399813
 20
3.7434640576
 11
6.6465399813
 21
3.6994640576
  0
LINE
  5
3B3
100
AcDbEntity
  8
03__ASM_ALL_CURVES
100
AcDbLine
 62
40
  6
CONTINUOUS
 10
6.0648190873
 20
3.3734999953
 11
6.0550058061
 21
3.3669578076
  0
LINE
  5
3B4
100
AcDbEntity
  8
03__ASM_ALL_CURVES
100
AcDbLine
 62
40
  6
CONTINUOUS
 10
3.4791499813
 20
5.0747887243
 11
3.3535399813
 21
5.0608320576
  0
LINE
  5
3B5
100
AcDbEntity
  8
03__ASM_ALL_CURVES
100
AcDbLine
 62
40
  6
CONTINUOUS
 10
3.4791499813
 20
5.0712995576
 11
3.3535399813
 21
5.0608320576
  0
LINE
  5
3B6
100
AcDbEntity
  8
03__ASM_ALL_CURVES
100
AcDbLine
 62
40
  6
CONTINUOUS
 10
3.4791499813
 20
5.0678103909
 11
3.3535399813
 21
5.0608320576
  0
LINE
  5
3B7
100
AcDbEntity
  8
03__ASM_ALL_CURVES
100
AcDbLine
 62
40
  6
CONTINUOUS
 10
7.3078059182
 20
5.2073770576
 11
7.2947215432
 21
5.2073770576
  0
LINE
  5
3B8
100
AcDbEntity
  8
03__ASM_ALL_CURVES
100
AcDbLine
 62
40
  6
CONTINUOUS
 10
5.2044087313
 20
5.2073770576
 11
5.1520712313
 21
5.2073770576
  0
LINE
  5
3B9
100
AcDbEntity
  8
03__ASM_ALL_CURVES
100
AcDbLine
 62
40
  6
CONTINUOUS
 10
4.7857087313
 20
5.2073770576
 11
4.7333712313
 21
5.2073770576
  0
LINE
  5
3BA
100
AcDbEntity
  8
03__ASM_ALL_CURVES
100
AcDbLine
 62
40
  6
CONTINUOUS
 10
4.2296227938
 20
5.2073770576
 11
4.2427071688
 21
5.2073770576
  0
LINE
  5
3BB
100
AcDbEntity
  8
03__ASM_ALL_CURVES
100
AcDbLine
 62
40
  6
CONTINUOUS
 10
4.4389727938
 20
5.2073770576
 11
4.4520571688
 21
5.2073770576
  0
LINE
  5
3BC
100
AcDbEntity
  8
03__ASM_ALL_CURVES
100
AcDbLine
 62
40
  6
CONTINUOUS
 10
5.0670227938
 20
5.2073770576
 11
5.0801071688
 21
5.2073770576
  0
LINE
  5
3BD
100
AcDbEntity
  8
03__ASM_ALL_CURVES
100
AcDbLine
 62
40
  6
CONTINUOUS
 10
6.4573215432
 20
5.2073770576
 11
6.4704059182
 21
5.2073770576
  0
LINE
  5
3BE
100
AcDbEntity
  8
03__ASM_ALL_CURVES
100
AcDbLine
 62
40
  6
CONTINUOUS
 10
6.5619965432
 20
5.2073770576
 11
6.5750809182
 21
5.2073770576
  0
LINE
  5
3BF
100
AcDbEntity
  8
03__ASM_ALL_CURVES
100
AcDbLine
 62
40
  6
CONTINUOUS
 10
6.7451777932
 20
5.2073770576
 11
6.8105996682
 21
5.2073770576
  0
LINE
  5
3C0
100
AcDbEntity
  8
03__ASM_ALL_CURVES
100
AcDbLine
 62
40
  6
CONTINUOUS
 10
7.0853715432
 20
5.2073770576
 11
7.0984559182
 21
5.2073770576
  0
LINE
  5
3C1
100
AcDbEntity
  8
03__ASM_ALL_CURVES
100
AcDbLine
 62
40
  6
CONTINUOUS
 10
7.5040715432
 20
5.2073770576
 11
7.5171559182
 21
5.2073770576
  0
LINE
  5
3C2
100
AcDbEntity
  8
03__ASM_ALL_CURVES
100
AcDbLine
 62
40
  6
CONTINUOUS
 10
7.7984699807
 20
5.2073770576
 11
7.8246387307
 21
5.2073770576
  0
LINE
  5
3C3
100
AcDbEntity
  8
03__ASM_ALL_CURVES
100
AcDbLine
 62
40
  6
CONTINUOUS
 10
7.9031449807
 20
5.2073770576
 11
7.9554824807
 21
5.2073770576
  0
LINE
  5
3C4
100
AcDbEntity
  8
03__ASM_ALL_CURVES
100
AcDbLine
 62
40
  6
CONTINUOUS
 10
8.0078199807
 20
5.2073770576
 11
8.0405309182
 21
5.2073770576
  0
LINE
  5
3C5
100
AcDbEntity
  8
03__ASM_ALL_CURVES
100
AcDbLine
 62
40
  6
CONTINUOUS
 10
6.4573215432
 20
5.1027020576
 11
6.4442371682
 21
5.1114249745
  0
LINE
  5
3C6
100
AcDbEntity
  8
0
100
AcDbLine
 62
7
  6
CONTINUOUS
 10
6.7905399813
 20
4.6314640576
 11
6.7745399813
 21
4.6474640576
  0
LINE
  5
3C7
100
AcDbEntity
  8
0
100
AcDbLine
 62
7
  6
CONTINUOUS
 10
6.8835399813
 20
4.6014640576
 11
6.9155399813
 21
4.5694640576
  0
LINE
  5
3C8
100
AcDbEntity
  8
03__ASM_ALL_CURVES
100
AcDbLine
 62
40
  6
CONTINUOUS
 10
6.4442371682
 20
5.1114249745
 11
6.4311527932
 21
5.1288708076
  0
LINE
  5
3C9
100
AcDbEntity
  8
03__ASM_ALL_CURVES
100
AcDbLine
 62
40
  6
CONTINUOUS
 10
6.5358277932
 20
5.1288708076
 11
6.5292856057
 21
5.1550395576
  0
LINE
  5
3CA
100
AcDbEntity
  8
03__ASM_ALL_CURVES
100
AcDbLine
 62
40
  6
CONTINUOUS
 10
6.8825637307
 20
5.2073770576
 11
6.8825637307
 21
5.1027020576
  0
LINE
  5
3CB
100
AcDbEntity
  8
0
100
AcDbLine
 62
7
  6
CONTINUOUS
 10
6.8835399813
 20
3.7894640576
 11
6.8835399813
 21
4.6014640576
  0
LINE
  5
3CC
100
AcDbEntity
  8
0
100
AcDbLine
 62
7
  6
CONTINUOUS
 10
6.9155399813
 20
3.8214640576
 11
6.9155399813
 21
4.5694640576
  0
LINE
  5
3CD
100
AcDbEntity
  8
03__ASM_ALL_CURVES
100
AcDbLine
 62
40
  6
CONTINUOUS
 10
6.9459134003
 20
3.3669578076
 11
6.9459134003
 21
3.4454640576
  0
LINE
  5
3CE
100
AcDbEntity
  8
03__ASM_ALL_CURVES
100
AcDbLine
 62
40
  6
CONTINUOUS
 10
6.9610699807
 20
5.1027020576
 11
6.9610699807
 21
5.2073770576
  0
LINE
  5
3CF
100
AcDbEntity
  8
03__ASM_ALL_CURVES
100
AcDbLine
 62
40
  6
CONTINUOUS
 10
6.9851665253
 20
3.432379681
 11
6.9851665253
 21
3.4192953092
  0
LINE
  5
3D0
100
AcDbEntity
  8
03__ASM_ALL_CURVES
100
AcDbLine
 62
40
  6
CONTINUOUS
 10
7.0134074807
 20
5.1027020576
 11
7.0134074807
 21
5.2073770576
  0
LINE
  5
3D1
100
AcDbEntity
  8
03__ASM_ALL_CURVES
100
AcDbLine
 62
40
  6
CONTINUOUS
 10
7.0440462128
 20
3.4454640576
 11
7.0440462128
 21
3.3669578076
  0
LINE
  5
3D2
100
AcDbEntity
  8
03__ASM_ALL_CURVES
100
AcDbLine
 62
40
  6
CONTINUOUS
 10
6.8575938691
 20
3.4062109326
 11
6.8625005097
 21
3.4258374951
  0
LINE
  5
3D3
100
AcDbEntity
  8
03__ASM_ALL_CURVES
100
AcDbLine
 62
40
  6
CONTINUOUS
 10
7.8508074807
 20
5.1288708076
 11
7.8377231057
 21
5.1114249745
  0
LINE
  5
3D4
100
AcDbEntity
  8
0
100
AcDbLine
 62
7
  6
CONTINUOUS
 10
6.7905399813
 20
3.7594640576
 11
6.7745399813
 21
3.7434640576
  0
LINE
  5
3D5
100
AcDbEntity
  8
0
100
AcDbLine
 62
7
  6
CONTINUOUS
 10
6.8835399813
 20
3.7894640576
 11
6.9155399813
 21
3.8214640576
  0
LINE
  5
3D6
100
AcDbEntity
  8
03__ASM_ALL_CURVES
100
AcDbLine
 62
40
  6
CONTINUOUS
 10
7.9498864647
 20
4.2621943685
 11
7.9400731835
 21
4.2556521826
  0
LINE
  5
3D7
100
AcDbEntity
  8
03__ASM_ALL_CURVES
100
AcDbLine
 62
40
  6
CONTINUOUS
 10
7.998952871
 20
4.2883631217
 11
8.0087661522
 21
4.2949053076
  0
LINE
  5
3D8
100
AcDbEntity
  8
03__ASM_ALL_CURVES
100
AcDbLine
 62
40
  6
CONTINUOUS
 10
3.3535399813
 20
5.0608320576
 11
3.4791499813
 21
5.0817670576
  0
LINE
  5
3D9
100
AcDbEntity
  8
03__ASM_ALL_CURVES
100
AcDbLine
 62
40
  6
CONTINUOUS
 10
3.4791499813
 20
5.0782778909
 11
3.3535399813
 21
5.0608320576
  0
LINE
  5
3DA
100
AcDbEntity
  8
03__ASM_ALL_CURVES
100
AcDbLine
 62
40
  6
CONTINUOUS
 10
6.5619965432
 20
5.1027020576
 11
6.5489121682
 21
5.1114249745
  0
LINE
  5
3DB
100
AcDbEntity
  8
03__ASM_ALL_CURVES
100
AcDbLine
 62
40
  6
CONTINUOUS
 10
6.4704059182
 20
5.2073770576
 11
6.4834902932
 21
5.198654143
  0
LINE
  5
3DC
100
AcDbEntity
  8
03__ASM_ALL_CURVES
100
AcDbLine
 62
40
  6
CONTINUOUS
 10
8.0087661522
 20
4.2163990576
 11
7.998952871
 21
4.2229412453
  0
LINE
  5
3DD
100
AcDbEntity
  8
03__ASM_ALL_CURVES
100
AcDbLine
 62
40
  6
CONTINUOUS
 10
7.9400731835
 20
4.2949053076
 11
7.9498864647
 21
4.2883631217
  0
LINE
  5
3DE
100
AcDbEntity
  8
03__ASM_ALL_CURVES
100
AcDbLine
 62
40
  6
CONTINUOUS
 10
6.5750809182
 20
5.2073770576
 11
6.5881652932
 21
5.198654143
  0
LINE
  5
3DF
100
AcDbEntity
  8
03__ASM_ALL_CURVES
100
AcDbLine
 62
40
  6
CONTINUOUS
 10
8.0185794335
 20
4.2949053076
 11
8.0283927147
 21
4.2883631217
  0
LINE
  5
3E0
100
AcDbEntity
  8
03__ASM_ALL_CURVES
100
AcDbLine
 62
40
  6
CONTINUOUS
 10
6.4834902932
 20
5.198654143
 11
6.4965746682
 21
5.1812083076
  0
LINE
  5
3E1
100
AcDbEntity
  8
03__ASM_ALL_CURVES
100
AcDbLine
 62
40
  6
CONTINUOUS
 10
6.5489121682
 20
5.1114249745
 11
6.5358277932
 21
5.1288708076
  0
LINE
  5
3E2
100
AcDbEntity
  8
03__ASM_ALL_CURVES
100
AcDbLine
 62
40
  6
CONTINUOUS
 10
6.5881652932
 20
5.198654143
 11
6.5947074807
 21
5.1899312222
  0
LINE
  5
3E3
100
AcDbEntity
  8
03__ASM_ALL_CURVES
100
AcDbLine
 62
40
  6
CONTINUOUS
 10
6.6732137307
 20
5.2073770576
 11
6.7059246682
 21
5.1027020576
  0
LINE
  5
3E4
100
AcDbEntity
  8
03__ASM_ALL_CURVES
100
AcDbLine
 62
40
  6
CONTINUOUS
 10
7.1180824807
 20
5.1550395576
 11
7.1180824807
 21
5.1201478914
  0
LINE
  5
3E5
100
AcDbEntity
  8
03__ASM_ALL_CURVES
100
AcDbLine
 62
40
  6
CONTINUOUS
 10
7.1421790253
 20
3.432379681
 11
7.1421790253
 21
3.4192953092
  0
LINE
  5
3E6
100
AcDbEntity
  8
03__ASM_ALL_CURVES
100
AcDbLine
 62
40
  6
CONTINUOUS
 10
6.9164735566
 20
3.4062109326
 11
6.9115669159
 21
3.3865843701
  0
LINE
  5
3E7
100
AcDbEntity
  8
03__ASM_ALL_CURVES
100
AcDbLine
 62
40
  6
CONTINUOUS
 10
7.4713606057
 20
5.1550395576
 11
7.4779027932
 21
5.1812083076
  0
LINE
  5
3E8
100
AcDbEntity
  8
03__ASM_ALL_CURVES
100
AcDbLine
 62
40
  6
CONTINUOUS
 10
8.0601574807
 20
5.172485393
 11
8.0536152932
 21
5.1637624722
  0
LINE
  5
3E9
100
AcDbEntity
  8
03__ASM_ALL_CURVES
100
AcDbLine
 62
40
  6
CONTINUOUS
 10
6.8281540253
 20
3.4192953092
 11
6.8232473847
 21
3.4127531185
  0
LINE
  5
3EA
100
AcDbEntity
  8
03__ASM_ALL_CURVES
100
AcDbLine
 62
40
  6
CONTINUOUS
 10
6.8625005097
 20
3.4258374951
 11
6.8723137909
 21
3.4389218717
  0
LINE
  5
3EB
100
AcDbEntity
  8
03__ASM_ALL_CURVES
100
AcDbLine
 62
40
  6
CONTINUOUS
 10
8.0283927147
 20
4.2229412453
 11
8.0185794335
 21
4.2163990576
  0
LINE
  5
3EC
100
AcDbEntity
  8
03__ASM_ALL_CURVES
100
AcDbLine
 62
40
  6
CONTINUOUS
 10
6.8232473847
 20
3.4127531185
 11
6.8134341034
 21
3.4062109326
  0
LINE
  5
3ED
100
AcDbEntity
  8
03__ASM_ALL_CURVES
100
AcDbLine
 62
40
  6
CONTINUOUS
 10
8.1068989647
 20
4.2621943685
 11
8.0970856835
 21
4.2556521826
  0
LINE
  5
3EE
100
AcDbEntity
  8
03__ASM_ALL_CURVES
100
AcDbLine
 62
40
  6
CONTINUOUS
 10
6.8723137909
 20
3.4389218717
 11
6.8821270722
 21
3.4454640576
  0
LINE
  5
3EF
100
AcDbEntity
  8
03__ASM_ALL_CURVES
100
AcDbLine
 62
40
  6
CONTINUOUS
 10
6.9017536347
 20
3.3734999953
 11
6.8919403534
 21
3.3669578076
  0
LINE
  5
3F0
100
AcDbEntity
  8
03__ASM_ALL_CURVES
100
AcDbLine
 62
40
  6
CONTINUOUS
 10
6.9802598847
 20
3.4127531185
 11
6.9704466034
 21
3.4062109326
  0
LINE
  5
3F1
100
AcDbEntity
  8
03__ASM_ALL_CURVES
100
AcDbLine
 62
40
  6
CONTINUOUS
 10
8.0970856835
 20
4.2949053076
 11
8.1068989647
 21
4.2883631217
  0
LINE
  5
3F2
100
AcDbEntity
  8
03__ASM_ALL_CURVES
100
AcDbLine
 62
40
  6
CONTINUOUS
 10
7.0853715432
 20
5.1027020576
 11
7.0722871682
 21
5.1114249745
  0
LINE
  5
3F3
100
AcDbEntity
  8
0
100
AcDbLine
 62
7
  6
CONTINUOUS
 10
7.2285399813
 20
4.6317140576
 11
7.2285399813
 21
3.7592140576
  0
LINE
  5
3F4
100
AcDbEntity
  8
03__ASM_ALL_CURVES
100
AcDbLine
 62
40
  6
CONTINUOUS
 10
7.2750949807
 20
5.1899312222
 11
7.2750949807
 21
5.1812083076
  0
LINE
  5
3F5
100
AcDbEntity
  8
0
100
AcDbLine
 62
7
  6
CONTINUOUS
 10
7.2860399813
 20
4.6317140576
 11
7.2860399813
 21
3.7592140576
  0
LINE
  5
3F6
100
AcDbEntity
  8
03__ASM_ALL_CURVES
100
AcDbLine
 62
40
  6
CONTINUOUS
 10
7.3274324807
 20
5.1375937253
 11
7.3274324807
 21
5.1201478914
  0
LINE
  5
3F7
100
AcDbEntity
  8
0
100
AcDbLine
 62
7
  6
CONTINUOUS
 10
7.3360399813
 20
3.7594647205
 11
7.3360399813
 21
4.6314633947
  0
LINE
  5
3F8
100
AcDbEntity
  8
03__ASM_ALL_CURVES
100
AcDbLine
 62
40
  6
CONTINUOUS
 10
7.3797699807
 20
5.2073770576
 11
7.3797699807
 21
5.1027020576
  0
LINE
  5
3F9
100
AcDbEntity
  8
03__ASM_ALL_CURVES
100
AcDbLine
 62
40
  6
CONTINUOUS
 10
7.5498668557
 20
5.1550395576
 11
7.5433246682
 21
5.1288708076
  0
LINE
  5
3FA
100
AcDbEntity
  8
03__ASM_ALL_CURVES
100
AcDbLine
 62
40
  6
CONTINUOUS
 10
7.1078325409
 20
3.3865843701
 11
7.1029259003
 21
3.3669578076
  0
LINE
  5
3FB
100
AcDbEntity
  8
03__ASM_ALL_CURVES
100
AcDbLine
 62
40
  6
CONTINUOUS
 10
6.9115669159
 20
3.3865843701
 11
6.9017536347
 21
3.3734999953
  0
LINE
  5
3FC
100
AcDbEntity
  8
03__ASM_ALL_CURVES
100
AcDbLine
 62
40
  6
CONTINUOUS
 10
6.9851665253
 20
3.4192953092
 11
6.9802598847
 21
3.4127531185
  0
LINE
  5
3FD
100
AcDbEntity
  8
03__ASM_ALL_CURVES
100
AcDbLine
 62
40
  6
CONTINUOUS
 10
7.1029259003
 20
3.432379681
 11
7.1078325409
 21
3.4389218717
  0
LINE
  5
3FE
100
AcDbEntity
  8
03__ASM_ALL_CURVES
100
AcDbLine
 62
40
  6
CONTINUOUS
 10
7.1176458222
 20
3.3996687443
 11
7.1078325409
 21
3.3865843701
  0
LINE
  5
3FF
100
AcDbEntity
  8
03__ASM_ALL_CURVES
100
AcDbLine
 62
40
  6
CONTINUOUS
 10
7.1078325409
 20
3.4389218717
 11
7.1176458222
 21
3.4454640576
  0
LINE
  5
400
100
AcDbEntity
  8
03__ASM_ALL_CURVES
100
AcDbLine
 62
40
  6
CONTINUOUS
 10
7.1372723847
 20
3.4127531185
 11
7.1176458222
 21
3.3996687443
  0
LINE
  5
401
100
AcDbEntity
  8
03__ASM_ALL_CURVES
100
AcDbLine
 62
40
  6
CONTINUOUS
 10
7.0984559182
 20
5.2073770576
 11
7.1115402932
 21
5.198654143
  0
LINE
  5
402
100
AcDbEntity
  8
03__ASM_ALL_CURVES
100
AcDbLine
 62
40
  6
CONTINUOUS
 10
7.2947215432
 20
5.1027020576
 11
7.2816371682
 21
5.1114249745
  0
LINE
  5
403
100
AcDbEntity
  8
03__ASM_ALL_CURVES
100
AcDbLine
 62
40
  6
CONTINUOUS
 10
7.2816371682
 20
5.172485393
 11
7.3208902932
 21
5.1463166399
  0
LINE
  5
404
100
AcDbEntity
  8
0
100
AcDbLine
 62
7
  6
CONTINUOUS
 10
7.5255399813
 20
4.6317140576
 11
7.5405399813
 21
4.6167140576
  0
LINE
  5
405
100
AcDbEntity
  8
03__ASM_ALL_CURVES
100
AcDbLine
 62
40
  6
CONTINUOUS
 10
7.0722871682
 20
5.1114249745
 11
7.0592027932
 21
5.1288708076
  0
LINE
  5
406
100
AcDbEntity
  8
03__ASM_ALL_CURVES
100
AcDbLine
 62
40
  6
CONTINUOUS
 10
6.9610699807
 20
5.2073770576
 11
7.0134074807
 21
5.1027020576
  0
LINE
  5
407
100
AcDbEntity
  8
03__ASM_ALL_CURVES
100
AcDbLine
 62
40
  6
CONTINUOUS
 10
7.0592027932
 20
5.1288708076
 11
7.0526606057
 21
5.1550395576
  0
LINE
  5
408
100
AcDbEntity
  8
0
100
AcDbLine
 62
7
  6
CONTINUOUS
 10
7.4060399813
 20
3.7594647205
 11
7.4060399813
 21
4.6314633947
  0
LINE
  5
409
100
AcDbEntity
  8
03__ASM_ALL_CURVES
100
AcDbLine
 62
40
  6
CONTINUOUS
 10
7.4321074807
 20
5.2073770576
 11
7.4321074807
 21
5.1027020576
  0
LINE
  5
40A
100
AcDbEntity
  8
0
100
AcDbLine
 62
7
  6
CONTINUOUS
 10
7.4560399813
 20
3.7594647205
 11
7.4560399813
 21
4.6314633947
  0
LINE
  5
40B
100
AcDbEntity
  8
0
100
AcDbLine
 62
7
  6
CONTINUOUS
 10
7.4835399813
 20
4.6317140576
 11
7.4835399813
 21
3.7592140576
  0
LINE
  5
40C
100
AcDbEntity
  8
0
100
AcDbLine
 62
7
  6
CONTINUOUS
 10
7.5255399813
 20
3.7592140576
 11
7.5255399813
 21
4.6317140576
  0
LINE
  5
40D
100
AcDbEntity
  8
0
100
AcDbLine
 62
7
  6
CONTINUOUS
 10
7.5405399813
 20
3.7742140576
 11
7.5405399813
 21
4.6167140576
  0
LINE
  5
40E
100
AcDbEntity
  8
03__ASM_ALL_CURVES
100
AcDbLine
 62
40
  6
CONTINUOUS
 10
7.1421790253
 20
3.4192953092
 11
7.1372723847
 21
3.4127531185
  0
LINE
  5
40F
100
AcDbEntity
  8
03__ASM_ALL_CURVES
100
AcDbLine
 62
40
  6
CONTINUOUS
 10
7.9547931054
 20
4.2687365592
 11
7.9498864647
 21
4.2621943685
  0
LINE
  5
410
100
AcDbEntity
  8
03__ASM_ALL_CURVES
100
AcDbLine
 62
40
  6
CONTINUOUS
 10
7.9891395897
 20
4.2752787451
 11
7.998952871
 21
4.2883631217
  0
LINE
  5
411
100
AcDbEntity
  8
0
100
AcDbLine
 62
7
  6
CONTINUOUS
 10
7.5255399813
 20
3.7592140576
 11
7.5405399813
 21
3.7742140576
  0
LINE
  5
412
100
AcDbEntity
  8
03__ASM_ALL_CURVES
100
AcDbLine
 62
40
  6
CONTINUOUS
 10
7.3208902932
 20
5.198654143
 11
7.3078059182
 21
5.2073770576
  0
LINE
  5
413
100
AcDbEntity
  8
03__ASM_ALL_CURVES
100
AcDbLine
 62
40
  6
CONTINUOUS
 10
7.5040715432
 20
5.1027020576
 11
7.4909871682
 21
5.1114249745
  0
LINE
  5
414
100
AcDbEntity
  8
03__ASM_ALL_CURVES
100
AcDbLine
 62
40
  6
CONTINUOUS
 10
7.6087465432
 20
5.1027020576
 11
7.5956621682
 21
5.1114249745
  0
LINE
  5
415
100
AcDbEntity
  8
03__ASM_ALL_CURVES
100
AcDbLine
 62
40
  6
CONTINUOUS
 10
7.5171559182
 20
5.2073770576
 11
7.5302402932
 21
5.198654143
  0
LINE
  5
416
100
AcDbEntity
  8
03__ASM_ALL_CURVES
100
AcDbLine
 62
40
  6
CONTINUOUS
 10
7.1115402932
 20
5.198654143
 11
7.1180824807
 21
5.1899312222
  0
LINE
  5
417
100
AcDbEntity
  8
03__ASM_ALL_CURVES
100
AcDbLine
 62
40
  6
CONTINUOUS
 10
7.2816371682
 20
5.1114249745
 11
7.2685527932
 21
5.1288708076
  0
LINE
  5
418
100
AcDbEntity
  8
03__ASM_ALL_CURVES
100
AcDbLine
 62
40
  6
CONTINUOUS
 10
7.2750949807
 20
5.1812083076
 11
7.2816371682
 21
5.172485393
  0
LINE
  5
419
100
AcDbEntity
  8
03__ASM_ALL_CURVES
100
AcDbLine
 62
40
  6
CONTINUOUS
 10
7.998952871
 20
4.2229412453
 11
7.9891395897
 21
4.2360256201
  0
LINE
  5
41A
100
AcDbEntity
  8
03__ASM_ALL_CURVES
100
AcDbLine
 62
40
  6
CONTINUOUS
 10
7.9498864647
 20
4.2883631217
 11
7.9547931054
 21
4.281820931
  0
LINE
  5
41B
100
AcDbEntity
  8
03__ASM_ALL_CURVES
100
AcDbLine
 62
40
  6
CONTINUOUS
 10
7.3208902932
 20
5.1463166399
 11
7.3274324807
 21
5.1375937253
  0
LINE
  5
41C
100
AcDbEntity
  8
03__ASM_ALL_CURVES
100
AcDbLine
 62
40
  6
CONTINUOUS
 10
7.3274324807
 20
5.1899312222
 11
7.3208902932
 21
5.198654143
  0
LINE
  5
41D
100
AcDbEntity
  8
03__ASM_ALL_CURVES
100
AcDbLine
 62
40
  6
CONTINUOUS
 10
7.5891199807
 20
5.1201478914
 11
7.5891199807
 21
5.2073770576
  0
LINE
  5
41E
100
AcDbEntity
  8
03__ASM_ALL_CURVES
100
AcDbLine
 62
40
  6
CONTINUOUS
 10
7.6414574807
 20
5.2073770576
 11
7.6414574807
 21
5.1201478914
  0
LINE
  5
41F
100
AcDbEntity
  8
03__ASM_ALL_CURVES
100
AcDbLine
 62
40
  6
CONTINUOUS
 10
7.6937949807
 20
5.2073770576
 11
7.6937949807
 21
5.1027020576
  0
LINE
  5
420
100
AcDbEntity
  8
03__ASM_ALL_CURVES
100
AcDbLine
 62
40
  6
CONTINUOUS
 10
7.8573496682
 20
5.1550395576
 11
7.8508074807
 21
5.1288708076
  0
LINE
  5
421
100
AcDbEntity
  8
03__ASM_ALL_CURVES
100
AcDbLine
 62
40
  6
CONTINUOUS
 10
8.038205996
 20
4.2360256201
 11
8.0283927147
 21
4.2229412453
  0
LINE
  5
422
100
AcDbEntity
  8
03__ASM_ALL_CURVES
100
AcDbLine
 62
40
  6
CONTINUOUS
 10
8.1118056054
 20
4.2687365592
 11
8.1068989647
 21
4.2621943685
  0
LINE
  5
423
100
AcDbEntity
  8
03__ASM_ALL_CURVES
100
AcDbLine
 62
40
  6
CONTINUOUS
 10
7.8246387307
 20
5.2073770576
 11
7.8377231057
 21
5.198654143
  0
LINE
  5
424
100
AcDbEntity
  8
03__ASM_ALL_CURVES
100
AcDbLine
 62
40
  6
CONTINUOUS
 10
8.0283927147
 20
4.2883631217
 11
8.038205996
 21
4.2752787451
  0
LINE
  5
425
100
AcDbEntity
  8
03__ASM_ALL_CURVES
100
AcDbLine
 62
40
  6
CONTINUOUS
 10
8.1068989647
 20
4.2883631217
 11
8.1118056054
 21
4.281820931
  0
LINE
  5
426
100
AcDbEntity
  8
03__ASM_ALL_CURVES
100
AcDbLine
 62
40
  6
CONTINUOUS
 10
7.4909871682
 20
5.1114249745
 11
7.4779027932
 21
5.1288708076
  0
LINE
  5
427
100
AcDbEntity
  8
03__ASM_ALL_CURVES
100
AcDbLine
 62
40
  6
CONTINUOUS
 10
7.5956621682
 20
5.1114249745
 11
7.5891199807
 21
5.1201478914
  0
LINE
  5
428
100
AcDbEntity
  8
03__ASM_ALL_CURVES
100
AcDbLine
 62
40
  6
CONTINUOUS
 10
7.5302402932
 20
5.198654143
 11
7.5433246682
 21
5.1812083076
  0
LINE
  5
429
100
AcDbEntity
  8
03__ASM_ALL_CURVES
100
AcDbLine
 62
40
  6
CONTINUOUS
 10
7.4779027932
 20
5.1288708076
 11
7.4713606057
 21
5.1550395576
  0
LINE
  5
42A
100
AcDbEntity
  8
03__ASM_ALL_CURVES
100
AcDbLine
 62
40
  6
CONTINUOUS
 10
7.5433246682
 20
5.1812083076
 11
7.5498668557
 21
5.1550395576
  0
LINE
  5
42B
100
AcDbEntity
  8
03__ASM_ALL_CURVES
100
AcDbLine
 62
40
  6
CONTINUOUS
 10
7.7984699807
 20
5.1027020576
 11
7.7984699807
 21
5.2073770576
  0
LINE
  5
42C
100
AcDbEntity
  8
03__ASM_ALL_CURVES
100
AcDbLine
 62
40
  6
CONTINUOUS
 10
7.9031449807
 20
5.1027020576
 11
7.9031449807
 21
5.2073770576
  0
LINE
  5
42D
100
AcDbEntity
  8
03__ASM_ALL_CURVES
100
AcDbLine
 62
40
  6
CONTINUOUS
 10
7.9155399804
 20
4.2163990576
 11
7.9155399804
 21
4.2949053076
  0
LINE
  5
42E
100
AcDbEntity
  8
03__ASM_ALL_CURVES
100
AcDbLine
 62
40
  6
CONTINUOUS
 10
8.0405309182
 20
5.2073770576
 11
8.0536152932
 21
5.198654143
  0
LINE
  5
42F
100
AcDbEntity
  8
03__ASM_ALL_CURVES
100
AcDbLine
 62
40
  6
CONTINUOUS
 10
7.9891395897
 20
4.2360256201
 11
7.9842329491
 21
4.2556521826
  0
LINE
  5
430
100
AcDbEntity
  8
03__ASM_ALL_CURVES
100
AcDbLine
 62
40
  6
CONTINUOUS
 10
7.9547931054
 20
4.281820931
 11
7.9547931054
 21
4.2687365592
  0
LINE
  5
431
100
AcDbEntity
  8
03__ASM_ALL_CURVES
100
AcDbLine
 62
40
  6
CONTINUOUS
 10
8.0078199807
 20
5.1027020576
 11
8.0078199807
 21
5.2073770576
  0
LINE
  5
432
100
AcDbEntity
  8
03__ASM_ALL_CURVES
100
AcDbLine
 62
40
  6
CONTINUOUS
 10
8.0601574807
 20
5.1899312222
 11
8.0601574807
 21
5.172485393
  0
LINE
  5
433
100
AcDbEntity
  8
03__ASM_ALL_CURVES
100
AcDbLine
 62
40
  6
CONTINUOUS
 10
8.0725524804
 20
4.2163990576
 11
8.0725524804
 21
4.2949053076
  0
LINE
  5
434
100
AcDbEntity
  8
03__ASM_ALL_CURVES
100
AcDbLine
 62
40
  6
CONTINUOUS
 10
7.9842329491
 20
4.2556521826
 11
7.9891395897
 21
4.2752787451
  0
LINE
  5
435
100
AcDbEntity
  8
03__ASM_ALL_CURVES
100
AcDbLine
 62
40
  6
CONTINUOUS
 10
8.0431126366
 20
4.2556521826
 11
8.038205996
 21
4.2360256201
  0
LINE
  5
436
100
AcDbEntity
  8
03__ASM_ALL_CURVES
100
AcDbLine
 62
40
  6
CONTINUOUS
 10
7.8377231057
 20
5.198654143
 11
7.8508074807
 21
5.1812083076
  0
LINE
  5
437
100
AcDbEntity
  8
03__ASM_ALL_CURVES
100
AcDbLine
 62
40
  6
CONTINUOUS
 10
8.0970856835
 20
4.2556521826
 11
8.1118056054
 21
4.2163990576
  0
LINE
  5
438
100
AcDbEntity
  8
03__ASM_ALL_CURVES
100
AcDbLine
 62
40
  6
CONTINUOUS
 10
8.038205996
 20
4.2752787451
 11
8.0431126366
 21
4.2556521826
  0
LINE
  5
439
100
AcDbEntity
  8
03__ASM_ALL_CURVES
100
AcDbLine
 62
40
  6
CONTINUOUS
 10
7.8508074807
 20
5.1812083076
 11
7.8573496682
 21
5.1550395576
  0
LINE
  5
43A
100
AcDbEntity
  8
03__ASM_ALL_CURVES
100
AcDbLine
 62
40
  6
CONTINUOUS
 10
8.1118056054
 20
4.281820931
 11
8.1118056054
 21
4.2687365592
  0
LINE
  5
43B
100
AcDbEntity
  8
03__ASM_ALL_CURVES
100
AcDbLine
 62
40
  6
CONTINUOUS
 10
8.1706852929
 20
4.2949053076
 11
8.1706852929
 21
4.2163990576
  0
LINE
  5
43C
100
AcDbEntity
  8
03__ASM_ALL_CURVES
100
AcDbLine
 62
40
  6
CONTINUOUS
 10
8.2491915429
 20
4.2949053076
 11
8.2491915429
 21
4.2163990576
  0
LINE
  5
43D
100
AcDbEntity
  8
03__ASM_ALL_CURVES
100
AcDbLine
 62
40
  6
CONTINUOUS
 10
8.0536152932
 20
5.198654143
 11
8.0601574807
 21
5.1899312222
  0
LINE
  5
43E
100
AcDbEntity
  8
03__ASM_ALL_CURVES
100
AcDbLine
 62
40
  6
CONTINUOUS
 10
8.0405309182
 20
5.1550395576
 11
8.0601574807
 21
5.1027020576
  0
ARC
  5
43F
100
AcDbEntity
  8
0
100
AcDbCircle
 62
7
  6
CONTINUOUS
 10
3.9155399813
 20
4.3724640576
 40
0.094
100
AcDbArc
 50
90.0
 51
131.267427381
  0
ARC
  5
440
100
AcDbEntity
  8
0
100
AcDbCircle
 62
7
  6
CONTINUOUS
 10
3.9155399813
 20
4.0184640576
 40
0.094
100
AcDbArc
 50
228.732572619
 51
270.0
  0
ARC
  5
441
100
AcDbEntity
  8
THREAD
100
AcDbCircle
 62
7
  6
CONTINUOUS
 10
6.3460344278
 20
3.7244640576
 40
0.013
100
AcDbArc
 50
29.9999999933
 51
90.0
  0
ARC
  5
442
100
AcDbEntity
  8
THREAD
100
AcDbCircle
 62
7
  6
CONTINUOUS
 10
6.3460344278
 20
4.6664640576
 40
0.013
100
AcDbArc
 50
270.0
 51
330.0000000082
  0
ARC
  5
443
100
AcDbEntity
  8
0
100
AcDbCircle
 62
7
  6
CONTINUOUS
 10
6.1705399813
 20
3.6650773062
 40
0.005
100
AcDbArc
 50
120.0000000163
 51
179.9999999997
  0
ARC
  5
444
100
AcDbEntity
  8
0
100
AcDbCircle
 62
7
  6
CONTINUOUS
 10
6.1705399813
 20
4.7258508089
 40
0.005
100
AcDbArc
 50
180.0000000004
 51
239.9999999791
  0
ARC
  5
445
100
AcDbEntity
  8
0
100
AcDbCircle
 62
7
  6
CONTINUOUS
 10
6.1625399813
 20
3.6604640576
 40
0.003
100
AcDbArc
 50
270.0
 51
360.0
  0
ARC
  5
446
100
AcDbEntity
  8
0
100
AcDbCircle
 62
7
  6
CONTINUOUS
 10
6.1625399813
 20
4.7304640576
 40
0.003
100
AcDbArc
 50
0.0
 51
90.0
  0
SPLINE
  5
447
100
AcDbEntity
  8
0
100
AcDbSpline
 62
7
  6
CONTINUOUS
 70
0
 71
3
 72
15
 73
11
 74
9
 42
0.0000001
 43
0.0000001
 44
0.0000000001
 12
0.0
 22
0.1099409465
 32
0.0
 13
0.0
 23
-0.1099409465
 33
0.0
 40
0.0
 40
0.0
 40
0.0
 40
0.0
 40
0.125
 40
0.25
 40
0.375
 40
0.5
 40
0.625
 40
0.75
 40
0.875
 40
1.0
 40
1.0
 40
1.0
 40
1.0
 10
7.4060399813
 20
4.6124640576
 30
0.0
 10
7.4060399813
 20
4.6170449304
 30
0.0
 10
7.4042175968
 20
4.6262066759
 30
0.0
 10
7.3964330288
 20
4.6378571052
 30
0.0
 10
7.3847825996
 20
4.6456416731
 30
0.0
 10
7.3710399813
 20
4.6483752498
 30
0.0
 10
7.357297363
 20
4.6456416731
 30
0.0
 10
7.3456469337
 20
4.6378571052
 30
0.0
 10
7.3378623658
 20
4.6262066759
 30
0.0
 10
7.3360399813
 20
4.6170449304
 30
0.0
 10
7.3360399813
 20
4.6124640576
 30
0.0
 11
7.4060399813
 21
4.6124640576
 31
0.0
 11
7.4033757649
 21
4.6258579777
 31
0.0
 11
7.3957887186
 21
4.6372127949
 31
0.0
 11
7.3844339014
 21
4.6447998412
 31
0.0
 11
7.3710399813
 21
4.6474640576
 31
0.0
 11
7.3576460611
 21
4.6447998412
 31
0.0
 11
7.3462912439
 21
4.6372127949
 31
0.0
 11
7.3387041976
 21
4.6258579777
 31
0.0
 11
7.3360399813
 21
4.6124640576
 31
0.0
  0
SPLINE
  5
448
100
AcDbEntity
  8
0
100
AcDbSpline
 62
7
  6
CONTINUOUS
 70
0
 71
3
 72
15
 73
11
 74
9
 42
0.0000001
 43
0.0000001
 44
0.0000000001
 12
0.0
 22
-0.1099409465
 32
0.0
 13
0.0
 23
0.1099409465
 33
0.0
 40
0.0
 40
0.0
 40
0.0
 40
0.0
 40
0.125
 40
0.25
 40
0.375
 40
0.5
 40
0.625
 40
0.75
 40
0.875
 40
1.0
 40
1.0
 40
1.0
 40
1.0
 10
7.4060399813
 20
3.7784640576
 30
0.0
 10
7.4060399813
 20
3.7738831848
 30
0.0
 10
7.4042175968
 20
3.7647214393
 30
0.0
 10
7.3964330288
 20
3.75307101
 30
0.0
 10
7.3847825996
 20
3.7452864421
 30
0.0
 10
7.3710399813
 20
3.7425528653
 30
0.0
 10
7.357297363
 20
3.7452864421
 30
0.0
 10
7.3456469337
 20
3.75307101
 30
0.0
 10
7.3378623658
 20
3.7647214393
 30
0.0
 10
7.3360399813
 20
3.7738831848
 30
0.0
 10
7.3360399813
 20
3.7784640576
 30
0.0
 11
7.4060399813
 21
3.7784640576
 31
0.0
 11
7.4033757649
 21
3.7650701375
 31
0.0
 11
7.3957887186
 21
3.7537153203
 31
0.0
 11
7.3844339014
 21
3.746128274
 31
0.0
 11
7.3710399813
 21
3.7434640576
 31
0.0
 11
7.3576460611
 21
3.746128274
 31
0.0
 11
7.3462912439
 21
3.7537153203
 31
0.0
 11
7.3387041976
 21
3.7650701375
 31
0.0
 11
7.3360399813
 21
3.7784640576
 31
0.0
  0
SPLINE
  5
449
100
AcDbEntity
  8
0
100
AcDbSpline
 62
7
  6
CONTINUOUS
 70
0
 71
3
 72
14
 73
10
 74
8
 42
0.0000001
 43
0.0000001
 44
0.0000000001
 12
0.0
 22
0.0916172274
 32
0.0
 13
-0.045846371
 23
-0.079336773
 33
0.0
 40
0.0
 40
0.0
 40
0.0
 40
0.0
 40
0.1500003733
 40
0.3000007465
 40
0.4500011198
 40
0.6000014931
 40
0.7500018663
 40
0.9000022396
 40
1.0
 40
1.0
 40
1.0
 40
1.0
 10
6.2825399813
 20
4.6884640576
 30
0.0
 10
6.2825399813
 20
4.6930449304
 30
0.0
 10
6.2807175968
 20
4.7022066759
 30
0.0
 10
6.2729330288
 20
4.7138571052
 30
0.0
 10
6.2612825996
 20
4.7216416731
 30
0.0
 10
6.2475399813
 20
4.7243752498
 30
0.0
 10
6.233797363
 20
4.7216416731
 30
0.0
 10
6.2234414903
 20
4.7147221002
 30
0.0
 10
6.218758809
 20
4.7086076683
 30
0.0
 10
6.2172306308
 20
4.7059631684
 30
0.0
 11
6.2825399813
 21
4.6884640576
 31
0.0
 11
6.2798757649
 21
4.7018579777
 31
0.0
 11
6.2722887186
 21
4.7132127949
 31
0.0
 11
6.2609339014
 21
4.7207998412
 31
0.0
 11
6.2475399813
 21
4.7234640576
 31
0.0
 11
6.2341460611
 21
4.7207998412
 31
0.0
 11
6.2227912439
 21
4.7132127949
 31
0.0
 11
6.2172306308
 21
4.7059631684
 31
0.0
  0
SPLINE
  5
44A
100
AcDbEntity
  8
0
100
AcDbSpline
 62
7
  6
CONTINUOUS
 70
0
 71
3
 72
9
 73
5
 74
3
 42
0.0000001
 43
0.0000001
 44
0.0000000001
 12
-0.0091694111
 22
-0.0158675915
 32
0.0
 13
0.0
 23
-0.0183237191
 33
0.0
 40
0.0
 40
0.0
 40
0.0
 40
0.0
 40
0.2500093315
 40
1.0
 40
1.0
 40
1.0
 40
1.0
 10
6.2172306308
 20
4.7059631684
 30
0.0
 10
6.2164664847
 20
4.7046408198
 30
0.0
 10
6.2137549194
 20
4.6991528367
 30
0.0
 10
6.2125399813
 20
4.6930449304
 30
0.0
 10
6.2125399813
 20
4.6884640576
 30
0.0
 11
6.2172306308
 21
4.7059631684
 31
0.0
 11
6.2152041976
 21
4.7018579777
 31
0.0
 11
6.2125399813
 21
4.6884640576
 31
0.0
  0
SPLINE
  5
44B
100
AcDbEntity
  8
0
100
AcDbSpline
 62
7
  6
CONTINUOUS
 70
0
 71
3
 72
14
 73
10
 74
8
 42
0.0000001
 43
0.0000001
 44
0.0000000001
 12
0.0
 22
-0.0916172274
 32
0.0
 13
-0.045846371
 23
0.079336773
 33
0.0
 40
0.0
 40
0.0
 40
0.0
 40
0.0
 40
0.1500003733
 40
0.3000007465
 40
0.4500011198
 40
0.6000014931
 40
0.7500018663
 40
0.9000022396
 40
1.0
 40
1.0
 40
1.0
 40
1.0
 10
6.2825399813
 20
3.7024640576
 30
0.0
 10
6.2825399813
 20
3.6978831848
 30
0.0
 10
6.2807175968
 20
3.6887214393
 30
0.0
 10
6.2729330288
 20
3.67707101
 30
0.0
 10
6.2612825996
 20
3.6692864421
 30
0.0
 10
6.2475399813
 20
3.6665528653
 30
0.0
 10
6.233797363
 20
3.6692864421
 30
0.0
 10
6.2234414903
 20
3.676206015
 30
0.0
 10
6.218758809
 20
3.6823204469
 30
0.0
 10
6.2172306308
 20
3.6849649468
 30
0.0
 11
6.2825399813
 21
3.7024640576
 31
0.0
 11
6.2798757649
 21
3.6890701375
 31
0.0
 11
6.2722887186
 21
3.6777153203
 31
0.0
 11
6.2609339014
 21
3.670128274
 31
0.0
 11
6.2475399813
 21
3.6674640576
 31
0.0
 11
6.2341460611
 21
3.670128274
 31
0.0
 11
6.2227912439
 21
3.6777153203
 31
0.0
 11
6.2172306308
 21
3.6849649468
 31
0.0
  0
SPLINE
  5
44C
100
AcDbEntity
  8
0
100
AcDbSpline
 62
7
  6
CONTINUOUS
 70
0
 71
3
 72
9
 73
5
 74
3
 42
0.0000001
 43
0.0000001
 44
0.0000000001
 12
-0.0091694111
 22
0.0158675915
 32
0.0
 13
0.0
 23
0.0183237191
 33
0.0
 40
0.0
 40
0.0
 40
0.0
 40
0.0
 40
0.2500093315
 40
1.0
 40
1.0
 40
1.0
 40
1.0
 10
6.2172306308
 20
3.6849649468
 30
0.0
 10
6.2164664847
 20
3.6862872954
 30
0.0
 10
6.2137549194
 20
3.6917752785
 30
0.0
 10
6.2125399813
 20
3.6978831848
 30
0.0
 10
6.2125399813
 20
3.7024640576
 30
0.0
 11
6.2172306308
 21
3.6849649468
 31
0.0
 11
6.2152041976
 21
3.6890701375
 31
0.0
 11
6.2125399813
 21
3.7024640576
 31
0.0
  0
SPLINE
  5
44D
100
AcDbEntity
  8
0
100
AcDbSpline
 62
7
  6
CONTINUOUS
 70
0
 71
3
 72
15
 73
11
 74
9
 42
0.0000001
 43
0.0000001
 44
0.0000000001
 12
0.0
 22
0.1099409465
 32
0.0
 13
-0.0
 23
-0.1099409465
 33
0.0
 40
0.0
 40
0.0
 40
0.0
 40
0.0
 40
0.125
 40
0.25
 40
0.375
 40
0.5
 40
0.625
 40
0.75
 40
0.875
 40
1.0
 40
1.0
 40
1.0
 40
1.0
 10
5.6605399813
 20
4.7129640576
 30
0.0
 10
5.6605399813
 20
4.7175449304
 30
0.0
 10
5.6587175968
 20
4.7267066759
 30
0.0
 10
5.6509330288
 20
4.7383571052
 30
0.0
 10
5.6392825996
 20
4.7461416731
 30
0.0
 10
5.6255399813
 20
4.7488752498
 30
0.0
 10
5.611797363
 20
4.7461416731
 30
0.0
 10
5.6001469337
 20
4.7383571052
 30
0.0
 10
5.5923623658
 20
4.7267066759
 30
0.0
 10
5.5905399813
 20
4.7175449304
 30
0.0
 10
5.5905399813
 20
4.7129640576
 30
0.0
 11
5.6605399813
 21
4.7129640576
 31
0.0
 11
5.6578757649
 21
4.7263579777
 31
0.0
 11
5.6502887186
 21
4.7377127949
 31
0.0
 11
5.6389339014
 21
4.7452998412
 31
0.0
 11
5.6255399813
 21
4.7479640576
 31
0.0
 11
5.6121460611
 21
4.7452998412
 31
0.0
 11
5.6007912439
 21
4.7377127949
 31
0.0
 11
5.5932041976
 21
4.7263579777
 31
0.0
 11
5.5905399813
 21
4.7129640576
 31
0.0
  0
SPLINE
  5
44E
100
AcDbEntity
  8
0
100
AcDbSpline
 62
7
  6
CONTINUOUS
 70
0
 71
3
 72
15
 73
11
 74
9
 42
0.0000001
 43
0.0000001
 44
0.0000000001
 12
0.0
 22
-0.1099409465
 32
0.0
 13
-0.0
 23
0.1099409465
 33
0.0
 40
0.0
 40
0.0
 40
0.0
 40
0.0
 40
0.125
 40
0.25
 40
0.375
 40
0.5
 40
0.625
 40
0.75
 40
0.875
 40
1.0
 40
1.0
 40
1.0
 40
1.0
 10
5.6605399813
 20
3.6779640576
 30
0.0
 10
5.6605399813
 20
3.6733831848
 30
0.0
 10
5.6587175968
 20
3.6642214393
 30
0.0
 10
5.6509330288
 20
3.65257101
 30
0.0
 10
5.6392825996
 20
3.6447864421
 30
0.0
 10
5.6255399813
 20
3.6420528653
 30
0.0
 10
5.611797363
 20
3.6447864421
 30
0.0
 10
5.6001469337
 20
3.65257101
 30
0.0
 10
5.5923623658
 20
3.6642214393
 30
0.0
 10
5.5905399813
 20
3.6733831848
 30
0.0
 10
5.5905399813
 20
3.6779640576
 30
0.0
 11
5.6605399813
 21
3.6779640576
 31
0.0
 11
5.6578757649
 21
3.6645701375
 31
0.0
 11
5.6502887186
 21
3.6532153203
 31
0.0
 11
5.6389339014
 21
3.645628274
 31
0.0
 11
5.6255399813
 21
3.6429640576
 31
0.0
 11
5.6121460611
 21
3.645628274
 31
0.0
 11
5.6007912439
 21
3.6532153203
 31
0.0
 11
5.5932041976
 21
3.6645701375
 31
0.0
 11
5.5905399813
 21
3.6779640576
 31
0.0
  0
SPLINE
  5
44F
100
AcDbEntity
  8
0
100
AcDbSpline
 62
7
  6
CONTINUOUS
 70
0
 71
3
 72
16
 73
12
 74
10
 42
0.0000001
 43
0.0000001
 44
0.0000000001
 12
0.0906480335
 22
0.2719441006
 32
0.0
 13
-0.0906480335
 23
0.2719441006
 33
0.0
 40
0.0
 40
0.0
 40
0.0
 40
0.0
 40
0.1184548733
 40
0.230565332
 40
0.3393089466
 40
0.4465959239
 40
0.5535015371
 40
0.6607803311
 40
0.769505023
 40
0.8815660643
 40
1.0
 40
1.0
 40
1.0
 40
1.0
 10
4.1036685709
 20
3.9144640576
 30
0.0
 10
4.1072478047
 20
3.9252017589
 30
0.0
 10
4.1136788913
 20
3.9462878058
 30
0.0
 10
4.121198321
 20
3.9778488606
 30
0.0
 10
4.1262865484
 20
4.0088176787
 30
0.0
 10
4.1288734106
 20
4.0396007483
 30
0.0
 10
4.1288722223
 20
4.0703545493
 30
0.0
 10
4.1262833817
 20
4.1011348407
 30
0.0
 10
4.121194647
 20
4.1320961425
 30
0.0
 10
4.1136763902
 20
4.1636486741
 30
0.0
 10
4.107247172
 20
4.1847282542
 30
0.0
 10
4.1036685709
 20
4.1954640576
 30
0.0
 11
4.1036685709
 21
3.9144640576
 31
0.0
 11
4.1135070405
 21
3.9469630855
 31
0.0
 11
4.120894211
 21
3.9782394759
 31
0.0
 11
4.1258988284
 21
4.0090069284
 31
0.0
 11
4.1284457937
 21
4.0396555496
 31
0.0
 11
4.1284446235
 21
4.0703004981
 31
0.0
 11
4.1258956834
 21
4.1009466012
 31
0.0
 11
4.1208902444
 21
4.1317084244
 31
0.0
 11
4.1135054729
 21
4.162970826
 31
0.0
 11
4.1036685709
 21
4.1954640576
 31
0.0
  0
SPLINE
  5
450
100
AcDbEntity
  8
0
100
AcDbSpline
 62
7
  6
CONTINUOUS
 70
0
 71
3
 72
17
 73
13
 74
11
 42
0.0000001
 43
0.0000001
 44
0.0000000001
 12
-0.1487434696
 22
0.2576312467
 32
0.0
 13
0.1487434696
 23
0.2576312467
 33
0.0
 40
0.0
 40
0.0
 40
0.0
 40
0.0
 40
0.1169386465
 40
0.2216811606
 40
0.3184580982
 40
0.4103908543
 40
0.5000417254
 40
0.5896883004
 40
0.6816074548
 40
0.7783545182
 40
0.8830694657
 40
1.0
 40
1.0
 40
1.0
 40
1.0
 10
4.0020108326
 20
3.9144640576
 30
0.0
 10
3.9962128792
 20
3.9245064074
 30
0.0
 10
3.9858730516
 20
3.9439362548
 30
0.0
 10
3.9734994282
 20
3.9730383324
 30
0.0
 10
3.9648459815
 20
4.0008798951
 30
0.0
 10
3.9596888769
 20
4.0280632147
 30
0.0
 10
3.9579719965
 20
4.0549760996
 30
0.0
 10
3.9596918822
 20
4.0818874244
 30
0.0
 10
3.9648506338
 20
4.109065565
 30
0.0
 10
3.9735034856
 20
4.136899871
 30
0.0
 10
3.985875073
 20
4.1659957107
 30
0.0
 10
3.9962132814
 20
4.1854224045
 30
0.0
 10
4.0020108326
 20
4.1954640576
 30
0.0
 11
4.0020108326
 21
3.9144640576
 31
0.0
 11
3.9857846011
 21
3.9452357146
 31
0.0
 11
3.9736998446
 21
3.9739563512
 31
0.0
 11
3.9652471714
 21
4.0014774198
 31
0.0
 11
3.960214286
 21
4.028359135
 31
0.0
 11
3.9585399816
 21
4.0549764911
 31
0.0
 11
3.9602172239
 21
4.0815923816
 31
0.0
 11
3.9652518706
 21
4.1084696503
 31
0.0
 11
3.9737034856
 21
4.1359817469
 31
0.0
 11
3.9857856368
 21
4.1646945826
 31
0.0
 11
4.0020108326
 21
4.1954640576
 31
0.0
  0
SPLINE
  5
451
100
AcDbEntity
  8
0
100
AcDbSpline
 62
7
  6
CONTINUOUS
 70
0
 71
3
 72
16
 73
12
 74
10
 42
0.0000001
 43
0.0000001
 44
0.0000000001
 12
0.0906480335
 22
0.2719441006
 32
0.0
 13
-0.0906480335
 23
0.2719441006
 33
0.0
 40
0.0
 40
0.0
 40
0.0
 40
0.0
 40
0.1184548733
 40
0.230565332
 40
0.3393089466
 40
0.4465959239
 40
0.5535015371
 40
0.6607803311
 40
0.769505023
 40
0.8815660643
 40
1.0
 40
1.0
 40
1.0
 40
1.0
 10
4.1036685709
 20
4.1954640576
 30
0.0
 10
4.1072478047
 20
4.2062017589
 30
0.0
 10
4.1136788913
 20
4.2272878058
 30
0.0
 10
4.121198321
 20
4.2588488606
 30
0.0
 10
4.1262865484
 20
4.2898176787
 30
0.0
 10
4.1288734106
 20
4.3206007483
 30
0.0
 10
4.1288722223
 20
4.3513545493
 30
0.0
 10
4.1262833817
 20
4.3821348407
 30
0.0
 10
4.121194647
 20
4.4130961425
 30
0.0
 10
4.1136763902
 20
4.4446486741
 30
0.0
 10
4.107247172
 20
4.4657282542
 30
0.0
 10
4.1036685709
 20
4.4764640576
 30
0.0
 11
4.1036685709
 21
4.1954640576
 31
0.0
 11
4.1135070405
 21
4.2279630855
 31
0.0
 11
4.120894211
 21
4.2592394759
 31
0.0
 11
4.1258988284
 21
4.2900069284
 31
0.0
 11
4.1284457937
 21
4.3206555496
 31
0.0
 11
4.1284446235
 21
4.3513004981
 31
0.0
 11
4.1258956834
 21
4.3819466012
 31
0.0
 11
4.1208902444
 21
4.4127084244
 31
0.0
 11
4.1135054729
 21
4.443970826
 31
0.0
 11
4.1036685709
 21
4.4764640576
 31
0.0
  0
SPLINE
  5
452
100
AcDbEntity
  8
0
100
AcDbSpline
 62
7
  6
CONTINUOUS
 70
0
 71
3
 72
17
 73
13
 74
11
 42
0.0000001
 43
0.0000001
 44
0.0000000001
 12
-0.1487434696
 22
0.2576312467
 32
0.0
 13
0.1487434696
 23
0.2576312467
 33
0.0
 40
0.0
 40
0.0
 40
0.0
 40
0.0
 40
0.1169386465
 40
0.2216811606
 40
0.3184580982
 40
0.4103908543
 40
0.5000417254
 40
0.5896883004
 40
0.6816074548
 40
0.7783545182
 40
0.8830694657
 40
1.0
 40
1.0
 40
1.0
 40
1.0
 10
4.0020108326
 20
4.1954640576
 30
0.0
 10
3.9962128792
 20
4.2055064074
 30
0.0
 10
3.9858730516
 20
4.2249362548
 30
0.0
 10
3.9734994282
 20
4.2540383324
 30
0.0
 10
3.9648459815
 20
4.2818798951
 30
0.0
 10
3.9596888769
 20
4.3090632147
 30
0.0
 10
3.9579719965
 20
4.3359760996
 30
0.0
 10
3.9596918822
 20
4.3628874244
 30
0.0
 10
3.9648506338
 20
4.390065565
 30
0.0
 10
3.9735034856
 20
4.417899871
 30
0.0
 10
3.985875073
 20
4.4469957107
 30
0.0
 10
3.9962132814
 20
4.4664224045
 30
0.0
 10
4.0020108326
 20
4.4764640576
 30
0.0
 11
4.0020108326
 21
4.1954640576
 31
0.0
 11
3.9857846011
 21
4.2262357146
 31
0.0
 11
3.9736998446
 21
4.2549563512
 31
0.0
 11
3.9652471714
 21
4.2824774198
 31
0.0
 11
3.960214286
 21
4.309359135
 31
0.0
 11
3.9585399816
 21
4.3359764911
 31
0.0
 11
3.9602172239
 21
4.3625923816
 31
0.0
 11
3.9652518706
 21
4.3894696503
 31
0.0
 11
3.9737034856
 21
4.4169817469
 31
0.0
 11
3.9857856368
 21
4.4456945826
 31
0.0
 11
4.0020108326
 21
4.4764640576
 31
0.0
  0
SPLINE
  5
453
100
AcDbEntity
  8
0
100
AcDbSpline
 62
7
  6
CONTINUOUS
 70
0
 71
3
 72
9
 73
5
 74
3
 42
0.0000001
 43
0.0000001
 44
0.0000000001
 12
0.0
 22
-0.0280203434
 32
0.0
 13
-0.0132814075
 23
-0.0247474284
 33
0.0
 40
0.0
 40
0.0
 40
0.0
 40
0.0
 40
0.5480794744
 40
1.0
 40
1.0
 40
1.0
 40
1.0
 10
7.1212915233
 20
4.0084640576
 30
0.0
 10
7.1212915233
 20
4.0033449326
 30
0.0
 10
7.1200713457
 20
3.9939500441
 30
0.0
 10
7.1165700007
 20
3.9852004282
 30
0.0
 10
7.1145692872
 20
3.9814724712
 30
0.0
 11
7.1212915233
 21
4.0084640576
 31
0.0
 11
7.1192687723
 21
3.9932404757
 31
0.0
 11
7.1145692872
 21
3.9814724712
 31
0.0
  0
SPLINE
  5
454
100
AcDbEntity
  8
0
100
AcDbSpline
 62
7
  6
CONTINUOUS
 70
0
 71
3
 72
9
 73
5
 74
3
 42
0.0000001
 43
0.0000001
 44
0.0000000001
 12
0.013281658
 22
-0.0247475827
 32
0.0
 13
0.0
 23
-0.0280205383
 33
0.0
 40
0.0
 40
0.0
 40
0.0
 40
0.0
 40
0.4513097657
 40
1.0
 40
1.0
 40
1.0
 40
1.0
 10
7.1145691255
 20
4.4094559381
 30
0.0
 10
7.1165671728
 20
4.4057329962
 30
0.0
 10
7.1200699016
 20
4.3969840301
 30
0.0
 10
7.1212915233
 20
4.3875889228
 30
0.0
 10
7.1212915233
 20
4.3824640576
 30
0.0
 11
7.1145691255
 21
4.4094559381
 31
0.0
 11
7.1192641872
 21
4.3977044021
 31
0.0
 11
7.1212915233
 21
4.3824640576
 31
0.0
  0
SPLINE
  5
455
100
AcDbEntity
  8
0
100
AcDbSpline
 62
7
  6
CONTINUOUS
 70
0
 71
3
 72
13
 73
9
 74
7
 42
0.0000001
 43
0.0000001
 44
0.0000000001
 12
-0.0682699855
 22
-0.0024137474
 32
0.0
 13
-0.0519149343
 23
-0.0444514205
 33
0.0
 40
0.0
 40
0.0
 40
0.0
 40
0.0
 40
0.0466280455
 40
0.2770461223
 40
0.498674906
 40
0.7035503481
 40
0.8786240593
 40
1.0
 40
1.0
 40
1.0
 40
1.0
 10
7.0983931779
 20
4.3324879276
 30
0.0
 10
7.0973320792
 20
4.3324504115
 30
0.0
 10
7.0910298008
 20
4.3321585136
 30
0.0
 10
7.0797271995
 20
4.330907455
 30
0.0
 10
7.0651093891
 20
4.3276051973
 30
0.0
 10
7.0522040765
 20
4.3229033344
 30
0.0
 10
7.0421214585
 20
4.317468373
 30
0.0
 10
7.0366860746
 20
4.3134344406
 30
0.0
 10
7.0345856666
 20
4.3116359963
 30
0.0
 11
7.0983931779
 21
4.3324879276
 31
0.0
 11
7.0952113287
 21
4.3323407365
 31
0.0
 11
7.0795765304
 21
4.3305896567
 31
0.0
 11
7.0648286735
 21
4.3271997767
 31
0.0
 11
7.0517128453
 21
4.3223361941
 31
0.0
 11
7.0412252221
 21
4.3166002106
 31
0.0
 11
7.0345856666
 21
4.3116359963
 31
0.0
  0
SPLINE
  5
456
100
AcDbEntity
  8
0
100
AcDbSpline
 62
7
  6
CONTINUOUS
 70
0
 71
3
 72
21
 73
17
 74
15
 42
0.0000001
 43
0.0000001
 44
0.0000000001
 12
0.0
 22
-0.2087126244
 32
0.0
 13
-0.0987438048
 23
0.184238508
 33
0.0
 40
0.0
 40
0.0
 40
0.0
 40
0.0
 40
0.0647924618
 40
0.1317219532
 40
0.2007075374
 40
0.2714562969
 40
0.3436814032
 40
0.4168110143
 40
0.49070683
 40
0.565862211
 40
0.6426610315
 40
0.7201537855
 40
0.7971154624
 40
0.8716833634
 40
0.9427629199
 40
1.0
 40
1.0
 40
1.0
 40
1.0
 10
7.1212915233
 20
4.3824640576
 30
0.0
 10
7.1212915233
 20
4.3779563893
 30
0.0
 10
7.1202451217
 20
4.3687650677
 30
0.0
 10
7.1157355912
 20
4.3554493942
 30
0.0
 10
7.1084288194
 20
4.3429546712
 30
0.0
 10
7.0985840098
 20
4.3318519438
 30
0.0
 10
7.0865641167
 20
4.3226670317
 30
0.0
 10
7.0728221608
 20
4.3158366949
 30
0.0
 10
7.0578454566
 20
4.3116587815
 30
0.0
 10
7.042099745
 20
4.3103146434
 30
0.0
 10
7.0261262065
 20
4.3119070666
 30
0.0
 10
7.0105845549
 20
4.3163921918
 30
0.0
 10
6.9962294054
 20
4.3234990879
 30
0.0
 10
6.9837170867
 20
4.3327650532
 30
0.0
 10
6.9740094369
 20
4.3431199914
 30
0.0
 10
6.969103838
 20
4.3506335549
 30
0.0
 10
6.9672199023
 20
4.3541486463
 30
0.0
 11
7.1212915233
 21
4.3824640576
 31
0.0
 11
7.1197992044
 21
4.3690236468
 31
0.0
 11
7.1153570298
 21
4.3557797472
 31
0.0
 11
7.1081134312
 21
4.3433363811
 31
0.0
 11
7.0983313957
 21
4.3322751316
 31
0.0
 11
7.0863612035
 21
4.3231127759
 31
0.0
 11
7.0726981057
 21
4.3163097502
 31
0.0
 11
7.057845739
 21
4.3121533321
 31
0.0
 11
7.0422180384
 21
4.3108036263
 31
0.0
 11
7.0262666952
 21
4.3123783487
 31
0.0
 11
7.010724835
 21
4.316854918
 31
0.0
 11
6.9963323674
 21
4.323987434
 31
0.0
 11
6.9838401523
 21
4.3332696587
 31
0.0
 11
6.9737257858
 21
4.3441224359
 31
0.0
 11
6.9672199023
 21
4.3541486463
 31
0.0
  0
SPLINE
  5
457
100
AcDbEntity
  8
0
100
AcDbSpline
 62
7
  6
CONTINUOUS
 70
0
 71
3
 72
21
 73
17
 74
15
 42
0.0000001
 43
0.0000001
 44
0.0000000001
 12
0.0987399367
 22
0.1842408331
 32
0.0
 13
0.0
 23
-0.2087137825
 33
0.0
 40
0.0
 40
0.0
 40
0.0
 40
0.0
 40
0.0567510487
 40
0.1278715138
 40
0.2025314353
 40
0.2795629599
 40
0.3570699655
 40
0.4338512899
 40
0.5089926641
 40
0.5829249543
 40
0.6561217648
 40
0.7284042178
 40
0.7991841395
 40
0.8681964531
 40
0.9351449044
 40
1.0
 40
1.0
 40
1.0
 40
1.0
 10
6.9672192065
 20
4.0367781682
 30
0.0
 10
6.9690870714
 20
4.040263455
 30
0.0
 10
6.9739698156
 20
4.0477542846
 30
0.0
 10
6.9836482086
 20
4.0581031704
 30
0.0
 10
6.9961632431
 20
4.0673898676
 30
0.0
 10
7.0105243357
 20
4.0745130876
 30
0.0
 10
7.0260676356
 20
4.079009682
 30
0.0
 10
7.0420389235
 20
4.0806127346
 30
0.0
 10
7.0577859873
 20
4.0792801249
 30
0.0
 10
7.0727719284
 20
4.0751113839
 30
0.0
 10
7.0865283551
 20
4.0682842859
 30
0.0
 10
7.0985612615
 20
4.0590980819
 30
0.0
 10
7.1084153592
 20
4.047992613
 30
0.0
 10
7.1157284013
 20
4.035495151
 30
0.0
 10
7.1202434297
 20
4.0221732313
 30
0.0
 10
7.1212915233
 20
4.0129761084
 30
0.0
 10
7.1212915233
 20
4.0084640576
 30
0.0
 11
6.9672192065
 21
4.0367781682
 31
0.0
 11
6.9736629757
 21
4.046724032
 31
0.0
 11
6.9837698795
 21
4.0575955326
 31
0.0
 11
6.996268491
 21
4.0669014833
 31
0.0
 11
7.010668716
 21
4.0740513673
 31
0.0
 11
7.0262105834
 21
4.0785389702
 31
0.0
 11
7.0421573159
 21
4.0801240963
 31
0.0
 11
7.0577831769
 21
4.0787861036
 31
0.0
 11
7.072645971
 21
4.0746383957
 31
0.0
 11
7.0863258293
 21
4.0678373809
 31
0.0
 11
7.0983097524
 21
4.0586731368
 31
0.0
 11
7.1080999752
 21
4.0476103371
 31
0.0
 11
7.1153498845
 21
4.0351640977
 31
0.0
 11
7.1197963395
 21
4.0219173786
 31
0.0
 11
7.1212915233
 21
4.0084640576
 31
0.0
  0
SPLINE
  5
458
100
AcDbEntity
  8
0
100
AcDbSpline
 62
7
  6
CONTINUOUS
 70
0
 71
3
 72
23
 73
19
 74
17
 42
0.0000001
 43
0.0000001
 44
0.0000000001
 12
-0.1590370706
 22
-0.0338660515
 32
0.0
 13
-0.1597118091
 23
0.030526159
 33
0.0
 40
0.0
 40
0.0
 40
0.0
 40
0.0
 40
0.009379459
 40
0.0372530388
 40
0.0825654767
 40
0.1435115543
 40
0.2177675608
 40
0.3021898556
 40
0.3936886824
 40
0.489815167
 40
0.5879376258
 40
0.6836921536
 40
0.7726089882
 40
0.8500458751
 40
0.9129556832
 40
0.9598984246
 40
0.9896184354
 40
1.0
 40
1.0
 40
1.0
 40
1.0
 10
7.1212915233
 20
4.5694640576
 30
0.0
 10
7.1207942961
 20
4.5693581758
 30
0.0
 10
7.1188185761
 20
4.5689416094
 30
0.0
 10
7.1144323639
 20
4.5680534047
 30
0.0
 10
7.1072845268
 20
4.56672318
 30
0.0
 10
7.0976257085
 20
4.5651554456
 30
0.0
 10
7.0858223574
 20
4.5635956961
 30
0.0
 10
7.0723228276
 20
4.5622858976
 30
0.0
 10
7.0575990466
 20
4.561422399
 30
0.0
 10
7.0421096669
 20
4.5611344335
 30
0.0
 10
7.0263906784
 20
4.561475309
 30
0.0
 10
7.0110873303
 20
4.5624005326
 30
0.0
 10
6.9969431071
 20
4.5637571423
 30
0.0
 10
6.9846135315
 20
4.5653171575
 30
0.0
 10
6.9745757956
 20
4.5668363226
 30
0.0
 10
6.9671176788
 20
4.5681051001
 30
0.0
 10
6.9624766912
 20
4.5689538517
 30
0.0
 10
6.9603411254
 20
4.5693584212
 30
0.0
 10
6.9597884392
 20
4.5694640576
 30
0.0
 11
7.1212915233
 21
4.5694640576
 31
0.0
 11
7.1197992044
 21
4.5691494146
 31
0.0
 11
7.1153570298
 21
4.5682499252
 31
0.0
 11
7.1081134312
 21
4.5669020378
 31
0.0
 11
7.0983313957
 21
4.5653145274
 31
0.0
 11
7.0863612035
 21
4.5637327524
 31
0.0
 11
7.0726981057
 21
4.5624064611
 31
0.0
 11
7.057845739
 21
4.5615337506
 31
0.0
 11
7.0422180384
 21
4.5612402975
 31
0.0
 11
7.0262666952
 21
4.5615821958
 31
0.0
 11
7.010724835
 21
4.562517439
 31
0.0
 11
6.9963323674
 21
4.5638939662
 31
0.0
 11
6.9838401523
 21
4.5654718435
 31
0.0
 11
6.9737257858
 21
4.5670011116
 31
0.0
 11
6.9662007636
 21
4.5682806438
 31
0.0
 11
6.9614470142
 21
4.5691498578
 31
0.0
 11
6.9597884392
 21
4.5694640576
 31
0.0
  0
SPLINE
  5
459
100
AcDbEntity
  8
0
100
AcDbSpline
 62
7
  6
CONTINUOUS
 70
0
 71
3
 72
13
 73
9
 74
7
 42
0.0000001
 43
0.0000001
 44
0.0000000001
 12
0.051869248
 22
-0.0443607939
 32
0.0
 13
0.0681764207
 23
-0.0024347736
 33
0.0
 40
0.0
 40
0.0
 40
0.0
 40
0.0
 40
0.1035712623
 40
0.2707817535
 40
0.4692764007
 40
0.686927768
 40
0.9157176106
 40
1.0
 40
1.0
 40
1.0
 40
1.0
 10
7.0346107279
 20
4.0792706886
 30
0.0
 10
7.0364014491
 20
4.0777391875
 30
0.0
 10
7.0413207588
 20
4.0740131567
 30
0.0
 10
7.0506459495
 20
4.0687536023
 30
0.0
 10
7.0630511595
 20
4.0639524252
 30
0.0
 10
7.077320889
 20
4.0604468068
 30
0.0
 10
7.0893088915
 20
4.0589057255
 30
0.0
 10
7.0964186874
 20
4.0585104186
 30
0.0
 10
7.0983340446
 20
4.0584420158
 30
0.0
 11
7.0346107279
 21
4.0792706886
 31
0.0
 11
7.0402321389
 21
4.0749899661
 31
0.0
 11
7.0501308497
 21
4.0693318709
 31
0.0
 11
7.0627252662
 21
4.064374684
 31
0.0
 11
7.0771234878
 21
4.0607760095
 31
0.0
 11
7.0925933834
 21
4.0587604956
 31
0.0
 11
7.0983340446
 21
4.0584420158
 31
0.0
  0
SPLINE
  5
45A
100
AcDbEntity
  8
0
100
AcDbSpline
 62
7
  6
CONTINUOUS
 70
0
 71
3
 72
23
 73
19
 74
17
 42
0.0000001
 43
0.0000001
 44
0.0000000001
 12
0.1597118055
 22
0.0305261583
 32
0.0
 13
0.1590370654
 23
-0.0338660506
 33
0.0
 40
0.0
 40
0.0
 40
0.0
 40
0.0
 40
0.0103078188
 40
0.0398605896
 40
0.0866530018
 40
0.1495177343
 40
0.2269957195
 40
0.3159616576
 40
0.4117170113
 40
0.5098114194
 40
0.6059263052
 40
0.6974885575
 40
0.7820134517
 40
0.8563538803
 40
0.9173504987
 40
0.9627021796
 40
0.9906025425
 40
1.0
 40
1.0
 40
1.0
 40
1.0
 10
6.9597884392
 20
3.8214640576
 30
0.0
 10
6.9603371993
 20
3.8215689436
 30
0.0
 10
6.9624599269
 20
3.8219711065
 30
0.0
 10
6.9670800074
 20
3.8228162733
 30
0.0
 10
6.9745186131
 20
3.8240825223
 30
0.0
 10
6.9845478636
 20
3.8256018455
 30
0.0
 10
6.9968796356
 20
3.827163992
 30
0.0
 10
7.0110285846
 20
3.8285230313
 30
0.0
 10
7.0263329899
 20
3.8294503942
 30
0.0
 10
7.0420498198
 20
3.8297935237
 30
0.0
 10
7.0575405313
 20
3.8295080072
 30
0.0
 10
7.072272806
 20
3.8286462613
 30
0.0
 10
7.0857860114
 20
3.8273367439
 30
0.0
 10
7.0976022549
 20
3.82577622
 30
0.0
 10
7.1072704708
 20
3.8242074328
 30
0.0
 10
7.1144245574
 20
3.8228762514
 30
0.0
 10
7.1188152454
 20
3.821987202
 30
0.0
 10
7.120793342
 20
3.8215701425
 30
0.0
 10
7.1212915233
 20
3.8214640576
 30
0.0
 11
6.9597884392
 21
3.8214640576
 31
0.0
 11
6.9614352288
 21
3.8217760446
 31
0.0
 11
6.9661621843
 21
3.8226406055
 31
0.0
 11
6.9736629757
 21
3.8239168189
 31
0.0
 11
6.9837698795
 21
3.825446414
 31
0.0
 11
6.996268491
 21
3.8270269742
 31
0.0
 11
7.010668716
 21
3.8284062493
 31
0.0
 11
7.0262105834
 21
3.8293435984
 31
0.0
 11
7.0421573159
 21
3.8296877317
 31
0.0
 11
7.0577831769
 21
3.8293968055
 31
0.0
 11
7.072645971
 21
3.8285257472
 31
0.0
 11
7.0863258293
 21
3.827199453
 31
0.0
 11
7.0983097524
 21
3.8256168051
 31
0.0
 11
7.1080999752
 21
3.8240284445
 31
0.0
 11
7.1153498845
 21
3.8226795921
 31
0.0
 11
7.1197963395
 21
3.8217792986
 31
0.0
 11
7.1212915233
 21
3.8214640576
 31
0.0
  0
SPLINE
  5
45B
100
AcDbEntity
  8
0
100
AcDbSpline
 62
7
  6
CONTINUOUS
 70
0
 71
3
 72
21
 73
17
 74
15
 42
0.0000001
 43
0.0000001
 44
0.0000000001
 12
0.0
 22
0.2000196149
 32
0.0
 13
0.0948087467
 23
-0.1766562055
 33
0.0
 40
0.0
 40
0.0
 40
0.0
 40
0.0
 40
0.0728361158
 40
0.1434954434
 40
0.2140008092
 40
0.2884046989
 40
0.3682558746
 40
0.450670021
 40
0.5339500518
 40
0.6157981788
 40
0.6960823884
 40
0.7739576737
 40
0.8495445936
 40
0.9212542083
 40
0.9911310943
 40
1.0
 40
1.0
 40
1.0
 40
1.0
 10
6.9597884392
 20
4.3824640576
 30
0.0
 10
6.9597884392
 20
4.3873202749
 30
0.0
 10
6.9611180289
 20
4.3969466884
 30
0.0
 10
6.9669567465
 20
4.4101443877
 30
0.0
 10
6.9759584845
 20
4.4215210013
 30
0.0
 10
6.9877033549
 20
4.4310006159
 30
0.0
 10
7.0017563455
 20
4.4383735994
 30
0.0
 10
7.017413819
 20
4.4433976918
 30
0.0
 10
7.0337837852
 20
4.445948467
 30
0.0
 10
7.0502049954
 20
4.446054603
 30
0.0
 10
7.0661058493
 20
4.4437570206
 30
0.0
 10
7.0810423438
 20
4.4390527777
 30
0.0
 10
7.0943939673
 20
4.4319816292
 30
0.0
 10
7.1056162635
 20
4.4226524918
 30
0.0
 10
7.1117273473
 20
4.4145757566
 30
0.0
 10
7.1142888422
 20
4.4099781872
 30
0.0
 10
7.1145691255
 20
4.4094559381
 30
0.0
 11
6.9597884392
 21
4.3824640576
 31
0.0
 11
6.9618043293
 21
4.3968925642
 31
0.0
 11
6.9674728838
 21
4.4098392351
 31
0.0
 11
6.9761557796
 21
4.4209516871
 31
0.0
 11
6.9876743431
 21
4.4303752577
 31
0.0
 11
7.0017765841
 21
4.4378736067
 31
0.0
 11
7.0174555035
 21
4.4429636402
 31
0.0
 11
7.0339113533
 21
4.4455485904
 31
0.0
 11
7.0502823184
 21
4.4456418666
 31
0.0
 11
7.0661696312
 21
4.4433039105
 31
0.0
 11
7.0810065837
 21
4.438561039
 31
0.0
 11
7.0943282708
 21
4.4314117189
 31
0.0
 11
7.1053093862
 21
4.4221842487
 31
0.0
 11
7.1137037755
 21
4.4110091107
 31
0.0
 11
7.1145691255
 21
4.4094559381
 31
0.0
  0
SPLINE
  5
45C
100
AcDbEntity
  8
0
100
AcDbSpline
 62
7
  6
CONTINUOUS
 70
0
 71
3
 72
10
 73
6
 74
4
 42
0.0000001
 43
0.0000001
 44
0.0000000001
 12
0.0
 22
0.0295077086
 32
0.0
 13
0.0139597359
 23
0.0260477519
 33
0.0
 40
0.0
 40
0.0
 40
0.0
 40
0.0
 40
0.4569607317
 40
0.9218110346
 40
1.0
 40
1.0
 40
1.0
 40
1.0
 10
6.9597884392
 20
4.0084640576
 30
0.0
 10
6.9597884392
 20
4.012958679
 30
0.0
 10
6.9609450771
 20
4.0220577603
 30
0.0
 10
6.964407311
 20
4.0313419403
 30
0.0
 10
6.966855374
 20
4.0360992859
 30
0.0
 10
6.9672192065
 20
4.0367781682
 30
0.0
 11
6.9597884392
 21
4.0084640576
 31
0.0
 11
6.9614352288
 21
4.0218469824
 31
0.0
 11
6.9661621843
 21
4.0347234281
 31
0.0
 11
6.9672192065
 21
4.0367781682
 31
0.0
  0
SPLINE
  5
45D
100
AcDbEntity
  8
0
100
AcDbSpline
 62
7
  6
CONTINUOUS
 70
0
 71
3
 72
10
 73
6
 74
4
 42
0.0000001
 43
0.0000001
 44
0.0000000001
 12
-0.0139608631
 22
0.026048506
 32
0.0
 13
0.0
 23
0.0295087716
 33
0.0
 40
0.0
 40
0.0
 40
0.0
 40
0.0
 40
0.0752880388
 40
0.5413954749
 40
1.0
 40
1.0
 40
1.0
 40
1.0
 10
6.9672199023
 20
4.3541486463
 30
0.0
 10
6.9668695403
 20
4.35480236
 30
0.0
 10
6.9644257634
 20
4.3595438919
 30
0.0
 10
6.96095309
 20
4.3688248571
 30
0.0
 10
6.9597884392
 20
4.3779531055
 30
0.0
 10
6.9597884392
 20
4.3824640576
 30
0.0
 11
6.9672199023
 21
4.3541486463
 31
0.0
 11
6.9662007636
 21
4.3561265781
 31
0.0
 11
6.9614470142
 21
4.3690332227
 31
0.0
 11
6.9597884392
 21
4.3824640576
 31
0.0
  0
SPLINE
  5
45E
100
AcDbEntity
  8
0
100
AcDbSpline
 62
7
  6
CONTINUOUS
 70
0
 71
3
 72
21
 73
17
 74
15
 42
0.0000001
 43
0.0000001
 44
0.0000000001
 12
-0.094807709
 22
-0.1766565021
 32
0.0
 13
0.0
 23
0.2000198072
 33
0.0
 40
0.0
 40
0.0
 40
0.0
 40
0.0
 40
0.0087617283
 40
0.0785935384
 40
0.1503045605
 40
0.2258318263
 40
0.3036419995
 40
0.3839313016
 40
0.4658598131
 40
0.5492386975
 40
0.6316786518
 40
0.7114638826
 40
0.7857823718
 40
0.8563153359
 40
0.9270665918
 40
1.0
 40
1.0
 40
1.0
 40
1.0
 10
7.1145692872
 20
3.9814724712
 30
0.0
 10
7.114292394
 20
3.9809565325
 30
0.0
 10
7.1117367532
 20
3.9763673718
 30
0.0
 10
7.1056355186
 20
3.9682960477
 30
0.0
 10
7.0944228064
 20
3.958966054
 30
0.0
 10
7.0810819294
 20
3.9518924767
 30
0.0
 10
7.0661556639
 20
3.9471825815
 30
0.0
 10
7.0502546041
 20
3.9448763924
 30
0.0
 10
7.0338208721
 20
3.9449757718
 30
0.0
 10
7.0174365236
 20
3.9475244281
 30
0.0
 10
7.0017744558
 20
3.9525472476
 30
0.0
 10
6.9877274255
 20
3.959913126
 30
0.0
 10
6.9759847878
 20
3.9693816781
 30
0.0
 10
6.9669738042
 20
3.9807538841
 30
0.0
 10
6.961121651
 20
3.9939620693
 30
0.0
 10
6.9597884392
 20
4.0036013488
 30
0.0
 10
6.9597884392
 20
4.0084640576
 30
0.0
 11
7.1145692872
 21
3.9814724712
 31
0.0
 11
7.1137146928
 21
3.9799379014
 31
0.0
 11
7.1053306776
 21
3.9687662321
 31
0.0
 11
7.0943536139
 21
3.9595334836
 31
0.0
 11
7.0810457858
 21
3.9523835448
 31
0.0
 11
7.0662237803
 21
3.9476366463
 31
0.0
 11
7.0503366984
 21
3.9452900344
 31
0.0
 11
7.0339496013
 21
3.9453764694
 31
0.0
 11
7.0174735291
 21
3.9479601995
 31
0.0
 11
7.0017888755
 21
3.9530493383
 31
0.0
 11
6.9876965089
 21
3.9605381942
 31
0.0
 11
6.9761864915
 21
3.9699452541
 31
0.0
 11
6.9674926444
 21
3.9810561677
 31
0.0
 11
6.9618097487
 21
3.9940166448
 31
0.0
 11
6.9597884392
 21
4.0084640576
 31
0.0
  0
SPLINE
  5
45F
100
AcDbEntity
  8
127-413_FEATURES
100
AcDbSpline
 62
7
  6
CONTINUOUS
 70
0
 71
3
 72
13
 73
9
 74
7
 42
0.0000001
 43
0.0000001
 44
0.0000000001
 12
-0.0194557267
 22
0.0000591281
 32
0.0
 13
0.0
 23
0.0194599081
 33
0.0
 40
0.0
 40
0.0
 40
0.0
 40
0.0
 40
0.072018982
 40
0.1738920315
 40
0.3133038366
 40
0.4969627606
 40
0.7259018861
 40
1.0
 40
1.0
 40
1.0
 40
1.0
 10
5.7479136276
 20
4.1779641977
 30
0.0
 10
5.7474465671
 20
4.1779656171
 30
0.0
 10
5.7463186685
 20
4.1784133412
 30
0.0
 10
5.7450259999
 20
4.1800361354
 30
0.0
 10
5.7438599176
 20
4.1825460094
 30
0.0
 10
5.7429013657
 20
4.1860101656
 30
0.0
 10
5.7422241511
 20
4.1904197088
 30
0.0
 10
5.742063292
 20
4.1936860829
 30
0.0
 10
5.742063292
 20
4.1954640576
 30
0.0
 11
5.7479136276
 21
4.1779641977
 31
0.0
 11
5.7465827086
 21
4.1784141722
 31
0.0
 11
5.7452403177
 21
4.1798729578
 31
0.0
 11
5.7440419525
 21
4.1823068784
 31
0.0
 11
5.7430413307
 21
4.1857379322
 31
0.0
 11
5.7423381227
 21
4.1901372185
 31
0.0
 11
5.742063292
 21
4.1954640576
 31
0.0
  0
SPLINE
  5
460
100
AcDbEntity
  8
127-413_FEATURES
100
AcDbSpline
 62
7
  6
CONTINUOUS
 70
0
 71
3
 72
12
 73
8
 74
6
 42
0.0000001
 43
0.0000001
 44
0.0000000001
 12
0.0
 22
0.0194173115
 32
0.0
 13
0.0193577879
 23
0.0000871448
 33
0.0
 40
0.0
 40
0.0
 40
0.0
 40
0.0
 40
0.2764385743
 40
0.5275879476
 40
0.7351097451
 40
0.8916572231
 40
1.0
 40
1.0
 40
1.0
 40
1.0
 10
5.742063292
 20
4.1954640576
 30
0.0
 10
5.742063292
 20
4.1972532889
 30
0.0
 10
5.7422366209
 20
4.2006700987
 30
0.0
 10
5.7429692211
 20
4.2053834161
 30
0.0
 10
5.7441667936
 20
4.2092013648
 30
0.0
 10
5.7455787274
 20
4.2119300993
 30
0.0
 10
5.7472126316
 20
4.212960753
 30
0.0
 10
5.7479117237
 20
4.2129639002
 30
0.0
 11
5.742063292
 21
4.1954640576
 31
0.0
 11
5.7423416934
 21
4.2008245268
 31
0.0
 11
5.743143342
 21
4.2056348316
 31
0.0
 11
5.7443892992
 21
4.2094668787
 31
0.0
 11
5.7460169572
 21
4.2120341136
 31
0.0
 11
5.7479117237
 21
4.2129639002
 31
0.0
  0
SPLINE
  5
461
100
AcDbEntity
  8
0
100
AcDbSpline
 62
7
  6
CONTINUOUS
 70
0
 71
3
 72
14
 73
10
 74
8
 42
0.0000001
 43
0.0000001
 44
0.0000000001
 12
-0.1524912644
 22
0.5724510643
 32
0.0
 13
0.1524912644
 23
0.5724510643
 33
0.0
 40
0.0
 40
0.0
 40
0.0
 40
0.0
 40
0.1483734886
 40
0.2906183378
 40
0.4304255817
 40
0.5696820058
 40
0.7094806994
 40
0.8516660081
 40
1.0
 40
1.0
 40
1.0
 40
1.0
 10
4.7111506525
 20
3.9029434387
 30
0.0
 10
4.7036087656
 20
3.9312556258
 30
0.0
 10
4.6904056463
 20
3.9871509687
 30
0.0
 10
4.6766023571
 20
4.071094825
 30
0.0
 10
4.6695710789
 20
4.1540881315
 30
0.0
 10
4.6695738199
 20
4.2369020945
 30
0.0
 10
4.6766089987
 20
4.3198815394
 30
0.0
 10
4.6904117393
 20
4.4038038519
 30
0.0
 10
4.7036107732
 20
4.459680026
 30
0.0
 10
4.7111506525
 20
4.4879846765
 30
0.0
 11
4.7111506525
 21
3.9029434387
 31
0.0
 11
4.6911394179
 21
3.9885336863
 31
0.0
 11
4.6776274871
 21
4.0717111211
 31
0.0
 11
4.6707312788
 21
4.1542472247
 31
0.0
 11
4.6707339697
 21
4.2367446163
 31
0.0
 11
4.6776347167
 21
4.3192752575
 31
0.0
 11
4.6911439948
 21
4.4024173882
 31
0.0
 11
4.7111506525
 21
4.4879846765
 31
0.0
  0
SPLINE
  5
462
100
AcDbEntity
  8
0
100
AcDbSpline
 62
7
  6
CONTINUOUS
 70
0
 71
3
 72
14
 73
10
 74
8
 42
0.0000001
 43
0.0000001
 44
0.0000000001
 12
0.1524912644
 22
0.5724510643
 32
0.0
 13
-0.1524912644
 23
0.5724510643
 33
0.0
 40
0.0
 40
0.0
 40
0.0
 40
0.0
 40
0.1483734886
 40
0.2906183378
 40
0.4304255817
 40
0.5696820058
 40
0.7094806994
 40
0.8516660081
 40
1.0
 40
1.0
 40
1.0
 40
1.0
 10
5.2981143554
 20
3.9029434387
 30
0.0
 10
5.3056562424
 20
3.9312556258
 30
0.0
 10
5.3188593617
 20
3.9871509687
 30
0.0
 10
5.3326626509
 20
4.071094825
 30
0.0
 10
5.3396939291
 20
4.1540881315
 30
0.0
 10
5.3396911881
 20
4.2369020945
 30
0.0
 10
5.3326560093
 20
4.3198815394
 30
0.0
 10
5.3188532687
 20
4.4038038519
 30
0.0
 10
5.3056542348
 20
4.459680026
 30
0.0
 10
5.2981143554
 20
4.4879846765
 30
0.0
 11
5.2981143554
 21
3.9029434387
 31
0.0
 11
5.3181255901
 21
3.9885336863
 31
0.0
 11
5.3316375209
 21
4.0717111211
 31
0.0
 11
5.3385337292
 21
4.1542472247
 31
0.0
 11
5.3385310383
 21
4.2367446163
 31
0.0
 11
5.3316302913
 21
4.3192752575
 31
0.0
 11
5.3181210132
 21
4.4024173882
 31
0.0
 11
5.2981143554
 21
4.4879846765
 31
0.0
  0
SPLINE
  5
463
100
AcDbEntity
  8
0
100
AcDbSpline
 62
7
  6
CONTINUOUS
 70
0
 71
3
 72
14
 73
10
 74
8
 42
0.0000001
 43
0.0000001
 44
0.0000000001
 12
-0.1442757118
 22
0.2708049707
 32
0.0
 13
0.1442757118
 23
0.2708049707
 33
0.0
 40
0.0
 40
0.0
 40
0.0
 40
0.0
 40
0.1539652166
 40
0.2964780264
 40
0.4328366592
 40
0.567267274
 40
0.7036195666
 40
0.846074992
 40
1.0
 40
1.0
 40
1.0
 40
1.0
 10
4.7111506525
 20
4.5363287481
 30
0.0
 10
4.7037461721
 20
4.5502269301
 30
0.0
 10
4.690707043
 20
4.57768127
 30
0.0
 10
4.6767380913
 20
4.6198310531
 30
0.0
 10
4.6695740066
 20
4.6616802564
 30
0.0
 10
4.6695768093
 20
4.7035292199
 30
0.0
 10
4.6767447827
 20
4.7453710574
 30
0.0
 10
4.6907129622
 20
4.7875096942
 30
0.0
 10
4.7037481058
 20
4.8149548146
 30
0.0
 10
4.7111506525
 20
4.8288493671
 30
0.0
 11
4.7111506525
 21
4.5363287481
 31
0.0
 11
4.6911394179
 21
4.5791238719
 31
0.0
 11
4.6776274871
 21
4.6207125894
 31
0.0
 11
4.6707312788
 21
4.6619806411
 31
0.0
 11
4.6707339697
 21
4.7032293369
 31
0.0
 11
4.6776347167
 21
4.7444946576
 31
0.0
 11
4.6911439948
 21
4.7860657229
 31
0.0
 11
4.7111506525
 21
4.8288493671
 31
0.0
  0
SPLINE
  5
464
100
AcDbEntity
  8
0
100
AcDbSpline
 62
7
  6
CONTINUOUS
 70
0
 71
3
 72
14
 73
10
 74
8
 42
0.0000001
 43
0.0000001
 44
0.0000000001
 12
0.1442757118
 22
0.2708049707
 32
0.0
 13
-0.1442757118
 23
0.2708049707
 33
0.0
 40
0.0
 40
0.0
 40
0.0
 40
0.0
 40
0.1539652166
 40
0.2964780264
 40
0.4328366592
 40
0.567267274
 40
0.7036195666
 40
0.846074992
 40
1.0
 40
1.0
 40
1.0
 40
1.0
 10
5.2981143554
 20
4.5363287481
 30
0.0
 10
5.3055188358
 20
4.5502269301
 30
0.0
 10
5.318557965
 20
4.57768127
 30
0.0
 10
5.3325269167
 20
4.6198310531
 30
0.0
 10
5.3396910013
 20
4.6616802564
 30
0.0
 10
5.3396881987
 20
4.7035292199
 30
0.0
 10
5.3325202253
 20
4.7453710574
 30
0.0
 10
5.3185520458
 20
4.7875096942
 30
0.0
 10
5.3055169021
 20
4.8149548146
 30
0.0
 10
5.2981143554
 20
4.8288493671
 30
0.0
 11
5.2981143554
 21
4.5363287481
 31
0.0
 11
5.3181255901
 21
4.5791238719
 31
0.0
 11
5.3316375209
 21
4.6207125894
 31
0.0
 11
5.3385337292
 21
4.6619806411
 31
0.0
 11
5.3385310383
 21
4.7032293369
 31
0.0
 11
5.3316302913
 21
4.7444946576
 31
0.0
 11
5.3181210132
 21
4.7860657229
 31
0.0
 11
5.2981143554
 21
4.8288493671
 31
0.0
  0
SPLINE
  5
465
100
AcDbEntity
  8
127-413_FEATURES
100
AcDbSpline
 62
7
  6
CONTINUOUS
 70
0
 71
3
 72
13
 73
9
 74
7
 42
0.0000001
 43
0.0000001
 44
0.0000000001
 12
0.0304391004
 22
-0.0002732488
 32
0.0
 13
0.0
 23
-0.0304403268
 33
0.0
 40
0.0
 40
0.0
 40
0.0
 40
0.0
 40
0.1648012937
 40
0.3298981018
 40
0.4924013162
 40
0.6558849057
 40
0.8226839973
 40
1.0
 40
1.0
 40
1.0
 40
1.0
 10
5.7479759167
 20
4.2129630064
 30
0.0
 10
5.749648051
 20
4.2129479958
 30
0.0
 10
5.7530012805
 20
4.2125957483
 30
0.0
 10
5.7578057365
 20
4.211111853
 30
0.0
 10
5.7621957118
 20
4.2086719092
 30
0.0
 10
5.7659198331
 20
4.2052534852
 30
0.0
 10
5.7686403327
 20
4.2007877362
 30
0.0
 10
5.769339472
 20
4.1972632433
 30
0.0
 10
5.769339472
 20
4.1954640576
 30
0.0
 11
5.7479759167
 21
4.2129630064
 31
0.0
 11
5.7529647496
 21
4.2124358687
 31
0.0
 11
5.7577629975
 21
4.2109413855
 31
0.0
 11
5.7620749891
 21
4.2085173218
 31
0.0
 11
5.7657169337
 21
4.2051259016
 31
0.0
 11
5.7683149082
 21
4.2007634813
 31
0.0
 11
5.769339472
 21
4.1954640576
 31
0.0
  0
SPLINE
  5
466
100
AcDbEntity
  8
127-413_FEATURES
100
AcDbSpline
 62
7
  6
CONTINUOUS
 70
0
 71
3
 72
12
 73
8
 74
6
 42
0.0000001
 43
0.0000001
 44
0.0000000001
 12
0.0
 22
-0.0304103865
 32
0.0
 13
-0.0304091613
 23
-0.0002729801
 33
0.0
 40
0.0
 40
0.0
 40
0.0
 40
0.0
 40
0.174931116
 40
0.3587236807
 40
0.5550968062
 40
0.7683694807
 40
1.0
 40
1.0
 40
1.0
 40
1.0
 10
5.769339472
 20
4.1954640576
 30
0.0
 10
5.769339472
 20
4.1936908166
 30
0.0
 10
5.7686233924
 20
4.1900220915
 30
0.0
 10
5.7655812916
 20
4.1851624054
 30
0.0
 10
5.760882628
 20
4.1812627621
 30
0.0
 10
5.7548531313
 20
4.178637346
 30
0.0
 10
5.7503238133
 20
4.1779861857
 30
0.0
 10
5.7479759167
 20
4.1779651088
 30
0.0
 11
5.769339472
 21
4.1954640576
 31
0.0
 11
5.768343869
 21
4.1902383303
 31
0.0
 11
5.7654336623
 21
4.18546655
 31
0.0
 11
5.7608766751
 21
4.1816070092
 31
0.0
 11
5.7549461859
 21
4.178981431
 31
0.0
 11
5.7479759167
 21
4.1779651088
 31
0.0
  0
SPLINE
  5
467
100
AcDbEntity
  8
0
100
AcDbSpline
 62
7
  6
CONTINUOUS
 70
0
 71
3
 72
14
 73
10
 74
8
 42
0.0000001
 43
0.0000001
 44
0.0000000001
 12
-0.1442757118
 22
0.2708049707
 32
0.0
 13
0.1442757118
 23
0.2708049707
 33
0.0
 40
0.0
 40
0.0
 40
0.0
 40
0.0
 40
0.1539652166
 40
0.2964780264
 40
0.4328366592
 40
0.567267274
 40
0.7036195666
 40
0.846074992
 40
1.0
 40
1.0
 40
1.0
 40
1.0
 10
4.7111506525
 20
3.5620787481
 30
0.0
 10
4.7037461721
 20
3.5759769301
 30
0.0
 10
4.690707043
 20
3.60343127
 30
0.0
 10
4.6767380913
 20
3.6455810531
 30
0.0
 10
4.6695740066
 20
3.6874302564
 30
0.0
 10
4.6695768093
 20
3.7292792199
 30
0.0
 10
4.6767447827
 20
3.7711210574
 30
0.0
 10
4.6907129622
 20
3.8132596942
 30
0.0
 10
4.7037481058
 20
3.8407048146
 30
0.0
 10
4.7111506525
 20
3.8545993671
 30
0.0
 11
4.7111506525
 21
3.5620787481
 31
0.0
 11
4.6911394179
 21
3.6048738719
 31
0.0
 11
4.6776274871
 21
3.6464625894
 31
0.0
 11
4.6707312788
 21
3.6877306411
 31
0.0
 11
4.6707339697
 21
3.7289793369
 31
0.0
 11
4.6776347167
 21
3.7702446576
 31
0.0
 11
4.6911439948
 21
3.8118157229
 31
0.0
 11
4.7111506525
 21
3.8545993671
 31
0.0
  0
SPLINE
  5
468
100
AcDbEntity
  8
0
100
AcDbSpline
 62
7
  6
CONTINUOUS
 70
0
 71
3
 72
14
 73
10
 74
8
 42
0.0000001
 43
0.0000001
 44
0.0000000001
 12
0.1442757118
 22
0.2708049707
 32
0.0
 13
-0.1442757118
 23
0.2708049707
 33
0.0
 40
0.0
 40
0.0
 40
0.0
 40
0.0
 40
0.1539652166
 40
0.2964780264
 40
0.4328366592
 40
0.567267274
 40
0.7036195666
 40
0.846074992
 40
1.0
 40
1.0
 40
1.0
 40
1.0
 10
5.2981143554
 20
3.5620787481
 30
0.0
 10
5.3055188358
 20
3.5759769301
 30
0.0
 10
5.318557965
 20
3.60343127
 30
0.0
 10
5.3325269167
 20
3.6455810531
 30
0.0
 10
5.3396910013
 20
3.6874302564
 30
0.0
 10
5.3396881987
 20
3.7292792199
 30
0.0
 10
5.3325202253
 20
3.7711210574
 30
0.0
 10
5.3185520458
 20
3.8132596942
 30
0.0
 10
5.3055169021
 20
3.8407048146
 30
0.0
 10
5.2981143554
 20
3.8545993671
 30
0.0
 11
5.2981143554
 21
3.5620787481
 31
0.0
 11
5.3181255901
 21
3.6048738719
 31
0.0
 11
5.3316375209
 21
3.6464625894
 31
0.0
 11
5.3385337292
 21
3.6877306411
 31
0.0
 11
5.3385310383
 21
3.7289793369
 31
0.0
 11
5.3316302913
 21
3.7702446576
 31
0.0
 11
5.3181210132
 21
3.8118157229
 31
0.0
 11
5.2981143554
 21
3.8545993671
 31
0.0
  0
ENDSEC
  0
SECTION
  2
OBJECTS
  0
DICTIONARY
  5
C
100
AcDbDictionary
280
0
281
1
  3
ACAD_GROUP
350
D
  3
ACAD_MLINESTYLE
350
17
  3
ACAD_LAYOUT
350
1A
  3
ACAD_PLOTSETTINGS
350
19
  3
ACAD_PLOTSTYLENAME
350
E
  0
DICTIONARY
  5
D
102
{ACAD_REACTORS
330
C
102
}
100
AcDbDictionary
280
0
281
1
  0
ACDBDICTIONARYWDFLT
  5
E
102
{ACAD_REACTORS
330
C
102
}
100
AcDbDictionary
281
1
  3
Normal
350
F
100
AcDbDictionaryWithDefault
340
F
  0
DICTIONARY
  5
17
102
{ACAD_REACTORS
330
C
102
}
100
AcDbDictionary
280
0
281
1
  3
Standard
350
18
  0
DICTIONARY
  5
19
102
{ACAD_REACTORS
330
C
102
}
100
AcDbDictionary
281
1
  0
DICTIONARY
  5
1A
102
{ACAD_REACTORS
330
C
102
}
100
AcDbDictionary
281
1
  3
Layout1
350
1E
  3
Model
350
22
  0
ACDBPLACEHOLDER
  5
F
102
{ACAD_REACTORS
330
E
102
}
  0
MLINESTYLE
  5
18
102
{ACAD_REACTORS
330
17
102
}
100
AcDbMlineStyle
  2
STANDARD
 70
0
  3

 62
256
 51
90.0
 52
90.0
 71
2
 49
0.5
 62
256
  6
BYLAYER
 49
-0.5
 62
256
  6
BYLAYER
  0
LAYOUT
  5
1E
102
{ACAD_REACTORS
330
1A
102
}
100
AcDbPlotSettings
  1

  2

  4

  6

 40
0.0
 41
0.0
 42
0.0
 43
0.0
 44
0.0
 45
0.0
 46
0.0
 47
0.0
 48
0.0
 49
0.0
140
0.0
141
0.0
142
1.0
143
1.0
 70
0
 72
0
 73
0
 74
0
  7

 75
0
147
1.0
148
0.0
149
0.0
100
AcDbLayout
  1
Layout1
 70
0
 71
0
 10
0.0
 20
0.0
 11
0.0
 21
0.0
 12
0.0
 22
0.0
 32
0.0
 14
0.0
 24
0.0
 34
0.0
 15
0.0
 25
0.0
 35
0.0
146
0.0
 13
0.0
 23
0.0
 33
0.0
 16
0.0
 26
0.0
 36
0.0
 17
0.0
 27
0.0
 37
0.0
 76
0
330
1B
331
0
345
0
346
0
  0
LAYOUT
  5
22
102
{ACAD_REACTORS
330
1A
102
}
100
AcDbPlotSettings
  1

  2

  4

  6

 40
0.0
 41
0.0
 42
0.0
 43
0.0
 44
0.0
 45
0.0
 46
0.0
 47
0.0
 48
0.0
 49
0.0
140
0.0
141
0.0
142
1.0
143
1.0
 70
0
 72
0
 73
0
 74
0
  7

 75
0
147
1.0
148
0.0
149
0.0
100
AcDbLayout
  1
Model
 70
0
 71
0
 10
0.0
 20
0.0
 11
0.0
 21
0.0
 12
0.0
 22
0.0
 32
0.0
 14
0.0
 24
0.0
 34
0.0
 15
0.0
 25
0.0
 35
0.0
146
0.0
 13
0.0
 23
0.0
 33
0.0
 16
0.0
 26
0.0
 36
0.0
 17
0.0
 27
0.0
 37
0.0
 76
0
330
1F
331
0
345
0
346
0
  0
ENDSEC
  0
EOF
