999
DXF file: CBEW-LJN.dxf
999
Pro/ENGINEER 2006240 by Parametric Technology Corporation
  0
SECTION
  2
HEADER
  9
$ACADVER
  1
AC1015
  9
$DWGCODEPAGE
  3
ANSI_1252
  9
$EXTMAX
 10
11.6929133858
 20
8.2677165354
 30
0.0
  9
$EXTMIN
 10
0.0
 20
0.0
 30
0.0
  9
$LIMMIN
 10
0.0
 20
0.0
  9
$LIMMAX
 10
11.6929133858
 20
8.2677165354
  9
$VIEWCTR
 10
5.8464566929
 20
4.1338582677
  9
$VIEWSIZE
 40
8.2677165354
  9
$CLAYER
  8
0
  9
$LTSCALE
 40
0.6431102362
  9
$CELTYPE
  6
BYLAYER
  9
$DIMSCALE
 40
1.0
  9
$DIMASZ
 40
0.1875
  9
$DIMEXO
 40
0.0730807087
  9
$DIMDLI
 40
0.4443307087
  9
$DIMEXE
 40
0.2104724409
  9
$DIMCEN
 40
0.1052362205
  9
$DIMLFAC
 40
1.0
  9
$DIMBLK
  1
_CLOSED
  9
$DIMTXT
 40
0.15625
  9
$DIMTOL
 70
0
  9
$DIMLIM
 70
0
  9
$DIMTFAC
 40
1.0
  9
$PDMODE
 70
3
  9
$PDSIZE
 40
0.3125
  9
$HANDSEED
  5
46C
  9
$MEASUREMENT
 70
0
  9
$INSUNITS
 70
1
  0
ENDSEC
  0
SECTION
  2
CLASSES
  0
CLASS
  1
ACDBDICTIONARYWDFLT
  2
AcDbDictionaryWithDefault
  3
AutoCAD 2000
 90
0
280
0
281
0
  0
CLASS
  1
ACDBPLACEHOLDER
  2
AcDbPlaceHolder
  3
AutoCAD 2000
 90
0
280
0
281
0
  0
CLASS
  1
LAYOUT
  2
AcDbLayout
  3
AutoCAD 2000
 90
0
280
0
281
0
  0
ENDSEC
  0
SECTION
  2
TABLES
  0
TABLE
  2
VPORT
  5
8
100
AcDbSymbolTable
 70
2
  0
VPORT
  5
1F4
100
AcDbSymbolTableRecord
100
AcDbViewportTableRecord
  2
*ACTIVE
 70
0
 10
0.0
 20
0.0
 11
1.0
 21
1.0
 12
5.8464566929
 22
4.1338582677
 13
0.0
 23
0.0
 14
1.0
 24
1.0
 15
0.0
 25
0.0
 16
0.0
 26
0.0
 36
1.0
 17
0.0
 27
0.0
 37
0.0
 40
8.2677165354
 41
1.4142857143
 42
50.0
 43
0.0
 44
0.0
 50
0.0
 51
0.0
 71
0
 72
100
 73
1
 74
1
 75
0
 76
0
 77
0
 78
0
  0
ENDTAB
  0
TABLE
  2
LTYPE
  5
5
100
AcDbSymbolTable
 70
6
  0
LTYPE
  5
14
100
AcDbSymbolTableRecord
100
AcDbLinetypeTableRecord
  2
BYBLOCK
 70
0
  3

 72
65
 73
0
 40
0.0
  0
LTYPE
  5
15
100
AcDbSymbolTableRecord
100
AcDbLinetypeTableRecord
  2
BYLAYER
 70
0
  3

 72
65
 73
0
 40
0.0
  0
LTYPE
  5
16
100
AcDbSymbolTableRecord
100
AcDbLinetypeTableRecord
  2
CONTINUOUS
 70
64
  3
Solid line
 72
65
 73
0
 40
0.0
  0
LTYPE
  5
1F5
100
AcDbSymbolTableRecord
100
AcDbLinetypeTableRecord
  2
CENTER
 70
64
  3
____ _ ____ _ ____ _ ____ _ ____ _ ____ _ ____
 72
65
 73
4
 40
0.6
 49
0.375
 74
0
 49
-0.075
 74
0
 49
0.075
 74
0
 49
-0.075
 74
0
  0
LTYPE
  5
1F6
100
AcDbSymbolTableRecord
100
AcDbLinetypeTableRecord
  2
HIDDEN
 70
64
  3
- - - - - - - - - - - - - - - - - - - -
 72
65
 73
2
 40
0.2
 49
0.1
 74
0
 49
-0.1
 74
0
  0
LTYPE
  5
1F7
100
AcDbSymbolTableRecord
100
AcDbLinetypeTableRecord
  2
PHANTOM
 70
64
  3
_____ _ _ _____ _ _ _____ _ _ _____
 72
65
 73
6
 40
0.8
 49
0.45
 74
0
 49
-0.05
 74
0
 49
0.1
 74
0
 49
-0.05
 74
0
 49
0.1
 74
0
 49
-0.05
 74
0
  0
LTYPE
  5
1F8
100
AcDbSymbolTableRecord
100
AcDbLinetypeTableRecord
  2
DOT
 70
64
  3
. . . . . . . . . . . . . . . . . . . .
 72
65
 73
2
 40
0.2
 49
0.1
 74
0
 49
-0.1
 74
0
  0
LTYPE
  5
1F9
100
AcDbSymbolTableRecord
100
AcDbLinetypeTableRecord
  2
DASHED
 70
64
  3
- - - - - - - - - - - - - - - - - - - -
 72
65
 73
2
 40
0.2
 49
0.1
 74
0
 49
-0.1
 74
0
  0
ENDTAB
  0
TABLE
  2
LAYER
  5
2
100
AcDbSymbolTable
 70
36
  0
LAYER
  5
10
100
AcDbSymbolTableRecord
100
AcDbLayerTableRecord
  2
0
 70
0
 62
7
  6
CONTINUOUS
370
-3
390
F
  0
LAYER
  5
1FA
100
AcDbSymbolTableRecord
100
AcDbLayerTableRecord
  2
DEFAULT_1
 70
0
 62
7
  6
CENTER
370
-3
390
F
  0
LAYER
  5
1FB
100
AcDbSymbolTableRecord
100
AcDbLayerTableRecord
  2
DEFAULT_2
 70
0
 62
8
  6
HIDDEN
370
-3
390
F
  0
LAYER
  5
1FC
100
AcDbSymbolTableRecord
100
AcDbLayerTableRecord
  2
DEFAULT_3
 70
0
 62
7
  6
PHANTOM
370
-3
390
F
  0
LAYER
  5
1FD
100
AcDbSymbolTableRecord
100
AcDbLayerTableRecord
  2
_BLACK_HOLE
 70
0
 62
7
  6
CONTINUOUS
370
-3
390
F
  0
LAYER
  5
1FE
100
AcDbSymbolTableRecord
100
AcDbLayerTableRecord
  2
01_ALL_DTM_PLN
 70
0
 62
7
  6
CONTINUOUS
370
-3
390
F
  0
LAYER
  5
1FF
100
AcDbSymbolTableRecord
100
AcDbLayerTableRecord
  2
01__ASM_ALL_DTM_PLN
 70
0
 62
7
  6
CONTINUOUS
370
-3
390
F
  0
LAYER
  5
200
100
AcDbSymbolTableRecord
100
AcDbLayerTableRecord
  2
01__ASM_DEF_DTM_PLN
 70
0
 62
7
  6
CONTINUOUS
370
-3
390
F
  0
LAYER
  5
201
100
AcDbSymbolTableRecord
100
AcDbLayerTableRecord
  2
01___PRT_ALL_DTM_PLN
 70
0
 62
7
  6
CONTINUOUS
370
-3
390
F
  0
LAYER
  5
202
100
AcDbSymbolTableRecord
100
AcDbLayerTableRecord
  2
01___PRT_DEF_DTM_PLN
 70
0
 62
7
  6
CONTINUOUS
370
-3
390
F
  0
LAYER
  5
203
100
AcDbSymbolTableRecord
100
AcDbLayerTableRecord
  2
02_ALL_AXES
 70
0
 62
7
  6
CONTINUOUS
370
-3
390
F
  0
LAYER
  5
204
100
AcDbSymbolTableRecord
100
AcDbLayerTableRecord
  2
02__ASM_ALL_AXES
 70
0
 62
7
  6
CONTINUOUS
370
-3
390
F
  0
LAYER
  5
205
100
AcDbSymbolTableRecord
100
AcDbLayerTableRecord
  2
02___PRT_ALL_AXES
 70
0
 62
7
  6
CONTINUOUS
370
-3
390
F
  0
LAYER
  5
206
100
AcDbSymbolTableRecord
100
AcDbLayerTableRecord
  2
03_ALL_CURVES
 70
0
 62
7
  6
CONTINUOUS
370
-3
390
F
  0
LAYER
  5
207
100
AcDbSymbolTableRecord
100
AcDbLayerTableRecord
  2
03__ASM_ALL_CURVES
 70
0
 62
7
  6
CONTINUOUS
370
-3
390
F
  0
LAYER
  5
208
100
AcDbSymbolTableRecord
100
AcDbLayerTableRecord
  2
03___PRT_ALL_CURVES
 70
0
 62
7
  6
CONTINUOUS
370
-3
390
F
  0
LAYER
  5
209
100
AcDbSymbolTableRecord
100
AcDbLayerTableRecord
  2
04_ALL_DTM_PNT
 70
0
 62
7
  6
CONTINUOUS
370
-3
390
F
  0
LAYER
  5
20A
100
AcDbSymbolTableRecord
100
AcDbLayerTableRecord
  2
04__ASM_ALL_DTM_PNT
 70
0
 62
7
  6
CONTINUOUS
370
-3
390
F
  0
LAYER
  5
20B
100
AcDbSymbolTableRecord
100
AcDbLayerTableRecord
  2
04___PRT_ALL_DTM_PNT
 70
0
 62
7
  6
CONTINUOUS
370
-3
390
F
  0
LAYER
  5
20C
100
AcDbSymbolTableRecord
100
AcDbLayerTableRecord
  2
05_ALL_DTM_CSYS
 70
0
 62
7
  6
CONTINUOUS
370
-3
390
F
  0
LAYER
  5
20D
100
AcDbSymbolTableRecord
100
AcDbLayerTableRecord
  2
05__ASM_ALL_DTM_CSYS
 70
0
 62
7
  6
CONTINUOUS
370
-3
390
F
  0
LAYER
  5
20E
100
AcDbSymbolTableRecord
100
AcDbLayerTableRecord
  2
05__ASM_DEF_DTM_CSYS
 70
0
 62
7
  6
CONTINUOUS
370
-3
390
F
  0
LAYER
  5
20F
100
AcDbSymbolTableRecord
100
AcDbLayerTableRecord
  2
05___PRT_ALL_DTM_CSYS
 70
0
 62
7
  6
CONTINUOUS
370
-3
390
F
  0
LAYER
  5
210
100
AcDbSymbolTableRecord
100
AcDbLayerTableRecord
  2
05___PRT_DEF_DTM_CSYS
 70
0
 62
7
  6
CONTINUOUS
370
-3
390
F
  0
LAYER
  5
211
100
AcDbSymbolTableRecord
100
AcDbLayerTableRecord
  2
06_ALL_SURFS
 70
0
 62
7
  6
CONTINUOUS
370
-3
390
F
  0
LAYER
  5
212
100
AcDbSymbolTableRecord
100
AcDbLayerTableRecord
  2
06__ASM_ALL_SURFS
 70
0
 62
7
  6
CONTINUOUS
370
-3
390
F
  0
LAYER
  5
213
100
AcDbSymbolTableRecord
100
AcDbLayerTableRecord
  2
06___PRT_ALL_SURFS
 70
0
 62
7
  6
CONTINUOUS
370
-3
390
F
  0
LAYER
  5
214
100
AcDbSymbolTableRecord
100
AcDbLayerTableRecord
  2
07__ASM_ALL_SKELETONS
 70
0
 62
7
  6
CONTINUOUS
370
-3
390
F
  0
LAYER
  5
215
100
AcDbSymbolTableRecord
100
AcDbLayerTableRecord
  2
127-001_FEATURES
 70
0
 62
7
  6
CONTINUOUS
370
-3
390
F
  0
LAYER
  5
216
100
AcDbSymbolTableRecord
100
AcDbLayerTableRecord
  2
127-001_REF_GEOMETRY
 70
0
 62
7
  6
CONTINUOUS
370
-3
390
F
  0
LAYER
  5
217
100
AcDbSymbolTableRecord
100
AcDbLayerTableRecord
  2
127-004_FEATURES
 70
0
 62
7
  6
CONTINUOUS
370
-3
390
F
  0
LAYER
  5
218
100
AcDbSymbolTableRecord
100
AcDbLayerTableRecord
  2
127-004_REF_GEOMETRY
 70
0
 62
7
  6
CONTINUOUS
370
-3
390
F
  0
LAYER
  5
219
100
AcDbSymbolTableRecord
100
AcDbLayerTableRecord
  2
127-008_FEATURES
 70
0
 62
7
  6
CONTINUOUS
370
-3
390
F
  0
LAYER
  5
21A
100
AcDbSymbolTableRecord
100
AcDbLayerTableRecord
  2
127-008_REF_GEOMETRY
 70
0
 62
7
  6
CONTINUOUS
370
-3
390
F
  0
LAYER
  5
21B
100
AcDbSymbolTableRecord
100
AcDbLayerTableRecord
  2
127-410_FEATURES
 70
0
 62
7
  6
CONTINUOUS
370
-3
390
F
  0
LAYER
  5
21C
100
AcDbSymbolTableRecord
100
AcDbLayerTableRecord
  2
127-410_REF_GEOMETRY
 70
0
 62
7
  6
CONTINUOUS
370
-3
390
F
  0
LAYER
  5
21D
100
AcDbSymbolTableRecord
100
AcDbLayerTableRecord
  2
127-411_FEATURES
 70
0
 62
7
  6
CONTINUOUS
370
-3
390
F
  0
LAYER
  5
21E
100
AcDbSymbolTableRecord
100
AcDbLayerTableRecord
  2
127-411_REF_GEOMETRY
 70
0
 62
7
  6
CONTINUOUS
370
-3
390
F
  0
LAYER
  5
21F
100
AcDbSymbolTableRecord
100
AcDbLayerTableRecord
  2
127-412_FEATURES
 70
0
 62
7
  6
CONTINUOUS
370
-3
390
F
  0
LAYER
  5
220
100
AcDbSymbolTableRecord
100
AcDbLayerTableRecord
  2
127-412_REF_GEOMETRY
 70
0
 62
7
  6
CONTINUOUS
370
-3
390
F
  0
LAYER
  5
221
100
AcDbSymbolTableRecord
100
AcDbLayerTableRecord
  2
127-413_FEATURES
 70
0
 62
7
  6
CONTINUOUS
370
-3
390
F
  0
LAYER
  5
222
100
AcDbSymbolTableRecord
100
AcDbLayerTableRecord
  2
127-413_REF_GEOMETRY
 70
0
 62
7
  6
CONTINUOUS
370
-3
390
F
  0
LAYER
  5
223
100
AcDbSymbolTableRecord
100
AcDbLayerTableRecord
  2
127-414_FEATURES
 70
0
 62
7
  6
CONTINUOUS
370
-3
390
F
  0
LAYER
  5
224
100
AcDbSymbolTableRecord
100
AcDbLayerTableRecord
  2
127-414_REF_GEOMETRY
 70
0
 62
7
  6
CONTINUOUS
370
-3
390
F
  0
LAYER
  5
225
100
AcDbSymbolTableRecord
100
AcDbLayerTableRecord
  2
127-415_FEATURES
 70
0
 62
7
  6
CONTINUOUS
370
-3
390
F
  0
LAYER
  5
226
100
AcDbSymbolTableRecord
100
AcDbLayerTableRecord
  2
127-415_REF_GEOMETRY
 70
0
 62
7
  6
CONTINUOUS
370
-3
390
F
  0
LAYER
  5
227
100
AcDbSymbolTableRecord
100
AcDbLayerTableRecord
  2
127-416_FEATURES
 70
0
 62
7
  6
CONTINUOUS
370
-3
390
F
  0
LAYER
  5
228
100
AcDbSymbolTableRecord
100
AcDbLayerTableRecord
  2
127-416_REF_GEOMETRY
 70
0
 62
7
  6
CONTINUOUS
370
-3
390
F
  0
LAYER
  5
229
100
AcDbSymbolTableRecord
100
AcDbLayerTableRecord
  2
250-NPTF_PORT
 70
0
 62
7
  6
CONTINUOUS
370
-3
390
F
  0
LAYER
  5
22A
100
AcDbSymbolTableRecord
100
AcDbLayerTableRecord
  2
COPY_GEO_FET
 70
0
 62
7
  6
CONTINUOUS
370
-3
390
F
  0
LAYER
  5
22B
100
AcDbSymbolTableRecord
100
AcDbLayerTableRecord
  2
COSMETIC
 70
0
 62
7
  6
CONTINUOUS
370
-3
390
F
  0
LAYER
  5
22C
100
AcDbSymbolTableRecord
100
AcDbLayerTableRecord
  2
CURVES
 70
0
 62
7
  6
CONTINUOUS
370
-3
390
F
  0
LAYER
  5
22D
100
AcDbSymbolTableRecord
100
AcDbLayerTableRecord
  2
CUT_REF_SURF
 70
0
 62
7
  6
CONTINUOUS
370
-3
390
F
  0
LAYER
  5
22E
100
AcDbSymbolTableRecord
100
AcDbLayerTableRecord
  2
DATUM
 70
0
 62
7
  6
CONTINUOUS
370
-3
390
F
  0
LAYER
  5
22F
100
AcDbSymbolTableRecord
100
AcDbLayerTableRecord
  2
DATUMCURVES
 70
0
 62
7
  6
CONTINUOUS
370
-3
390
F
  0
LAYER
  5
230
100
AcDbSymbolTableRecord
100
AcDbLayerTableRecord
  2
DATUM_B
 70
0
 62
7
  6
CONTINUOUS
370
-3
390
F
  0
LAYER
  5
231
100
AcDbSymbolTableRecord
100
AcDbLayerTableRecord
  2
DIMENSIONS
 70
0
 62
7
  6
CONTINUOUS
370
-3
390
F
  0
LAYER
  5
232
100
AcDbSymbolTableRecord
100
AcDbLayerTableRecord
  2
DRAWINGNOTES
 70
0
 62
7
  6
CONTINUOUS
370
-3
390
F
  0
LAYER
  5
233
100
AcDbSymbolTableRecord
100
AcDbLayerTableRecord
  2
DTM
 70
0
 62
7
  6
CONTINUOUS
370
-3
390
F
  0
LAYER
  5
234
100
AcDbSymbolTableRecord
100
AcDbLayerTableRecord
  2
DTM230
 70
0
 62
7
  6
CONTINUOUS
370
-3
390
F
  0
LAYER
  5
235
100
AcDbSymbolTableRecord
100
AcDbLayerTableRecord
  2
DTM_300-001-___
 70
0
 62
7
  6
CONTINUOUS
370
-3
390
F
  0
LAYER
  5
236
100
AcDbSymbolTableRecord
100
AcDbLayerTableRecord
  2
DTM_350-012
 70
0
 62
7
  6
CONTINUOUS
370
-3
390
F
  0
LAYER
  5
237
100
AcDbSymbolTableRecord
100
AcDbLayerTableRecord
  2
DTM_500001
 70
0
 62
7
  6
CONTINUOUS
370
-3
390
F
  0
LAYER
  5
238
100
AcDbSymbolTableRecord
100
AcDbLayerTableRecord
  2
DTM_500002
 70
0
 62
7
  6
CONTINUOUS
370
-3
390
F
  0
LAYER
  5
239
100
AcDbSymbolTableRecord
100
AcDbLayerTableRecord
  2
DTM_515002
 70
0
 62
7
  6
CONTINUOUS
370
-3
390
F
  0
LAYER
  5
23A
100
AcDbSymbolTableRecord
100
AcDbLayerTableRecord
  2
DTM_525001
 70
0
 62
7
  6
CONTINUOUS
370
-3
390
F
  0
LAYER
  5
23B
100
AcDbSymbolTableRecord
100
AcDbLayerTableRecord
  2
DTM_HOLE
 70
0
 62
7
  6
CONTINUOUS
370
-3
390
F
  0
LAYER
  5
23C
100
AcDbSymbolTableRecord
100
AcDbLayerTableRecord
  2
DTM_SPRING_RH
 70
0
 62
7
  6
CONTINUOUS
370
-3
390
F
  0
LAYER
  5
23D
100
AcDbSymbolTableRecord
100
AcDbLayerTableRecord
  2
DTM_SP_RH_CONSTR
 70
0
 62
7
  6
CONTINUOUS
370
-3
390
F
  0
LAYER
  5
23E
100
AcDbSymbolTableRecord
100
AcDbLayerTableRecord
  2
DTP
 70
0
 62
7
  6
CONTINUOUS
370
-3
390
F
  0
LAYER
  5
23F
100
AcDbSymbolTableRecord
100
AcDbLayerTableRecord
  2
DTP325-083
 70
0
 62
7
  6
CONTINUOUS
370
-3
390
F
  0
LAYER
  5
240
100
AcDbSymbolTableRecord
100
AcDbLayerTableRecord
  2
GEOMETRICTOLERANCES
 70
0
 62
7
  6
CONTINUOUS
370
-3
390
F
  0
LAYER
  5
241
100
AcDbSymbolTableRecord
100
AcDbLayerTableRecord
  2
LAY0001
 70
0
 62
7
  6
CONTINUOUS
370
-3
390
F
  0
LAYER
  5
242
100
AcDbSymbolTableRecord
100
AcDbLayerTableRecord
  2
PARAMETERDIMENSIONS
 70
0
 62
7
  6
CONTINUOUS
370
-3
390
F
  0
LAYER
  5
243
100
AcDbSymbolTableRecord
100
AcDbLayerTableRecord
  2
PLANE
 70
0
 62
7
  6
CONTINUOUS
370
-3
390
F
  0
LAYER
  5
244
100
AcDbSymbolTableRecord
100
AcDbLayerTableRecord
  2
SUN_SAE-4_PORT
 70
0
 62
7
  6
CONTINUOUS
370
-3
390
F
  0
LAYER
  5
245
100
AcDbSymbolTableRecord
100
AcDbLayerTableRecord
  2
TEXT
 70
0
 62
7
  6
CONTINUOUS
370
-3
390
F
  0
LAYER
  5
246
100
AcDbSymbolTableRecord
100
AcDbLayerTableRecord
  2
THREAD
 70
0
 62
7
  6
CONTINUOUS
370
-3
390
F
  0
ENDTAB
  0
TABLE
  2
STYLE
  5
3
100
AcDbSymbolTable
 70
1
  0
STYLE
  5
11
100
AcDbSymbolTableRecord
100
AcDbTextStyleTableRecord
  2
STANDARD
 70
0
 40
0.0
 41
0.8
 50
0.0
 71
0
 42
0.2
  3
txt
  4

  0
ENDTAB
  0
TABLE
  2
VIEW
  5
6
100
AcDbSymbolTable
 70
0
  0
ENDTAB
  0
TABLE
  2
UCS
  5
7
100
AcDbSymbolTable
 70
0
  0
ENDTAB
  0
TABLE
  2
APPID
  5
9
100
AcDbSymbolTable
 70
1
  0
APPID
  5
247
100
AcDbSymbolTableRecord
100
AcDbRegAppTableRecord
  2
ACAD
 70
0
  0
ENDTAB
  0
TABLE
  2
BLOCK_RECORD
  5
1
100
AcDbSymbolTable
 70
0
  0
BLOCK_RECORD
  5
1F
100
AcDbSymbolTableRecord
100
AcDbBlockTableRecord
  2
*MODEL_SPACE
  0
BLOCK_RECORD
  5
1B
100
AcDbSymbolTableRecord
100
AcDbBlockTableRecord
  2
*PAPER_SPACE
  0
ENDTAB
  0
TABLE
  2
DIMSTYLE
  5
A
100
AcDbSymbolTable
 70
1
100
AcDbDimStyleTable
 71
0
  0
DIMSTYLE
105
248
100
AcDbSymbolTableRecord
100
AcDbDimStyleTableRecord
  2
STANDARD
 70
0
  3

  4

 40
1.0
 41
0.1875
 42
0.0625
 43
0.38
 44
0.18
 45
0.0
 46
0.0
 47
0.01
 48
0.01
140
0.15625
141
0.09
142
0.0
143
25.4
144
1.0
145
0.0
146
1.0
147
0.09
 71
0.0
 72
0.0
 73
1
 74
1
 75
0
 76
0
 77
0
 78
4
170
0
171
2
172
0
173
0
174
0
175
0
176
0
177
0
178
0
270
2
271
2
272
2
273
2
274
2
275
0
280
0
281
0
282
0
283
1
284
4
285
0
286
0
287
3
288
0
340
11
  0
ENDTAB
  0
ENDSEC
  0
SECTION
  2
BLOCKS
  0
BLOCK
  5
20
100
AcDbEntity
  8
0
100
AcDbBlockBegin
  2
*MODEL_SPACE
 70
0
 10
0.0
 20
0.0
 30
0.0
  3
*MODEL_SPACE
  1

  0
ENDBLK
  5
21
100
AcDbEntity
  8
0
100
AcDbBlockEnd
  0
BLOCK
  5
1C
100
AcDbEntity
  8
0
100
AcDbBlockBegin
  2
*PAPER_SPACE
 70
0
 10
0.0
 20
0.0
 30
0.0
  3
*PAPER_SPACE
  1

  0
ENDBLK
  5
1D
100
AcDbEntity
  8
0
100
AcDbBlockEnd
  0
ENDSEC
  0
SECTION
  2
ENTITIES
  0
LINE
  5
249
100
AcDbEntity
  8
0
100
AcDbLine
 62
7
  6
CONTINUOUS
 10
3.6283404539
 20
4.0511460295
 11
3.6283404539
 21
4.3621374607
  0
LINE
  5
24A
100
AcDbEntity
  8
03__ASM_ALL_CURVES
100
AcDbLine
 62
40
  6
CONTINUOUS
 10
3.6283404539
 20
4.3621413069
 11
3.6283404539
 21
5.0947087451
  0
LINE
  5
24B
100
AcDbEntity
  8
0
100
AcDbLine
 62
7
  6
CONTINUOUS
 10
3.659340453
 20
4.0201417451
 11
3.659340453
 21
4.3931417451
  0
LINE
  5
24C
100
AcDbEntity
  8
0
100
AcDbLine
 62
7
  6
CONTINUOUS
 10
3.7123404539
 20
4.4851420791
 11
3.7123404539
 21
3.9281414111
  0
LINE
  5
24D
100
AcDbEntity
  8
03__ASM_ALL_CURVES
100
AcDbLine
 62
40
  6
CONTINUOUS
 10
3.7386654539
 20
5.0763212451
 11
3.7386654539
 21
5.0395462451
  0
LINE
  5
24E
100
AcDbEntity
  8
0
100
AcDbLine
 62
7
  6
CONTINUOUS
 10
3.9313404539
 20
3.7716417451
 11
3.9313404539
 21
4.6416417451
  0
LINE
  5
24F
100
AcDbEntity
  8
0
100
AcDbLine
 62
7
  6
CONTINUOUS
 10
3.7123404539
 20
4.4851420791
 11
3.7141195111
 21
4.4882234964
  0
LINE
  5
250
100
AcDbEntity
  8
0
100
AcDbLine
 62
7
  6
CONTINUOUS
 10
3.7123404539
 20
3.9281414111
 11
3.7141195111
 21
3.9250599937
  0
LINE
  5
251
100
AcDbEntity
  8
0
100
AcDbLine
 62
7
  6
CONTINUOUS
 10
3.9933404539
 20
3.7096417451
 11
3.9933404539
 21
4.7036417451
  0
LINE
  5
252
100
AcDbEntity
  8
03__ASM_ALL_CURVES
100
AcDbLine
 62
40
  6
CONTINUOUS
 10
4.3488834227
 20
5.1176931201
 11
4.3431373289
 21
5.0947087451
  0
LINE
  5
253
100
AcDbEntity
  8
03__ASM_ALL_CURVES
100
AcDbLine
 62
40
  6
CONTINUOUS
 10
4.3431373289
 20
5.1713233266
 11
4.3488834227
 21
5.1789847886
  0
LINE
  5
254
100
AcDbEntity
  8
03__ASM_ALL_CURVES
100
AcDbLine
 62
40
  6
CONTINUOUS
 10
4.3603756102
 20
5.1330160358
 11
4.3488834227
 21
5.1176931201
  0
LINE
  5
255
100
AcDbEntity
  8
03__ASM_ALL_CURVES
100
AcDbLine
 62
40
  6
CONTINUOUS
 10
4.3891060789
 20
5.1560004136
 11
4.3833599852
 21
5.1483389516
  0
LINE
  5
256
100
AcDbEntity
  8
0
100
AcDbLine
 62
7
  6
CONTINUOUS
 10
3.6283408912
 20
4.3621413069
 11
3.6593409795
 21
4.3931412207
  0
LINE
  5
257
100
AcDbEntity
  8
0
100
AcDbLine
 62
7
  6
CONTINUOUS
 10
3.9933404539
 20
4.7036417451
 11
3.9313404539
 21
4.6416417451
  0
LINE
  5
258
100
AcDbEntity
  8
03__ASM_ALL_CURVES
100
AcDbLine
 62
40
  6
CONTINUOUS
 10
4.3488834227
 20
5.1789847886
 11
4.3603756102
 21
5.1866462451
  0
LINE
  5
259
100
AcDbEntity
  8
0
100
AcDbLine
 62
7
  6
CONTINUOUS
 10
3.6283408912
 20
4.0511421833
 11
3.6593409795
 21
4.0201422695
  0
LINE
  5
25A
100
AcDbEntity
  8
0
100
AcDbLine
 62
7
  6
CONTINUOUS
 10
3.9933404539
 20
3.7096417451
 11
3.9313404539
 21
3.7716417451
  0
LINE
  5
25B
100
AcDbEntity
  8
03__ASM_ALL_CURVES
100
AcDbLine
 62
40
  6
CONTINUOUS
 10
4.3891060789
 20
5.1713233266
 11
4.3891060789
 21
5.1560004136
  0
LINE
  5
25C
100
AcDbEntity
  8
0
100
AcDbLine
 62
7
  6
CONTINUOUS
 10
4.4766849564
 20
4.8401807272
 11
4.4313404539
 21
4.7616417451
  0
LINE
  5
25D
100
AcDbEntity
  8
03__ASM_ALL_CURVES
100
AcDbLine
 62
40
  6
CONTINUOUS
 10
4.5729810789
 20
5.1636618701
 11
4.5672349852
 21
5.1560004136
  0
LINE
  5
25E
100
AcDbEntity
  8
03__ASM_ALL_CURVES
100
AcDbLine
 62
40
  6
CONTINUOUS
 10
4.5787271727
 20
5.1176931201
 11
4.5672349852
 21
5.1023702037
  0
LINE
  5
25F
100
AcDbEntity
  8
03__ASM_ALL_CURVES
100
AcDbLine
 62
40
  6
CONTINUOUS
 10
4.6476802977
 20
5.1866462451
 11
4.6361881102
 21
5.1713233266
  0
LINE
  5
260
100
AcDbEntity
  8
03__ASM_ALL_CURVES
100
AcDbLine
 62
40
  6
CONTINUOUS
 10
4.3833599852
 20
5.1483389516
 11
4.3603756102
 21
5.1330160358
  0
LINE
  5
261
100
AcDbEntity
  8
03__ASM_ALL_CURVES
100
AcDbLine
 62
40
  6
CONTINUOUS
 10
4.5327584227
 20
5.1789847886
 11
4.5442506102
 21
5.1866462451
  0
LINE
  5
262
100
AcDbEntity
  8
03__ASM_ALL_CURVES
100
AcDbLine
 62
40
  6
CONTINUOUS
 10
4.5672349852
 20
5.1560004136
 11
4.5557427977
 21
5.1483389516
  0
LINE
  5
263
100
AcDbEntity
  8
0
100
AcDbLine
 62
7
  6
CONTINUOUS
 10
4.4769511252
 20
3.5726417451
 11
4.4313404539
 21
3.6516417451
  0
LINE
  5
264
100
AcDbEntity
  8
0
100
AcDbLine
 62
7
  6
CONTINUOUS
 10
4.4313404539
 20
3.6516417451
 11
4.4313404539
 21
4.7616417451
  0
LINE
  5
265
100
AcDbEntity
  8
03__ASM_ALL_CURVES
100
AcDbLine
 62
40
  6
CONTINUOUS
 10
4.4523131102
 20
5.0947087451
 11
4.4523131102
 21
5.1023702037
  0
LINE
  5
266
100
AcDbEntity
  8
0
100
AcDbLine
 62
7
  6
CONTINUOUS
 10
4.4769511252
 20
3.5726417451
 11
4.4769511252
 21
3.5732564356
  0
LINE
  5
267
100
AcDbEntity
  8
0
100
AcDbLine
 62
7
  6
CONTINUOUS
 10
4.4769511252
 20
3.8657770546
 11
4.4769511252
 21
3.9141211262
  0
LINE
  5
268
100
AcDbEntity
  8
0
100
AcDbLine
 62
7
  6
CONTINUOUS
 10
4.4769511252
 20
4.499162364
 11
4.4769511252
 21
4.5475064356
  0
LINE
  5
269
100
AcDbEntity
  8
0
100
AcDbLine
 62
7
  6
CONTINUOUS
 10
4.4769511252
 20
4.8400270546
 11
4.4769511252
 21
4.8406417451
  0
LINE
  5
26A
100
AcDbEntity
  8
03__ASM_ALL_CURVES
100
AcDbLine
 62
40
  6
CONTINUOUS
 10
4.6361881102
 20
5.1713233266
 11
4.6304420164
 21
5.1483389516
  0
LINE
  5
26B
100
AcDbEntity
  8
03__ASM_ALL_CURVES
100
AcDbLine
 62
40
  6
CONTINUOUS
 10
4.7626021727
 20
5.1253545793
 11
4.7568560789
 21
5.1100316622
  0
LINE
  5
26C
100
AcDbEntity
  8
03__ASM_ALL_CURVES
100
AcDbLine
 62
40
  6
CONTINUOUS
 10
4.7568560789
 20
5.1100316622
 11
4.7511099852
 21
5.1023702037
  0
LINE
  5
26D
100
AcDbEntity
  8
03__ASM_ALL_CURVES
100
AcDbLine
 62
40
  6
CONTINUOUS
 10
4.8028248289
 20
5.1713233266
 11
4.8085709227
 21
5.1789847886
  0
LINE
  5
26E
100
AcDbEntity
  8
03__ASM_ALL_CURVES
100
AcDbLine
 62
40
  6
CONTINUOUS
 10
4.7970787352
 20
5.1253545793
 11
4.8085709227
 21
5.1406774951
  0
LINE
  5
26F
100
AcDbEntity
  8
03__ASM_ALL_CURVES
100
AcDbLine
 62
40
  6
CONTINUOUS
 10
4.8487935789
 20
5.1636618701
 11
4.8430474852
 21
5.1560004136
  0
LINE
  5
270
100
AcDbEntity
  8
03__ASM_ALL_CURVES
100
AcDbLine
 62
40
  6
CONTINUOUS
 10
4.8545396727
 20
5.1176931201
 11
4.8430474852
 21
5.1023702037
  0
LINE
  5
271
100
AcDbEntity
  8
03__ASM_ALL_CURVES
100
AcDbLine
 62
40
  6
CONTINUOUS
 10
4.5672349852
 20
5.1023702037
 11
4.5557427977
 21
5.0947087451
  0
LINE
  5
272
100
AcDbEntity
  8
03__ASM_ALL_CURVES
100
AcDbLine
 62
40
  6
CONTINUOUS
 10
4.7166334227
 20
5.1483389516
 11
4.7281256102
 21
5.1560004136
  0
LINE
  5
273
100
AcDbEntity
  8
03__ASM_ALL_CURVES
100
AcDbLine
 62
40
  6
CONTINUOUS
 10
4.8085709227
 20
5.1789847886
 11
4.8200631102
 21
5.1866462451
  0
LINE
  5
274
100
AcDbEntity
  8
03__ASM_ALL_CURVES
100
AcDbLine
 62
40
  6
CONTINUOUS
 10
4.7511099852
 20
5.1023702037
 11
4.7396177977
 21
5.0947087451
  0
LINE
  5
275
100
AcDbEntity
  8
03__ASM_ALL_CURVES
100
AcDbLine
 62
40
  6
CONTINUOUS
 10
4.8085709227
 20
5.1406774951
 11
4.8200631102
 21
5.1483389516
  0
LINE
  5
276
100
AcDbEntity
  8
03__ASM_ALL_CURVES
100
AcDbLine
 62
40
  6
CONTINUOUS
 10
4.8430474852
 20
5.1560004136
 11
4.8315552977
 21
5.1483389516
  0
LINE
  5
277
100
AcDbEntity
  8
03__ASM_ALL_CURVES
100
AcDbLine
 62
40
  6
CONTINUOUS
 10
4.5729810789
 20
5.1713233266
 11
4.5729810789
 21
5.1636618701
  0
LINE
  5
278
100
AcDbEntity
  8
03__ASM_ALL_CURVES
100
AcDbLine
 62
40
  6
CONTINUOUS
 10
4.5787271727
 20
5.1253545793
 11
4.5787271727
 21
5.1176931201
  0
LINE
  5
279
100
AcDbEntity
  8
03__ASM_ALL_CURVES
100
AcDbLine
 62
40
  6
CONTINUOUS
 10
4.6304420164
 20
5.1483389516
 11
4.6304420164
 21
5.1330160358
  0
LINE
  5
27A
100
AcDbEntity
  8
03__ASM_ALL_CURVES
100
AcDbLine
 62
40
  6
CONTINUOUS
 10
4.7223795164
 20
5.1866462451
 11
4.7166334227
 21
5.1483389516
  0
LINE
  5
27B
100
AcDbEntity
  8
03__ASM_ALL_CURVES
100
AcDbLine
 62
40
  6
CONTINUOUS
 10
5.0269224852
 20
5.1866462451
 11
4.9866998289
 21
5.1176931201
  0
LINE
  5
27C
100
AcDbEntity
  8
03__ASM_ALL_CURVES
100
AcDbLine
 62
40
  6
CONTINUOUS
 10
4.8430474852
 20
5.1023702037
 11
4.8315552977
 21
5.0947087451
  0
LINE
  5
27D
100
AcDbEntity
  8
03__ASM_ALL_CURVES
100
AcDbLine
 62
40
  6
CONTINUOUS
 10
4.7970787352
 20
5.1176931201
 11
4.7970787352
 21
5.1253545793
  0
LINE
  5
27E
100
AcDbEntity
  8
03__ASM_ALL_CURVES
100
AcDbLine
 62
40
  6
CONTINUOUS
 10
4.8028248289
 20
5.1636618701
 11
4.8028248289
 21
5.1713233266
  0
LINE
  5
27F
100
AcDbEntity
  8
03__ASM_ALL_CURVES
100
AcDbLine
 62
40
  6
CONTINUOUS
 10
4.8487935789
 20
5.1713233266
 11
4.8487935789
 21
5.1636618701
  0
LINE
  5
280
100
AcDbEntity
  8
03__ASM_ALL_CURVES
100
AcDbLine
 62
40
  6
CONTINUOUS
 10
4.8545396727
 20
5.1253545793
 11
4.8545396727
 21
5.1176931201
  0
LINE
  5
281
100
AcDbEntity
  8
03__ASM_ALL_CURVES
100
AcDbLine
 62
40
  6
CONTINUOUS
 10
5.1993052977
 20
5.1100316622
 11
5.1878131102
 21
5.0947087451
  0
LINE
  5
282
100
AcDbEntity
  8
03__ASM_ALL_CURVES
100
AcDbLine
 62
40
  6
CONTINUOUS
 10
4.6304420164
 20
5.1330160358
 11
4.6361881102
 21
5.1100316622
  0
LINE
  5
283
100
AcDbEntity
  8
03__ASM_ALL_CURVES
100
AcDbLine
 62
40
  6
CONTINUOUS
 10
4.9120006102
 20
5.0947087451
 11
4.9120006102
 21
5.1023702037
  0
LINE
  5
284
100
AcDbEntity
  8
03__ASM_ALL_CURVES
100
AcDbLine
 62
40
  6
CONTINUOUS
 10
5.0269224852
 20
5.0947087451
 11
5.0269224852
 21
5.1866462451
  0
LINE
  5
285
100
AcDbEntity
  8
03__ASM_ALL_CURVES
100
AcDbLine
 62
40
  6
CONTINUOUS
 10
5.2050513914
 20
5.1330160358
 11
5.1993052977
 21
5.1100316622
  0
LINE
  5
286
100
AcDbEntity
  8
03__ASM_ALL_CURVES
100
AcDbLine
 62
40
  6
CONTINUOUS
 10
6.6666968876
 20
3.3876886201
 11
6.658077747
 21
3.3876886201
  0
LINE
  5
287
100
AcDbEntity
  8
03__ASM_ALL_CURVES
100
AcDbLine
 62
40
  6
CONTINUOUS
 10
5.8014014877
 20
3.3876886201
 11
5.792782347
 21
3.3876886201
  0
LINE
  5
288
100
AcDbEntity
  8
03__ASM_ALL_CURVES
100
AcDbLine
 62
40
  6
CONTINUOUS
 10
5.5945421127
 20
3.3876886201
 11
5.585922972
 21
3.3876886201
  0
LINE
  5
289
100
AcDbEntity
  8
03__ASM_ALL_CURVES
100
AcDbLine
 62
40
  6
CONTINUOUS
 10
6.8520084111
 20
3.3876886201
 11
6.8864849736
 21
3.3876886201
  0
LINE
  5
28A
100
AcDbEntity
  8
03__ASM_ALL_CURVES
100
AcDbLine
 62
40
  6
CONTINUOUS
 10
6.7356500126
 20
3.4221651826
 11
6.7141021611
 21
3.4221651826
  0
LINE
  5
28B
100
AcDbEntity
  8
03__ASM_ALL_CURVES
100
AcDbLine
 62
40
  6
CONTINUOUS
 10
6.5977437626
 20
3.4221651826
 11
6.5761959111
 21
3.4221651826
  0
LINE
  5
28C
100
AcDbEntity
  8
03__ASM_ALL_CURVES
100
AcDbLine
 62
40
  6
CONTINUOUS
 10
5.6634952377
 20
3.4221651826
 11
5.6419473861
 21
3.4221651826
  0
LINE
  5
28D
100
AcDbEntity
  8
03__ASM_ALL_CURVES
100
AcDbLine
 62
40
  6
CONTINUOUS
 10
5.5255889877
 20
3.4221651826
 11
5.5040411361
 21
3.4221651826
  0
LINE
  5
28E
100
AcDbEntity
  8
03__ASM_ALL_CURVES
100
AcDbLine
 62
40
  6
CONTINUOUS
 10
5.792782347
 20
3.427911275
 11
5.8014014877
 21
3.427911275
  0
LINE
  5
28F
100
AcDbEntity
  8
03__ASM_ALL_CURVES
100
AcDbLine
 62
40
  6
CONTINUOUS
 10
5.5040411361
 20
3.4566417451
 11
5.5255889877
 21
3.4566417451
  0
LINE
  5
290
100
AcDbEntity
  8
03__ASM_ALL_CURVES
100
AcDbLine
 62
40
  6
CONTINUOUS
 10
5.585922972
 20
3.4566417451
 11
5.5945421127
 21
3.4566417451
  0
LINE
  5
291
100
AcDbEntity
  8
03__ASM_ALL_CURVES
100
AcDbLine
 62
40
  6
CONTINUOUS
 10
5.6419473861
 20
3.4566417451
 11
5.6634952377
 21
3.4566417451
  0
LINE
  5
292
100
AcDbEntity
  8
03__ASM_ALL_CURVES
100
AcDbLine
 62
40
  6
CONTINUOUS
 10
5.7065909408
 20
3.4566417451
 11
5.7496866439
 21
3.4566417451
  0
LINE
  5
293
100
AcDbEntity
  8
03__ASM_ALL_CURVES
100
AcDbLine
 62
40
  6
CONTINUOUS
 10
5.792782347
 20
3.4566417451
 11
5.8014014877
 21
3.4566417451
  0
LINE
  5
294
100
AcDbEntity
  8
03__ASM_ALL_CURVES
100
AcDbLine
 62
40
  6
CONTINUOUS
 10
6.5761959111
 20
3.4566417451
 11
6.5977437626
 21
3.4566417451
  0
LINE
  5
295
100
AcDbEntity
  8
03__ASM_ALL_CURVES
100
AcDbLine
 62
40
  6
CONTINUOUS
 10
6.658077747
 20
3.4566417451
 11
6.6666968876
 21
3.4566417451
  0
LINE
  5
296
100
AcDbEntity
  8
03__ASM_ALL_CURVES
100
AcDbLine
 62
40
  6
CONTINUOUS
 10
6.7141021611
 20
3.4566417451
 11
6.7356500126
 21
3.4566417451
  0
LINE
  5
297
100
AcDbEntity
  8
03__ASM_ALL_CURVES
100
AcDbLine
 62
40
  6
CONTINUOUS
 10
6.7787457158
 20
3.4566417451
 11
6.8218414189
 21
3.4566417451
  0
LINE
  5
298
100
AcDbEntity
  8
03__ASM_ALL_CURVES
100
AcDbLine
 62
40
  6
CONTINUOUS
 10
6.864937122
 20
3.4566417451
 11
6.8735562626
 21
3.4566417451
  0
LINE
  5
299
100
AcDbEntity
  8
03__ASM_ALL_CURVES
100
AcDbLine
 62
40
  6
CONTINUOUS
 10
5.585922972
 20
3.3876886201
 11
5.5773038314
 21
3.393434714
  0
LINE
  5
29A
100
AcDbEntity
  8
03__ASM_ALL_CURVES
100
AcDbLine
 62
40
  6
CONTINUOUS
 10
5.5255889877
 20
3.4566417451
 11
5.5342081283
 21
3.4508956527
  0
LINE
  5
29B
100
AcDbEntity
  8
03__ASM_ALL_CURVES
100
AcDbLine
 62
40
  6
CONTINUOUS
 10
5.5945421127
 20
3.4566417451
 11
5.6031612533
 21
3.4508956527
  0
LINE
  5
29C
100
AcDbEntity
  8
03__ASM_ALL_CURVES
100
AcDbLine
 62
40
  6
CONTINUOUS
 10
5.6634952377
 20
3.4566417451
 11
5.6721143783
 21
3.4508956527
  0
LINE
  5
29D
100
AcDbEntity
  8
0
100
AcDbLine
 62
7
  6
CONTINUOUS
 10
5.0639148281
 20
3.5726417451
 11
5.0639148281
 21
3.5732564356
  0
LINE
  5
29E
100
AcDbEntity
  8
0
100
AcDbLine
 62
7
  6
CONTINUOUS
 10
5.0639148281
 20
3.8657770546
 11
5.0639148281
 21
3.9141211262
  0
LINE
  5
29F
100
AcDbEntity
  8
0
100
AcDbLine
 62
7
  6
CONTINUOUS
 10
5.0639148281
 20
4.499162364
 11
5.0639148281
 21
4.5475064356
  0
LINE
  5
2A0
100
AcDbEntity
  8
0
100
AcDbLine
 62
7
  6
CONTINUOUS
 10
5.0639148281
 20
4.8400270546
 11
5.0639148281
 21
4.8406417451
  0
LINE
  5
2A1
100
AcDbEntity
  8
03__ASM_ALL_CURVES
100
AcDbLine
 62
40
  6
CONTINUOUS
 10
5.1016217039
 20
5.1866462451
 11
5.1016217039
 21
5.0947087451
  0
LINE
  5
2A2
100
AcDbEntity
  8
0
100
AcDbLine
 62
7
  6
CONTINUOUS
 10
5.1193404539
 20
3.6686417451
 11
5.1193404539
 21
4.7446417451
  0
LINE
  5
2A3
100
AcDbEntity
  8
0
100
AcDbLine
 62
7
  6
CONTINUOUS
 10
5.9526968604
 20
3.6914718721
 11
5.9551968604
 21
3.6921417451
  0
LINE
  5
2A4
100
AcDbEntity
  8
0
100
AcDbLine
 62
7
  6
CONTINUOUS
 10
5.0639148281
 20
3.5726417451
 11
4.4769511252
 21
3.5726417451
  0
LINE
  5
2A5
100
AcDbEntity
  8
0
100
AcDbLine
 62
7
  6
CONTINUOUS
 10
5.0639148281
 20
3.5732564356
 11
4.4769511252
 21
3.5732564356
  0
LINE
  5
2A6
100
AcDbEntity
  8
0
100
AcDbLine
 62
7
  6
CONTINUOUS
 10
5.9283404539
 20
3.6686417451
 11
5.8663404539
 21
3.6686417451
  0
LINE
  5
2A7
100
AcDbEntity
  8
0
100
AcDbLine
 62
7
  6
CONTINUOUS
 10
5.4923404539
 20
3.6686417451
 11
5.4473404539
 21
3.6686417451
  0
LINE
  5
2A8
100
AcDbEntity
  8
0
100
AcDbLine
 62
7
  6
CONTINUOUS
 10
5.3063404539
 20
3.6686417451
 11
5.1193404539
 21
3.6686417451
  0
LINE
  5
2A9
100
AcDbEntity
  8
0
100
AcDbLine
 62
7
  6
CONTINUOUS
 10
5.3063404539
 20
3.6701417451
 11
5.3563404539
 21
3.6701417451
  0
LINE
  5
2AA
100
AcDbEntity
  8
03__ASM_ALL_CURVES
100
AcDbLine
 62
40
  6
CONTINUOUS
 10
5.792782347
 20
3.3876886201
 11
5.7841632064
 21
3.393434714
  0
LINE
  5
2AB
100
AcDbEntity
  8
03__ASM_ALL_CURVES
100
AcDbLine
 62
40
  6
CONTINUOUS
 10
5.8014014877
 20
3.427911275
 11
5.8100206283
 21
3.4221651826
  0
LINE
  5
2AC
100
AcDbEntity
  8
03__ASM_ALL_CURVES
100
AcDbLine
 62
40
  6
CONTINUOUS
 10
5.8014014877
 20
3.4566417451
 11
5.8100206283
 21
3.4508956527
  0
LINE
  5
2AD
100
AcDbEntity
  8
03__ASM_ALL_CURVES
100
AcDbLine
 62
40
  6
CONTINUOUS
 10
5.5773038314
 20
3.393434714
 11
5.5686846908
 21
3.4049269013
  0
LINE
  5
2AE
100
AcDbEntity
  8
03__ASM_ALL_CURVES
100
AcDbLine
 62
40
  6
CONTINUOUS
 10
5.5342081283
 20
3.4508956527
 11
5.5385176986
 21
3.4451495562
  0
LINE
  5
2AF
100
AcDbEntity
  8
03__ASM_ALL_CURVES
100
AcDbLine
 62
40
  6
CONTINUOUS
 10
5.6031612533
 20
3.4508956527
 11
5.6117803939
 21
3.4394034638
  0
LINE
  5
2B0
100
AcDbEntity
  8
03__ASM_ALL_CURVES
100
AcDbLine
 62
40
  6
CONTINUOUS
 10
4.7568560789
 20
5.1406774951
 11
4.7626021727
 21
5.1253545793
  0
LINE
  5
2B1
100
AcDbEntity
  8
03__ASM_ALL_CURVES
100
AcDbLine
 62
40
  6
CONTINUOUS
 10
5.2050513914
 20
5.1483389516
 11
5.2050513914
 21
5.1330160358
  0
LINE
  5
2B2
100
AcDbEntity
  8
0
100
AcDbLine
 62
7
  6
CONTINUOUS
 10
5.3063404539
 20
3.6686417451
 11
5.3063404539
 21
4.7446417451
  0
LINE
  5
2B3
100
AcDbEntity
  8
03__ASM_ALL_CURVES
100
AcDbLine
 62
40
  6
CONTINUOUS
 10
6.1761240484
 20
5.1789847886
 11
6.1876162359
 21
5.1866462451
  0
LINE
  5
2B4
100
AcDbEntity
  8
03__ASM_ALL_CURVES
100
AcDbLine
 62
40
  6
CONTINUOUS
 10
6.2680615484
 20
5.1789847886
 11
6.2795537359
 21
5.1866462451
  0
LINE
  5
2B5
100
AcDbEntity
  8
03__ASM_ALL_CURVES
100
AcDbLine
 62
40
  6
CONTINUOUS
 10
6.2106006109
 20
5.1023702037
 11
6.1991084234
 21
5.0947087451
  0
LINE
  5
2B6
100
AcDbEntity
  8
THREAD
100
AcDbLine
 62
7
  6
CONTINUOUS
 10
5.9783404539
 20
3.6921417451
 11
5.9551968604
 21
3.6921417451
  0
LINE
  5
2B7
100
AcDbEntity
  8
0
100
AcDbLine
 62
7
  6
CONTINUOUS
 10
6.0483404539
 20
3.6946417451
 11
6.0983404539
 21
3.6946417451
  0
LINE
  5
2B8
100
AcDbEntity
  8
0
100
AcDbLine
 62
7
  6
CONTINUOUS
 10
4.4313404539
 20
3.7096417451
 11
3.9933404539
 21
3.7096417451
  0
LINE
  5
2B9
100
AcDbEntity
  8
THREAD
100
AcDbLine
 62
7
  6
CONTINUOUS
 10
6.4123404539
 20
3.7106417451
 11
6.1412797642
 21
3.7106417451
  0
LINE
  5
2BA
100
AcDbEntity
  8
0
100
AcDbLine
 62
7
  6
CONTINUOUS
 10
5.4473404539
 20
3.7241417451
 11
5.4263404539
 21
3.7241417451
  0
LINE
  5
2BB
100
AcDbEntity
  8
THREAD
100
AcDbLine
 62
7
  6
CONTINUOUS
 10
6.1118349004
 20
3.7486417451
 11
6.0983404539
 21
3.7486417451
  0
LINE
  5
2BC
100
AcDbEntity
  8
0
100
AcDbLine
 62
7
  6
CONTINUOUS
 10
5.8449045186
 20
3.7486417451
 11
5.8328404539
 21
3.7486417451
  0
LINE
  5
2BD
100
AcDbEntity
  8
0
100
AcDbLine
 62
7
  6
CONTINUOUS
 10
5.7998404539
 20
3.7486417451
 11
5.5137763893
 21
3.7486417451
  0
LINE
  5
2BE
100
AcDbEntity
  8
THREAD
100
AcDbLine
 62
7
  6
CONTINUOUS
 10
6.5403404539
 20
3.7546417451
 11
6.4563404539
 21
3.7546417451
  0
LINE
  5
2BF
100
AcDbEntity
  8
0
100
AcDbLine
 62
7
  6
CONTINUOUS
 10
7.2898404539
 20
3.7701417451
 11
7.2488404539
 21
3.7701417451
  0
LINE
  5
2C0
100
AcDbEntity
  8
0
100
AcDbLine
 62
7
  6
CONTINUOUS
 10
7.0508404539
 20
3.7701417451
 11
6.9948404539
 21
3.7701417451
  0
LINE
  5
2C1
100
AcDbEntity
  8
0
100
AcDbLine
 62
7
  6
CONTINUOUS
 10
7.0508404539
 20
3.7706417451
 11
7.1008404539
 21
3.7706417451
  0
LINE
  5
2C2
100
AcDbEntity
  8
0
100
AcDbLine
 62
7
  6
CONTINUOUS
 10
7.1708404539
 20
3.7706417451
 11
7.2208404539
 21
3.7706417451
  0
LINE
  5
2C3
100
AcDbEntity
  8
0
100
AcDbLine
 62
7
  6
CONTINUOUS
 10
6.5563404539
 20
3.8006417451
 11
6.6018404539
 21
3.8006417451
  0
LINE
  5
2C4
100
AcDbEntity
  8
0
100
AcDbLine
 62
7
  6
CONTINUOUS
 10
7.2208404539
 20
3.8246417451
 11
7.2488404539
 21
3.8246417451
  0
LINE
  5
2C5
100
AcDbEntity
  8
0
100
AcDbLine
 62
7
  6
CONTINUOUS
 10
6.7908731646
 20
3.8324917451
 11
6.9788404539
 21
3.8324917451
  0
LINE
  5
2C6
100
AcDbEntity
  8
03__ASM_ALL_CURVES
100
AcDbLine
 62
40
  6
CONTINUOUS
 10
5.6721143783
 20
3.4508956527
 11
5.6764239486
 21
3.4451495562
  0
LINE
  5
2C7
100
AcDbEntity
  8
03__ASM_ALL_CURVES
100
AcDbLine
 62
40
  6
CONTINUOUS
 10
4.3833599852
 20
5.1789847886
 11
4.3891060789
 21
5.1713233266
  0
LINE
  5
2C8
100
AcDbEntity
  8
03__ASM_ALL_CURVES
100
AcDbLine
 62
40
  6
CONTINUOUS
 10
4.4523131102
 20
5.1023702037
 11
4.4580592039
 21
5.0947087451
  0
LINE
  5
2C9
100
AcDbEntity
  8
03__ASM_ALL_CURVES
100
AcDbLine
 62
40
  6
CONTINUOUS
 10
5.7841632064
 20
3.393434714
 11
5.7798536361
 21
3.3991808079
  0
LINE
  5
2CA
100
AcDbEntity
  8
03__ASM_ALL_CURVES
100
AcDbLine
 62
40
  6
CONTINUOUS
 10
4.5327584227
 20
5.1023702037
 11
4.5270123289
 21
5.1100316622
  0
LINE
  5
2CB
100
AcDbEntity
  8
03__ASM_ALL_CURVES
100
AcDbLine
 62
40
  6
CONTINUOUS
 10
5.8100206283
 20
3.4221651826
 11
5.8186397689
 21
3.4106729958
  0
LINE
  5
2CC
100
AcDbEntity
  8
03__ASM_ALL_CURVES
100
AcDbLine
 62
40
  6
CONTINUOUS
 10
5.8100206283
 20
3.4508956527
 11
5.8143301986
 21
3.4451495562
  0
LINE
  5
2CD
100
AcDbEntity
  8
03__ASM_ALL_CURVES
100
AcDbLine
 62
40
  6
CONTINUOUS
 10
4.5672349852
 20
5.1406774951
 11
4.5787271727
 21
5.1253545793
  0
LINE
  5
2CE
100
AcDbEntity
  8
03__ASM_ALL_CURVES
100
AcDbLine
 62
40
  6
CONTINUOUS
 10
4.5672349852
 20
5.1789847886
 11
4.5729810789
 21
5.1713233266
  0
LINE
  5
2CF
100
AcDbEntity
  8
0
100
AcDbLine
 62
7
  6
CONTINUOUS
 10
5.3563404539
 20
3.6701417451
 11
5.3563404539
 21
4.7431417451
  0
LINE
  5
2D0
100
AcDbEntity
  8
0
100
AcDbLine
 62
7
  6
CONTINUOUS
 10
5.4263404539
 20
4.7241417451
 11
5.4263404539
 21
3.6891417451
  0
LINE
  5
2D1
100
AcDbEntity
  8
0
100
AcDbLine
 62
7
  6
CONTINUOUS
 10
5.4473404539
 20
3.6686417451
 11
5.4473404539
 21
4.7446417451
  0
LINE
  5
2D2
100
AcDbEntity
  8
0
100
AcDbLine
 62
7
  6
CONTINUOUS
 10
5.4923404539
 20
3.6686417451
 11
5.4923404539
 21
4.7446417451
  0
LINE
  5
2D3
100
AcDbEntity
  8
03__ASM_ALL_CURVES
100
AcDbLine
 62
40
  6
CONTINUOUS
 10
5.5040411361
 20
3.3876886201
 11
5.5040411361
 21
3.4566417451
  0
LINE
  5
2D4
100
AcDbEntity
  8
03__ASM_ALL_CURVES
100
AcDbLine
 62
40
  6
CONTINUOUS
 10
6.3025381109
 20
5.1023702037
 11
6.2910459234
 21
5.0947087451
  0
LINE
  5
2D5
100
AcDbEntity
  8
0
100
AcDbLine
 62
7
  6
CONTINUOUS
 10
5.0639148281
 20
3.8657770546
 11
4.4769511252
 21
3.8657770546
  0
LINE
  5
2D6
100
AcDbEntity
  8
0
100
AcDbLine
 62
7
  6
CONTINUOUS
 10
5.0639148281
 20
3.9141211262
 11
4.4769511252
 21
3.9141211262
  0
LINE
  5
2D7
100
AcDbEntity
  8
0
100
AcDbLine
 62
7
  6
CONTINUOUS
 10
3.9313377731
 20
3.9256165016
 11
3.7138009869
 21
3.9256165016
  0
LINE
  5
2D8
100
AcDbEntity
  8
03__ASM_ALL_CURVES
100
AcDbLine
 62
40
  6
CONTINUOUS
 10
4.6361881102
 20
5.1100316622
 11
4.6476802977
 21
5.0947087451
  0
LINE
  5
2D9
100
AcDbEntity
  8
03__ASM_ALL_CURVES
100
AcDbLine
 62
40
  6
CONTINUOUS
 10
4.7166334227
 20
5.1023702037
 11
4.7108873289
 21
5.1100316622
  0
LINE
  5
2DA
100
AcDbEntity
  8
03__ASM_ALL_CURVES
100
AcDbLine
 62
40
  6
CONTINUOUS
 10
4.7511099852
 20
5.1483389516
 11
4.7568560789
 21
5.1406774951
  0
LINE
  5
2DB
100
AcDbEntity
  8
03__ASM_ALL_CURVES
100
AcDbLine
 62
40
  6
CONTINUOUS
 10
4.8085709227
 20
5.1023702037
 11
4.7970787352
 21
5.1176931201
  0
LINE
  5
2DC
100
AcDbEntity
  8
0
100
AcDbLine
 62
7
  6
CONTINUOUS
 10
5.1193404539
 20
4.7446417451
 11
5.0641809969
 21
4.8401807272
  0
LINE
  5
2DD
100
AcDbEntity
  8
03__ASM_ALL_CURVES
100
AcDbLine
 62
40
  6
CONTINUOUS
 10
5.6634952377
 20
3.4221651826
 11
5.6764239486
 21
3.3876886201
  0
LINE
  5
2DE
100
AcDbEntity
  8
03__ASM_ALL_CURVES
100
AcDbLine
 62
40
  6
CONTINUOUS
 10
5.5686846908
 20
3.4049269013
 11
5.5643751205
 21
3.4221651826
  0
LINE
  5
2DF
100
AcDbEntity
  8
03__ASM_ALL_CURVES
100
AcDbLine
 62
40
  6
CONTINUOUS
 10
5.6117803939
 20
3.4394034638
 11
5.6160899642
 21
3.4221651826
  0
LINE
  5
2E0
100
AcDbEntity
  8
03__ASM_ALL_CURVES
100
AcDbLine
 62
40
  6
CONTINUOUS
 10
5.1993052977
 20
5.1713233266
 11
5.2050513914
 21
5.1483389516
  0
LINE
  5
2E1
100
AcDbEntity
  8
0
100
AcDbLine
 62
7
  6
CONTINUOUS
 10
5.5137763893
 20
3.7486417451
 11
5.5137763893
 21
4.6646417451
  0
LINE
  5
2E2
100
AcDbEntity
  8
03__ASM_ALL_CURVES
100
AcDbLine
 62
40
  6
CONTINUOUS
 10
5.5385176986
 20
3.4451495562
 11
5.5385176986
 21
3.4336573715
  0
LINE
  5
2E3
100
AcDbEntity
  8
03__ASM_ALL_CURVES
100
AcDbLine
 62
40
  6
CONTINUOUS
 10
5.6419473861
 20
3.3876886201
 11
5.6419473861
 21
3.4566417451
  0
LINE
  5
2E4
100
AcDbEntity
  8
0
100
AcDbLine
 62
7
  6
CONTINUOUS
 10
5.5137763893
 20
3.7486417451
 11
5.4923404539
 21
3.6686417451
  0
LINE
  5
2E5
100
AcDbEntity
  8
0
100
AcDbLine
 62
7
  6
CONTINUOUS
 10
5.1193404539
 20
3.6686417451
 11
5.0641809969
 21
3.573102763
  0
LINE
  5
2E6
100
AcDbEntity
  8
03__ASM_ALL_CURVES
100
AcDbLine
 62
40
  6
CONTINUOUS
 10
6.1646318609
 20
5.1636618701
 11
6.1761240484
 21
5.1789847886
  0
LINE
  5
2E7
100
AcDbEntity
  8
03__ASM_ALL_CURVES
100
AcDbLine
 62
40
  6
CONTINUOUS
 10
6.2220927984
 20
5.1176931201
 11
6.2106006109
 21
5.1023702037
  0
LINE
  5
2E8
100
AcDbEntity
  8
03__ASM_ALL_CURVES
100
AcDbLine
 62
40
  6
CONTINUOUS
 10
6.2565693609
 20
5.1636618701
 11
6.2680615484
 21
5.1789847886
  0
LINE
  5
2E9
100
AcDbEntity
  8
03__ASM_ALL_CURVES
100
AcDbLine
 62
40
  6
CONTINUOUS
 10
6.7277490484
 20
5.1789847886
 11
6.7392412359
 21
5.1866462451
  0
LINE
  5
2EA
100
AcDbEntity
  8
03__ASM_ALL_CURVES
100
AcDbLine
 62
40
  6
CONTINUOUS
 10
6.7622256109
 20
5.1023702037
 11
6.7507334234
 21
5.0947087451
  0
LINE
  5
2EB
100
AcDbEntity
  8
0
100
AcDbLine
 62
7
  6
CONTINUOUS
 10
3.7123404539
 20
4.0201417451
 11
3.6593404551
 21
4.0201417451
  0
LINE
  5
2EC
100
AcDbEntity
  8
03__ASM_ALL_CURVES
100
AcDbLine
 62
40
  6
CONTINUOUS
 10
6.658077747
 20
3.3876886201
 11
6.6494586064
 21
3.393434714
  0
LINE
  5
2ED
100
AcDbEntity
  8
03__ASM_ALL_CURVES
100
AcDbLine
 62
40
  6
CONTINUOUS
 10
6.5977437626
 20
3.4566417451
 11
6.6063629033
 21
3.4508956527
  0
LINE
  5
2EE
100
AcDbEntity
  8
03__ASM_ALL_CURVES
100
AcDbLine
 62
40
  6
CONTINUOUS
 10
6.6666968876
 20
3.4566417451
 11
6.6753160283
 21
3.4508956527
  0
LINE
  5
2EF
100
AcDbEntity
  8
03__ASM_ALL_CURVES
100
AcDbLine
 62
40
  6
CONTINUOUS
 10
6.7356500126
 20
3.4566417451
 11
6.7442691533
 21
3.4508956527
  0
LINE
  5
2F0
100
AcDbEntity
  8
03__ASM_ALL_CURVES
100
AcDbLine
 62
40
  6
CONTINUOUS
 10
4.8085709227
 20
5.1560004136
 11
4.8028248289
 21
5.1636618701
  0
LINE
  5
2F1
100
AcDbEntity
  8
03__ASM_ALL_CURVES
100
AcDbLine
 62
40
  6
CONTINUOUS
 10
4.8430474852
 20
5.1406774951
 11
4.8545396727
 21
5.1253545793
  0
LINE
  5
2F2
100
AcDbEntity
  8
03__ASM_ALL_CURVES
100
AcDbLine
 62
40
  6
CONTINUOUS
 10
4.8430474852
 20
5.1789847886
 11
4.8487935789
 21
5.1713233266
  0
LINE
  5
2F3
100
AcDbEntity
  8
03__ASM_ALL_CURVES
100
AcDbLine
 62
40
  6
CONTINUOUS
 10
4.9120006102
 20
5.1023702037
 11
4.9177467039
 21
5.0947087451
  0
LINE
  5
2F4
100
AcDbEntity
  8
0
100
AcDbLine
 62
7
  6
CONTINUOUS
 10
5.5137763893
 20
4.6646417451
 11
5.4923404539
 21
4.7446417451
  0
LINE
  5
2F5
100
AcDbEntity
  8
03__ASM_ALL_CURVES
100
AcDbLine
 62
40
  6
CONTINUOUS
 10
5.6764239486
 20
3.4451495562
 11
5.6764239486
 21
3.4336573715
  0
LINE
  5
2F6
100
AcDbEntity
  8
03__ASM_ALL_CURVES
100
AcDbLine
 62
40
  6
CONTINUOUS
 10
5.7281387924
 20
3.4566417451
 11
5.7281387924
 21
3.3876886201
  0
LINE
  5
2F7
100
AcDbEntity
  8
03__ASM_ALL_CURVES
100
AcDbLine
 62
40
  6
CONTINUOUS
 10
5.8143301986
 20
3.4451495562
 11
5.8143301986
 21
3.4394034638
  0
LINE
  5
2F8
100
AcDbEntity
  8
03__ASM_ALL_CURVES
100
AcDbLine
 62
40
  6
CONTINUOUS
 10
5.8186397689
 20
3.4106729958
 11
5.8186397689
 21
3.4049269013
  0
LINE
  5
2F9
100
AcDbEntity
  8
03__ASM_ALL_CURVES
100
AcDbLine
 62
40
  6
CONTINUOUS
 10
5.8210154539
 20
5.0763212451
 11
5.8210154539
 21
5.0395462451
  0
LINE
  5
2FA
100
AcDbEntity
  8
03__ASM_ALL_CURVES
100
AcDbLine
 62
40
  6
CONTINUOUS
 10
5.5643751205
 20
3.4221651826
 11
5.5686846908
 21
3.4394034638
  0
LINE
  5
2FB
100
AcDbEntity
  8
0
100
AcDbLine
 62
7
  6
CONTINUOUS
 10
5.8663404539
 20
4.7446417451
 11
5.8449045186
 21
4.6646417451
  0
LINE
  5
2FC
100
AcDbEntity
  8
03__ASM_ALL_CURVES
100
AcDbLine
 62
40
  6
CONTINUOUS
 10
6.3082842046
 20
5.1100316622
 11
6.3025381109
 21
5.1023702037
  0
LINE
  5
2FD
100
AcDbEntity
  8
03__ASM_ALL_CURVES
100
AcDbLine
 62
40
  6
CONTINUOUS
 10
6.9231162359
 20
5.1866462451
 11
6.9116240484
 21
5.1789847886
  0
LINE
  5
2FE
100
AcDbEntity
  8
03__ASM_ALL_CURVES
100
AcDbLine
 62
40
  6
CONTINUOUS
 10
6.9461006109
 20
5.1023702037
 11
6.9346084234
 21
5.0947087451
  0
LINE
  5
2FF
100
AcDbEntity
  8
03__ASM_ALL_CURVES
100
AcDbLine
 62
40
  6
CONTINUOUS
 10
7.0954990484
 20
5.1789847886
 11
7.1069912359
 21
5.1866462451
  0
LINE
  5
300
100
AcDbEntity
  8
0
100
AcDbLine
 62
7
  6
CONTINUOUS
 10
3.9062257172
 20
4.2066417451
 11
3.7388983735
 21
4.2066417451
  0
LINE
  5
301
100
AcDbEntity
  8
03__ASM_ALL_CURVES
100
AcDbLine
 62
40
  6
CONTINUOUS
 10
7.7718414301
 20
4.2250292451
 11
7.7632222895
 21
4.2250292451
  0
LINE
  5
302
100
AcDbEntity
  8
03__ASM_ALL_CURVES
100
AcDbLine
 62
40
  6
CONTINUOUS
 10
7.8407945551
 20
4.2595058076
 11
7.8192467035
 21
4.2595058076
  0
LINE
  5
303
100
AcDbEntity
  8
03__ASM_ALL_CURVES
100
AcDbLine
 62
40
  6
CONTINUOUS
 10
7.7028883051
 20
4.2595058076
 11
7.6813404535
 21
4.2595058076
  0
LINE
  5
304
100
AcDbEntity
  8
03__ASM_ALL_CURVES
100
AcDbLine
 62
40
  6
CONTINUOUS
 10
7.6813404535
 20
4.2939823701
 11
7.7028883051
 21
4.2939823701
  0
LINE
  5
305
100
AcDbEntity
  8
03__ASM_ALL_CURVES
100
AcDbLine
 62
40
  6
CONTINUOUS
 10
7.7632222895
 20
4.2939823701
 11
7.7718414301
 21
4.2939823701
  0
LINE
  5
306
100
AcDbEntity
  8
03__ASM_ALL_CURVES
100
AcDbLine
 62
40
  6
CONTINUOUS
 10
7.8192467035
 20
4.2939823701
 11
7.8407945551
 21
4.2939823701
  0
LINE
  5
307
100
AcDbEntity
  8
03__ASM_ALL_CURVES
100
AcDbLine
 62
40
  6
CONTINUOUS
 10
7.8838902582
 20
4.2939823701
 11
7.9269859613
 21
4.2939823701
  0
LINE
  5
308
100
AcDbEntity
  8
03__ASM_ALL_CURVES
100
AcDbLine
 62
40
  6
CONTINUOUS
 10
6.8735562626
 20
3.4566417451
 11
6.8821754033
 21
3.4508956527
  0
LINE
  5
309
100
AcDbEntity
  8
03__ASM_ALL_CURVES
100
AcDbLine
 62
40
  6
CONTINUOUS
 10
4.3718677977
 20
5.1866462451
 11
4.3833599852
 21
5.1789847886
  0
LINE
  5
30A
100
AcDbEntity
  8
03__ASM_ALL_CURVES
100
AcDbLine
 62
40
  6
CONTINUOUS
 10
4.5442506102
 20
5.0947087451
 11
4.5327584227
 21
5.1023702037
  0
LINE
  5
30B
100
AcDbEntity
  8
THREAD
100
AcDbLine
 62
7
  6
CONTINUOUS
 10
6.1412797642
 20
3.7106417451
 11
6.1230932307
 21
3.7421417451
  0
LINE
  5
30C
100
AcDbEntity
  8
0
100
AcDbLine
 62
7
  6
CONTINUOUS
 10
5.8663404539
 20
3.6686417451
 11
5.8449045186
 21
3.7486417451
  0
LINE
  5
30D
100
AcDbEntity
  8
0
100
AcDbLine
 62
7
  6
CONTINUOUS
 10
5.8449045186
 20
3.7486417451
 11
5.8449045186
 21
4.6646417451
  0
LINE
  5
30E
100
AcDbEntity
  8
0
100
AcDbLine
 62
7
  6
CONTINUOUS
 10
5.8663404539
 20
3.6686417451
 11
5.8663404539
 21
4.7446417451
  0
LINE
  5
30F
100
AcDbEntity
  8
0
100
AcDbLine
 62
7
  6
CONTINUOUS
 10
5.9283404539
 20
4.7446417451
 11
5.9283404539
 21
3.6686417451
  0
LINE
  5
310
100
AcDbEntity
  8
0
100
AcDbLine
 62
7
  6
CONTINUOUS
 10
5.9313404539
 20
4.7416417451
 11
5.9313404539
 21
3.6716417451
  0
LINE
  5
311
100
AcDbEntity
  8
03__ASM_ALL_CURVES
100
AcDbLine
 62
40
  6
CONTINUOUS
 10
5.9313404539
 20
4.7630292451
 11
5.9313404539
 21
5.0947087451
  0
LINE
  5
312
100
AcDbEntity
  8
0
100
AcDbLine
 62
7
  6
CONTINUOUS
 10
5.9338404539
 20
3.6805851208
 11
5.9338404539
 21
4.7326983694
  0
LINE
  5
313
100
AcDbEntity
  8
0
100
AcDbLine
 62
7
  6
CONTINUOUS
 10
5.9526968604
 20
3.6914718721
 11
5.9526968538
 21
3.6921417205
  0
LINE
  5
314
100
AcDbEntity
  8
0
100
AcDbLine
 62
7
  6
CONTINUOUS
 10
5.9526968538
 20
3.6921417205
 11
5.9526968604
 21
4.7218116181
  0
LINE
  5
315
100
AcDbEntity
  8
0
100
AcDbLine
 62
7
  6
CONTINUOUS
 10
5.9551968604
 20
3.6921417451
 11
5.9551968604
 21
4.7211417451
  0
LINE
  5
316
100
AcDbEntity
  8
THREAD
100
AcDbLine
 62
7
  6
CONTINUOUS
 10
5.9783404539
 20
3.6921417451
 11
5.9783404539
 21
4.7211417451
  0
LINE
  5
317
100
AcDbEntity
  8
03__ASM_ALL_CURVES
100
AcDbLine
 62
40
  6
CONTINUOUS
 10
5.6160899642
 20
3.4221651826
 11
5.6117803939
 21
3.4049269013
  0
LINE
  5
318
100
AcDbEntity
  8
03__ASM_ALL_CURVES
100
AcDbLine
 62
40
  6
CONTINUOUS
 10
6.1588857671
 20
5.1406774951
 11
6.1646318609
 21
5.1636618701
  0
LINE
  5
319
100
AcDbEntity
  8
THREAD
100
AcDbLine
 62
7
  6
CONTINUOUS
 10
6.1412797642
 20
4.7026417451
 11
6.1230932307
 21
4.6711417451
  0
LINE
  5
31A
100
AcDbEntity
  8
03__ASM_ALL_CURVES
100
AcDbLine
 62
40
  6
CONTINUOUS
 10
7.1299756109
 20
5.1023702037
 11
7.1184834234
 21
5.0947087451
  0
LINE
  5
31B
100
AcDbEntity
  8
03__ASM_ALL_CURVES
100
AcDbLine
 62
40
  6
CONTINUOUS
 10
7.2219131109
 20
5.1023702037
 11
7.2104209234
 21
5.0947087451
  0
LINE
  5
31C
100
AcDbEntity
  8
0
100
AcDbLine
 62
7
  6
CONTINUOUS
 10
3.7123404539
 20
4.3931417451
 11
3.6593404551
 21
4.3931417451
  0
LINE
  5
31D
100
AcDbEntity
  8
03__ASM_ALL_CURVES
100
AcDbLine
 62
40
  6
CONTINUOUS
 10
4.5557427977
 20
5.1483389516
 11
4.5672349852
 21
5.1406774951
  0
LINE
  5
31E
100
AcDbEntity
  8
03__ASM_ALL_CURVES
100
AcDbLine
 62
40
  6
CONTINUOUS
 10
4.5557427977
 20
5.1866462451
 11
4.5672349852
 21
5.1789847886
  0
LINE
  5
31F
100
AcDbEntity
  8
03__ASM_ALL_CURVES
100
AcDbLine
 62
40
  6
CONTINUOUS
 10
4.7281256102
 20
5.0947087451
 11
4.7166334227
 21
5.1023702037
  0
LINE
  5
320
100
AcDbEntity
  8
03__ASM_ALL_CURVES
100
AcDbLine
 62
40
  6
CONTINUOUS
 10
4.8200631102
 20
5.0947087451
 11
4.8085709227
 21
5.1023702037
  0
LINE
  5
321
100
AcDbEntity
  8
03__ASM_ALL_CURVES
100
AcDbLine
 62
40
  6
CONTINUOUS
 10
4.7396177977
 20
5.1560004136
 11
4.7511099852
 21
5.1483389516
  0
LINE
  5
322
100
AcDbEntity
  8
03__ASM_ALL_CURVES
100
AcDbLine
 62
40
  6
CONTINUOUS
 10
4.8200631102
 20
5.1483389516
 11
4.8085709227
 21
5.1560004136
  0
LINE
  5
323
100
AcDbEntity
  8
03__ASM_ALL_CURVES
100
AcDbLine
 62
40
  6
CONTINUOUS
 10
5.1878131102
 20
5.1866462451
 11
5.1993052977
 21
5.1713233266
  0
LINE
  5
324
100
AcDbEntity
  8
03__ASM_ALL_CURVES
100
AcDbLine
 62
40
  6
CONTINUOUS
 10
6.6494586064
 20
3.393434714
 11
6.6408394658
 21
3.4049269013
  0
LINE
  5
325
100
AcDbEntity
  8
03__ASM_ALL_CURVES
100
AcDbLine
 62
40
  6
CONTINUOUS
 10
6.6063629033
 20
3.4508956527
 11
6.6106724736
 21
3.4451495562
  0
LINE
  5
326
100
AcDbEntity
  8
03__ASM_ALL_CURVES
100
AcDbLine
 62
40
  6
CONTINUOUS
 10
6.0416654539
 20
5.0763212451
 11
6.0416654539
 21
5.0395462451
  0
LINE
  5
327
100
AcDbEntity
  8
0
100
AcDbLine
 62
7
  6
CONTINUOUS
 10
6.0483404539
 20
3.6946417451
 11
6.0483404539
 21
4.7186417451
  0
LINE
  5
328
100
AcDbEntity
  8
03__ASM_ALL_CURVES
100
AcDbLine
 62
40
  6
CONTINUOUS
 10
6.0784404546
 20
5.1866462451
 11
6.0784404546
 21
5.0947087451
  0
LINE
  5
329
100
AcDbEntity
  8
0
100
AcDbLine
 62
7
  6
CONTINUOUS
 10
6.0983404539
 20
3.6946417451
 11
6.0983404539
 21
4.7186417451
  0
LINE
  5
32A
100
AcDbEntity
  8
THREAD
100
AcDbLine
 62
7
  6
CONTINUOUS
 10
6.1118349004
 20
3.7486417451
 11
6.1118349004
 21
4.6646417451
  0
LINE
  5
32B
100
AcDbEntity
  8
THREAD
100
AcDbLine
 62
7
  6
CONTINUOUS
 10
6.1230932307
 20
3.7421417451
 11
6.1230932307
 21
4.6711417451
  0
LINE
  5
32C
100
AcDbEntity
  8
03__ASM_ALL_CURVES
100
AcDbLine
 62
40
  6
CONTINUOUS
 10
6.2278388921
 20
5.1406774951
 11
6.2220927984
 21
5.1176931201
  0
LINE
  5
32D
100
AcDbEntity
  8
03__ASM_ALL_CURVES
100
AcDbLine
 62
40
  6
CONTINUOUS
 10
6.2508232671
 20
5.1406774951
 11
6.2565693609
 21
5.1636618701
  0
LINE
  5
32E
100
AcDbEntity
  8
03__ASM_ALL_CURVES
100
AcDbLine
 62
40
  6
CONTINUOUS
 10
6.3485068609
 20
5.0947087451
 11
6.3772373296
 21
5.1866462451
  0
LINE
  5
32F
100
AcDbEntity
  8
03__ASM_ALL_CURVES
100
AcDbLine
 62
40
  6
CONTINUOUS
 10
6.7162568609
 20
5.1636618701
 11
6.7277490484
 21
5.1789847886
  0
LINE
  5
330
100
AcDbEntity
  8
03__ASM_ALL_CURVES
100
AcDbLine
 62
40
  6
CONTINUOUS
 10
6.7679717046
 20
5.1100316622
 11
6.7622256109
 21
5.1023702037
  0
LINE
  5
331
100
AcDbEntity
  8
03__ASM_ALL_CURVES
100
AcDbLine
 62
40
  6
CONTINUOUS
 10
5.5385176986
 20
3.4336573715
 11
5.5342081283
 21
3.427911275
  0
LINE
  5
332
100
AcDbEntity
  8
03__ASM_ALL_CURVES
100
AcDbLine
 62
40
  6
CONTINUOUS
 10
5.5686846908
 20
3.4394034638
 11
5.5773038314
 21
3.4508956527
  0
LINE
  5
333
100
AcDbEntity
  8
03__ASM_ALL_CURVES
100
AcDbLine
 62
40
  6
CONTINUOUS
 10
7.4000420171
 20
5.1023702037
 11
7.3885498296
 21
5.0947087451
  0
LINE
  5
334
100
AcDbEntity
  8
03__ASM_ALL_CURVES
100
AcDbLine
 62
40
  6
CONTINUOUS
 10
7.5896631109
 20
5.1483389516
 11
7.5781709234
 21
5.1406774951
  0
LINE
  5
335
100
AcDbEntity
  8
0
100
AcDbLine
 62
7
  6
CONTINUOUS
 10
3.7138009869
 20
4.4876669886
 11
3.9313396534
 21
4.4876669886
  0
LINE
  5
336
100
AcDbEntity
  8
0
100
AcDbLine
 62
7
  6
CONTINUOUS
 10
5.0639148281
 20
4.499162364
 11
4.4769511252
 21
4.499162364
  0
LINE
  5
337
100
AcDbEntity
  8
0
100
AcDbLine
 62
7
  6
CONTINUOUS
 10
5.0639148281
 20
4.5475064356
 11
4.4769511252
 21
4.5475064356
  0
LINE
  5
338
100
AcDbEntity
  8
0
100
AcDbLine
 62
7
  6
CONTINUOUS
 10
6.7908731646
 20
4.5807917451
 11
6.9788404539
 21
4.5807917451
  0
LINE
  5
339
100
AcDbEntity
  8
0
100
AcDbLine
 62
7
  6
CONTINUOUS
 10
7.2208404539
 20
4.5886417451
 11
7.2488404539
 21
4.5886417451
  0
LINE
  5
33A
100
AcDbEntity
  8
0
100
AcDbLine
 62
7
  6
CONTINUOUS
 10
6.5563404539
 20
4.6126417451
 11
6.6018404539
 21
4.6126417451
  0
LINE
  5
33B
100
AcDbEntity
  8
03__ASM_ALL_CURVES
100
AcDbLine
 62
40
  6
CONTINUOUS
 10
4.8315552977
 20
5.1483389516
 11
4.8430474852
 21
5.1406774951
  0
LINE
  5
33C
100
AcDbEntity
  8
03__ASM_ALL_CURVES
100
AcDbLine
 62
40
  6
CONTINUOUS
 10
4.8315552977
 20
5.1866462451
 11
4.8430474852
 21
5.1789847886
  0
LINE
  5
33D
100
AcDbEntity
  8
03__ASM_ALL_CURVES
100
AcDbLine
 62
40
  6
CONTINUOUS
 10
6.6753160283
 20
3.4508956527
 11
6.6839351689
 21
3.4394034638
  0
LINE
  5
33E
100
AcDbEntity
  8
03__ASM_ALL_CURVES
100
AcDbLine
 62
40
  6
CONTINUOUS
 10
6.7442691533
 20
3.4508956527
 11
6.7485787236
 21
3.4451495562
  0
LINE
  5
33F
100
AcDbEntity
  8
THREAD
100
AcDbLine
 62
7
  6
CONTINUOUS
 10
6.1412797642
 20
3.7106417451
 11
6.1412797642
 21
4.7026417451
  0
LINE
  5
340
100
AcDbEntity
  8
03__ASM_ALL_CURVES
100
AcDbLine
 62
40
  6
CONTINUOUS
 10
6.9116240484
 20
5.1789847886
 11
6.9058779546
 21
5.1713233266
  0
LINE
  5
341
100
AcDbEntity
  8
03__ASM_ALL_CURVES
100
AcDbLine
 62
40
  6
CONTINUOUS
 10
5.6117803939
 20
3.4049269013
 11
5.6031612533
 21
3.393434714
  0
LINE
  5
342
100
AcDbEntity
  8
03__ASM_ALL_CURVES
100
AcDbLine
 62
40
  6
CONTINUOUS
 10
5.6764239486
 20
3.4336573715
 11
5.6721143783
 21
3.427911275
  0
LINE
  5
343
100
AcDbEntity
  8
03__ASM_ALL_CURVES
100
AcDbLine
 62
40
  6
CONTINUOUS
 10
6.9518467046
 20
5.1100316622
 11
6.9461006109
 21
5.1023702037
  0
LINE
  5
344
100
AcDbEntity
  8
0
100
AcDbLine
 62
7
  6
CONTINUOUS
 10
7.0508404539
 20
4.6426417451
 11
7.1008404539
 21
4.6426417451
  0
LINE
  5
345
100
AcDbEntity
  8
0
100
AcDbLine
 62
7
  6
CONTINUOUS
 10
7.1708404539
 20
4.6426417451
 11
7.2208404539
 21
4.6426417451
  0
LINE
  5
346
100
AcDbEntity
  8
0
100
AcDbLine
 62
7
  6
CONTINUOUS
 10
7.2898404539
 20
4.6431417451
 11
7.2488404539
 21
4.6431417451
  0
LINE
  5
347
100
AcDbEntity
  8
0
100
AcDbLine
 62
7
  6
CONTINUOUS
 10
7.0508404539
 20
4.6431417451
 11
6.9948404539
 21
4.6431417451
  0
LINE
  5
348
100
AcDbEntity
  8
THREAD
100
AcDbLine
 62
7
  6
CONTINUOUS
 10
6.5403404539
 20
4.6586417451
 11
6.4563404539
 21
4.6586417451
  0
LINE
  5
349
100
AcDbEntity
  8
THREAD
100
AcDbLine
 62
7
  6
CONTINUOUS
 10
6.1118349004
 20
4.6646417451
 11
6.0983404539
 21
4.6646417451
  0
LINE
  5
34A
100
AcDbEntity
  8
0
100
AcDbLine
 62
7
  6
CONTINUOUS
 10
5.8449045186
 20
4.6646417451
 11
5.5137763893
 21
4.6646417451
  0
LINE
  5
34B
100
AcDbEntity
  8
0
100
AcDbLine
 62
7
  6
CONTINUOUS
 10
5.4473404539
 20
4.6891417451
 11
5.4263404539
 21
4.6891417451
  0
LINE
  5
34C
100
AcDbEntity
  8
THREAD
100
AcDbLine
 62
7
  6
CONTINUOUS
 10
6.4123404539
 20
4.7026417451
 11
6.1412797642
 21
4.7026417451
  0
LINE
  5
34D
100
AcDbEntity
  8
0
100
AcDbLine
 62
7
  6
CONTINUOUS
 10
4.4313404539
 20
4.7036417451
 11
3.9933404539
 21
4.7036417451
  0
LINE
  5
34E
100
AcDbEntity
  8
0
100
AcDbLine
 62
7
  6
CONTINUOUS
 10
6.0483404539
 20
4.7186417451
 11
6.0983404539
 21
4.7186417451
  0
LINE
  5
34F
100
AcDbEntity
  8
THREAD
100
AcDbLine
 62
7
  6
CONTINUOUS
 10
5.9783404539
 20
4.7211417451
 11
5.9551968604
 21
4.7211417451
  0
LINE
  5
350
100
AcDbEntity
  8
0
100
AcDbLine
 62
7
  6
CONTINUOUS
 10
5.3063404539
 20
4.7431417451
 11
5.3563404539
 21
4.7431417451
  0
LINE
  5
351
100
AcDbEntity
  8
0
100
AcDbLine
 62
7
  6
CONTINUOUS
 10
5.9283404539
 20
4.7446417451
 11
5.8663404539
 21
4.7446417451
  0
LINE
  5
352
100
AcDbEntity
  8
0
100
AcDbLine
 62
7
  6
CONTINUOUS
 10
5.4923404539
 20
4.7446417451
 11
5.4473404539
 21
4.7446417451
  0
LINE
  5
353
100
AcDbEntity
  8
0
100
AcDbLine
 62
7
  6
CONTINUOUS
 10
5.3063404539
 20
4.7446417451
 11
5.1193404539
 21
4.7446417451
  0
LINE
  5
354
100
AcDbEntity
  8
03__ASM_ALL_CURVES
100
AcDbLine
 62
40
  6
CONTINUOUS
 10
3.7386654539
 20
5.0426108284
 11
3.6283404539
 21
5.0579337451
  0
LINE
  5
355
100
AcDbEntity
  8
03__ASM_ALL_CURVES
100
AcDbLine
 62
40
  6
CONTINUOUS
 10
3.7386654539
 20
5.0395462451
 11
3.6283404539
 21
5.0579337451
  0
LINE
  5
356
100
AcDbEntity
  8
0
100
AcDbLine
 62
7
  6
CONTINUOUS
 10
5.9526968604
 20
4.7218116181
 11
5.9551968604
 21
4.7211417451
  0
LINE
  5
357
100
AcDbEntity
  8
THREAD
100
AcDbLine
 62
7
  6
CONTINUOUS
 10
5.9526968604
 20
4.7218116181
 11
5.9338404539
 21
4.7326983694
  0
LINE
  5
358
100
AcDbEntity
  8
03__ASM_ALL_CURVES
100
AcDbLine
 62
40
  6
CONTINUOUS
 10
6.8821754033
 20
3.4508956527
 11
6.8864849736
 21
3.4451495562
  0
LINE
  5
359
100
AcDbEntity
  8
THREAD
100
AcDbLine
 62
7
  6
CONTINUOUS
 10
6.4123404539
 20
3.7106417451
 11
6.4123404539
 21
4.7026417451
  0
LINE
  5
35A
100
AcDbEntity
  8
03__ASM_ALL_CURVES
100
AcDbLine
 62
40
  6
CONTINUOUS
 10
7.0840068609
 20
5.1636618701
 11
7.0954990484
 21
5.1789847886
  0
LINE
  5
35B
100
AcDbEntity
  8
03__ASM_ALL_CURVES
100
AcDbLine
 62
40
  6
CONTINUOUS
 10
5.8143301986
 20
3.4394034638
 11
5.8100206283
 21
3.4336573715
  0
LINE
  5
35C
100
AcDbEntity
  8
03__ASM_ALL_CURVES
100
AcDbLine
 62
40
  6
CONTINUOUS
 10
5.8186397689
 20
3.4049269013
 11
5.8100206283
 21
3.393434714
  0
LINE
  5
35D
100
AcDbEntity
  8
03__ASM_ALL_CURVES
100
AcDbLine
 62
40
  6
CONTINUOUS
 10
7.1414677984
 20
5.1176931201
 11
7.1299756109
 21
5.1023702037
  0
LINE
  5
35E
100
AcDbEntity
  8
03__ASM_ALL_CURVES
100
AcDbLine
 62
40
  6
CONTINUOUS
 10
7.2276592046
 20
5.1100316622
 11
7.2219131109
 21
5.1023702037
  0
LINE
  5
35F
100
AcDbEntity
  8
03__ASM_ALL_CURVES
100
AcDbLine
 62
40
  6
CONTINUOUS
 10
5.5342081283
 20
3.427911275
 11
5.5255889877
 21
3.4221651826
  0
LINE
  5
360
100
AcDbEntity
  8
03__ASM_ALL_CURVES
100
AcDbLine
 62
40
  6
CONTINUOUS
 10
5.5773038314
 20
3.4508956527
 11
5.585922972
 21
3.4566417451
  0
LINE
  5
361
100
AcDbEntity
  8
03__ASM_ALL_CURVES
100
AcDbLine
 62
40
  6
CONTINUOUS
 10
5.6031612533
 20
3.393434714
 11
5.5945421127
 21
3.3876886201
  0
LINE
  5
362
100
AcDbEntity
  8
03__ASM_ALL_CURVES
100
AcDbLine
 62
40
  6
CONTINUOUS
 10
5.6721143783
 20
3.427911275
 11
5.6634952377
 21
3.4221651826
  0
LINE
  5
363
100
AcDbEntity
  8
THREAD
100
AcDbLine
 62
7
  6
CONTINUOUS
 10
5.9526968604
 20
3.6914718721
 11
5.9338404539
 21
3.6805851208
  0
LINE
  5
364
100
AcDbEntity
  8
0
100
AcDbLine
 62
7
  6
CONTINUOUS
 10
5.0639148281
 20
4.8400270546
 11
4.4769511252
 21
4.8400270546
  0
LINE
  5
365
100
AcDbEntity
  8
0
100
AcDbLine
 62
7
  6
CONTINUOUS
 10
5.0639148281
 20
4.8406417451
 11
4.4769511252
 21
4.8406417451
  0
LINE
  5
366
100
AcDbEntity
  8
03__ASM_ALL_CURVES
100
AcDbLine
 62
40
  6
CONTINUOUS
 10
3.7386654539
 20
5.0487399951
 11
3.6283404539
 21
5.0579337451
  0
LINE
  5
367
100
AcDbEntity
  8
03__ASM_ALL_CURVES
100
AcDbLine
 62
40
  6
CONTINUOUS
 10
3.7386654539
 20
5.0456754118
 11
3.6283404539
 21
5.0579337451
  0
LINE
  5
368
100
AcDbEntity
  8
0
100
AcDbLine
 62
7
  6
CONTINUOUS
 10
6.6018404539
 20
4.6126417451
 11
6.602334718
 21
4.6124618477
  0
LINE
  5
369
100
AcDbEntity
  8
03__ASM_ALL_CURVES
100
AcDbLine
 62
40
  6
CONTINUOUS
 10
6.7356500126
 20
3.4221651826
 11
6.7485787236
 21
3.3876886201
  0
LINE
  5
36A
100
AcDbEntity
  8
03__ASM_ALL_CURVES
100
AcDbLine
 62
40
  6
CONTINUOUS
 10
6.1646318609
 20
5.1176931201
 11
6.1588857671
 21
5.1406774951
  0
LINE
  5
36B
100
AcDbEntity
  8
03__ASM_ALL_CURVES
100
AcDbLine
 62
40
  6
CONTINUOUS
 10
6.6408394658
 20
3.4049269013
 11
6.6365298955
 21
3.4221651826
  0
LINE
  5
36C
100
AcDbEntity
  8
03__ASM_ALL_CURVES
100
AcDbLine
 62
40
  6
CONTINUOUS
 10
6.2220927984
 20
5.1636618701
 11
6.2278388921
 21
5.1406774951
  0
LINE
  5
36D
100
AcDbEntity
  8
03__ASM_ALL_CURVES
100
AcDbLine
 62
40
  6
CONTINUOUS
 10
6.2565693609
 20
5.1176931201
 11
6.2508232671
 21
5.1406774951
  0
LINE
  5
36E
100
AcDbEntity
  8
THREAD
100
AcDbLine
 62
7
  6
CONTINUOUS
 10
6.4563404539
 20
3.7546417451
 11
6.4563404539
 21
4.6586417451
  0
LINE
  5
36F
100
AcDbEntity
  8
03__ASM_ALL_CURVES
100
AcDbLine
 62
40
  6
CONTINUOUS
 10
6.4691748296
 20
5.1866462451
 11
6.4691748296
 21
5.0947087451
  0
LINE
  5
370
100
AcDbEntity
  8
0
100
AcDbLine
 62
7
  6
CONTINUOUS
 10
6.5403404539
 20
3.7546417451
 11
6.5403404539
 21
4.6586417451
  0
LINE
  5
371
100
AcDbEntity
  8
0
100
AcDbLine
 62
7
  6
CONTINUOUS
 10
6.5563404539
 20
3.7706417451
 11
6.5563404539
 21
4.6426417451
  0
LINE
  5
372
100
AcDbEntity
  8
03__ASM_ALL_CURVES
100
AcDbLine
 62
40
  6
CONTINUOUS
 10
6.5611123296
 20
5.1866462451
 11
6.5611123296
 21
5.0947087451
  0
LINE
  5
373
100
AcDbEntity
  8
03__ASM_ALL_CURVES
100
AcDbLine
 62
40
  6
CONTINUOUS
 10
6.5761959111
 20
3.3876886201
 11
6.5761959111
 21
3.4566417451
  0
LINE
  5
374
100
AcDbEntity
  8
0
100
AcDbLine
 62
7
  6
CONTINUOUS
 10
6.6018404539
 20
4.6126417451
 11
6.6018404539
 21
3.8006417451
  0
LINE
  5
375
100
AcDbEntity
  8
03__ASM_ALL_CURVES
100
AcDbLine
 62
40
  6
CONTINUOUS
 10
6.7105107671
 20
5.1406774951
 11
6.7162568609
 21
5.1636618701
  0
LINE
  5
376
100
AcDbEntity
  8
03__ASM_ALL_CURVES
100
AcDbLine
 62
40
  6
CONTINUOUS
 10
7.4115342046
 20
5.1176931201
 11
7.4000420171
 21
5.1023702037
  0
LINE
  5
377
100
AcDbEntity
  8
03__ASM_ALL_CURVES
100
AcDbLine
 62
40
  6
CONTINUOUS
 10
5.7841632064
 20
3.4508956527
 11
5.792782347
 21
3.4566417451
  0
LINE
  5
378
100
AcDbEntity
  8
03__ASM_ALL_CURVES
100
AcDbLine
 62
40
  6
CONTINUOUS
 10
5.8100206283
 20
3.4336573715
 11
5.8014014877
 21
3.427911275
  0
LINE
  5
379
100
AcDbEntity
  8
03__ASM_ALL_CURVES
100
AcDbLine
 62
40
  6
CONTINUOUS
 10
5.8100206283
 20
3.393434714
 11
5.8014014877
 21
3.3876886201
  0
LINE
  5
37A
100
AcDbEntity
  8
0
100
AcDbLine
 62
7
  6
CONTINUOUS
 10
6.6018404539
 20
3.8006417451
 11
6.602334718
 21
3.8008216425
  0
LINE
  5
37B
100
AcDbEntity
  8
03__ASM_ALL_CURVES
100
AcDbLine
 62
40
  6
CONTINUOUS
 10
5.8210154539
 20
5.0395462451
 11
6.0416654539
 21
5.0763212451
  0
LINE
  5
37C
100
AcDbEntity
  8
03__ASM_ALL_CURVES
100
AcDbLine
 62
40
  6
CONTINUOUS
 10
5.8210154539
 20
5.0426108284
 11
6.0416654539
 21
5.0732566618
  0
LINE
  5
37D
100
AcDbEntity
  8
03__ASM_ALL_CURVES
100
AcDbLine
 62
40
  6
CONTINUOUS
 10
5.8210154539
 20
5.0456754118
 11
6.0416654539
 21
5.0701920784
  0
LINE
  5
37E
100
AcDbEntity
  8
03__ASM_ALL_CURVES
100
AcDbLine
 62
40
  6
CONTINUOUS
 10
5.8210154539
 20
5.0487399951
 11
6.0416654539
 21
5.0671274951
  0
LINE
  5
37F
100
AcDbEntity
  8
03__ASM_ALL_CURVES
100
AcDbLine
 62
40
  6
CONTINUOUS
 10
5.8210154539
 20
5.0518045784
 11
6.0416654539
 21
5.0640629118
  0
LINE
  5
380
100
AcDbEntity
  8
03__ASM_ALL_CURVES
100
AcDbLine
 62
40
  6
CONTINUOUS
 10
5.8210154539
 20
5.0548691618
 11
6.0416654539
 21
5.0609983284
  0
LINE
  5
381
100
AcDbEntity
  8
03__ASM_ALL_CURVES
100
AcDbLine
 62
40
  6
CONTINUOUS
 10
3.6283404539
 20
5.0579337451
 11
7.6965404539
 21
5.0579337451
  0
LINE
  5
382
100
AcDbEntity
  8
03__ASM_ALL_CURVES
100
AcDbLine
 62
40
  6
CONTINUOUS
 10
3.7386654539
 20
5.0548691618
 11
3.6283404539
 21
5.0579337451
  0
LINE
  5
383
100
AcDbEntity
  8
03__ASM_ALL_CURVES
100
AcDbLine
 62
40
  6
CONTINUOUS
 10
5.8210154539
 20
5.0609983284
 11
6.0416654539
 21
5.0548691618
  0
LINE
  5
384
100
AcDbEntity
  8
03__ASM_ALL_CURVES
100
AcDbLine
 62
40
  6
CONTINUOUS
 10
3.7386654539
 20
5.0518045784
 11
3.6283404539
 21
5.0579337451
  0
LINE
  5
385
100
AcDbEntity
  8
03__ASM_ALL_CURVES
100
AcDbLine
 62
40
  6
CONTINUOUS
 10
5.8210154539
 20
5.0640629118
 11
6.0416654539
 21
5.0518045784
  0
LINE
  5
386
100
AcDbEntity
  8
03__ASM_ALL_CURVES
100
AcDbLine
 62
40
  6
CONTINUOUS
 10
5.8210154539
 20
5.0671274951
 11
6.0416654539
 21
5.0487399951
  0
LINE
  5
387
100
AcDbEntity
  8
03__ASM_ALL_CURVES
100
AcDbLine
 62
40
  6
CONTINUOUS
 10
5.8210154539
 20
5.0701920784
 11
6.0416654539
 21
5.0456754118
  0
LINE
  5
388
100
AcDbEntity
  8
03__ASM_ALL_CURVES
100
AcDbLine
 62
40
  6
CONTINUOUS
 10
5.8210154539
 20
5.0732566618
 11
6.0416654539
 21
5.0426108284
  0
LINE
  5
389
100
AcDbEntity
  8
03__ASM_ALL_CURVES
100
AcDbLine
 62
40
  6
CONTINUOUS
 10
6.0416654539
 20
5.0395462451
 11
5.8210154539
 21
5.0763212451
  0
LINE
  5
38A
100
AcDbEntity
  8
THREAD
100
AcDbLine
 62
7
  6
CONTINUOUS
 10
6.4563404539
 20
4.6586417451
 11
6.4123404539
 21
4.7026417451
  0
LINE
  5
38B
100
AcDbEntity
  8
0
100
AcDbLine
 62
7
  6
CONTINUOUS
 10
6.5563404539
 20
4.6426417451
 11
6.5403404539
 21
4.6586417451
  0
LINE
  5
38C
100
AcDbEntity
  8
03__ASM_ALL_CURVES
100
AcDbLine
 62
40
  6
CONTINUOUS
 10
6.1761240484
 20
5.1023702037
 11
6.1646318609
 21
5.1176931201
  0
LINE
  5
38D
100
AcDbEntity
  8
03__ASM_ALL_CURVES
100
AcDbLine
 62
40
  6
CONTINUOUS
 10
6.6839351689
 20
3.4394034638
 11
6.6882447392
 21
3.4221651826
  0
LINE
  5
38E
100
AcDbEntity
  8
03__ASM_ALL_CURVES
100
AcDbLine
 62
40
  6
CONTINUOUS
 10
6.6106724736
 20
3.4451495562
 11
6.6106724736
 21
3.4336573715
  0
LINE
  5
38F
100
AcDbEntity
  8
03__ASM_ALL_CURVES
100
AcDbLine
 62
40
  6
CONTINUOUS
 10
6.6300654546
 20
5.0947087451
 11
6.6300654546
 21
5.1866462451
  0
LINE
  5
390
100
AcDbEntity
  8
03__ASM_ALL_CURVES
100
AcDbLine
 62
40
  6
CONTINUOUS
 10
6.6760342046
 20
5.0947087451
 11
6.6760342046
 21
5.1866462451
  0
LINE
  5
391
100
AcDbEntity
  8
0
100
AcDbLine
 62
7
  6
CONTINUOUS
 10
6.6893476098
 20
3.9441891508
 11
6.6893476098
 21
3.8444822462
  0
LINE
  5
392
100
AcDbEntity
  8
0
100
AcDbLine
 62
7
  6
CONTINUOUS
 10
6.6893476098
 20
4.1069348405
 11
6.6893476098
 21
4.3063486497
  0
LINE
  5
393
100
AcDbEntity
  8
0
100
AcDbLine
 62
7
  6
CONTINUOUS
 10
6.6893476098
 20
4.4690943394
 11
6.6893476098
 21
4.568801244
  0
LINE
  5
394
100
AcDbEntity
  8
03__ASM_ALL_CURVES
100
AcDbLine
 62
40
  6
CONTINUOUS
 10
6.7141021611
 20
3.3876886201
 11
6.7141021611
 21
3.4566417451
  0
LINE
  5
395
100
AcDbEntity
  8
03__ASM_ALL_CURVES
100
AcDbLine
 62
40
  6
CONTINUOUS
 10
6.7485787236
 20
3.4451495562
 11
6.7485787236
 21
3.4336573715
  0
LINE
  5
396
100
AcDbEntity
  8
03__ASM_ALL_CURVES
100
AcDbLine
 62
40
  6
CONTINUOUS
 10
7.5954092046
 20
5.1560004136
 11
7.5896631109
 21
5.1483389516
  0
LINE
  5
397
100
AcDbEntity
  8
THREAD
100
AcDbLine
 62
7
  6
CONTINUOUS
 10
6.4563404539
 20
3.7546417451
 11
6.4123404539
 21
3.7106417451
  0
LINE
  5
398
100
AcDbEntity
  8
0
100
AcDbLine
 62
7
  6
CONTINUOUS
 10
6.5563404539
 20
3.7706417451
 11
6.5403404539
 21
3.7546417451
  0
LINE
  5
399
100
AcDbEntity
  8
03__ASM_ALL_CURVES
100
AcDbLine
 62
40
  6
CONTINUOUS
 10
3.7386654539
 20
5.0671274951
 11
3.6283404539
 21
5.0579337451
  0
LINE
  5
39A
100
AcDbEntity
  8
03__ASM_ALL_CURVES
100
AcDbLine
 62
40
  6
CONTINUOUS
 10
3.7386654539
 20
5.0640629118
 11
3.6283404539
 21
5.0579337451
  0
LINE
  5
39B
100
AcDbEntity
  8
03__ASM_ALL_CURVES
100
AcDbLine
 62
40
  6
CONTINUOUS
 10
3.7386654539
 20
5.0609983284
 11
3.6283404539
 21
5.0579337451
  0
LINE
  5
39C
100
AcDbEntity
  8
03__ASM_ALL_CURVES
100
AcDbLine
 62
40
  6
CONTINUOUS
 10
7.5034717046
 20
5.0947087451
 11
7.4575029546
 21
5.0947087451
  0
LINE
  5
39D
100
AcDbEntity
  8
03__ASM_ALL_CURVES
100
AcDbLine
 62
40
  6
CONTINUOUS
 10
7.3885498296
 20
5.0947087451
 11
7.3655654546
 21
5.0947087451
  0
LINE
  5
39E
100
AcDbEntity
  8
03__ASM_ALL_CURVES
100
AcDbLine
 62
40
  6
CONTINUOUS
 10
7.2104209234
 20
5.0947087451
 11
7.1989287359
 21
5.0947087451
  0
LINE
  5
39F
100
AcDbEntity
  8
03__ASM_ALL_CURVES
100
AcDbLine
 62
40
  6
CONTINUOUS
 10
7.1184834234
 20
5.0947087451
 11
7.1069912359
 21
5.0947087451
  0
LINE
  5
3A0
100
AcDbEntity
  8
03__ASM_ALL_CURVES
100
AcDbLine
 62
40
  6
CONTINUOUS
 10
6.9346084234
 20
5.0947087451
 11
6.9231162359
 21
5.0947087451
  0
LINE
  5
3A1
100
AcDbEntity
  8
03__ASM_ALL_CURVES
100
AcDbLine
 62
40
  6
CONTINUOUS
 10
6.7507334234
 20
5.0947087451
 11
6.7392412359
 21
5.0947087451
  0
LINE
  5
3A2
100
AcDbEntity
  8
03__ASM_ALL_CURVES
100
AcDbLine
 62
40
  6
CONTINUOUS
 10
6.2910459234
 20
5.0947087451
 11
6.2795537359
 21
5.0947087451
  0
LINE
  5
3A3
100
AcDbEntity
  8
03__ASM_ALL_CURVES
100
AcDbLine
 62
40
  6
CONTINUOUS
 10
6.1991084234
 20
5.0947087451
 11
6.1876162359
 21
5.0947087451
  0
LINE
  5
3A4
100
AcDbEntity
  8
03__ASM_ALL_CURVES
100
AcDbLine
 62
40
  6
CONTINUOUS
 10
4.9177467039
 20
5.0947087451
 11
4.9120006102
 21
5.0947087451
  0
LINE
  5
3A5
100
AcDbEntity
  8
03__ASM_ALL_CURVES
100
AcDbLine
 62
40
  6
CONTINUOUS
 10
4.8315552977
 20
5.0947087451
 11
4.8200631102
 21
5.0947087451
  0
LINE
  5
3A6
100
AcDbEntity
  8
03__ASM_ALL_CURVES
100
AcDbLine
 62
40
  6
CONTINUOUS
 10
4.7396177977
 20
5.0947087451
 11
4.7281256102
 21
5.0947087451
  0
LINE
  5
3A7
100
AcDbEntity
  8
03__ASM_ALL_CURVES
100
AcDbLine
 62
40
  6
CONTINUOUS
 10
4.5557427977
 20
5.0947087451
 11
4.5442506102
 21
5.0947087451
  0
LINE
  5
3A8
100
AcDbEntity
  8
03__ASM_ALL_CURVES
100
AcDbLine
 62
40
  6
CONTINUOUS
 10
4.4580592039
 20
5.0947087451
 11
4.4523131102
 21
5.0947087451
  0
LINE
  5
3A9
100
AcDbEntity
  8
03__ASM_ALL_CURVES
100
AcDbLine
 62
40
  6
CONTINUOUS
 10
4.3431373289
 20
5.0947087451
 11
4.3891060789
 21
5.0947087451
  0
LINE
  5
3AA
100
AcDbEntity
  8
03__ASM_ALL_CURVES
100
AcDbLine
 62
40
  6
CONTINUOUS
 10
6.0784404546
 20
5.0947087451
 11
6.1244092046
 21
5.0947087451
  0
LINE
  5
3AB
100
AcDbEntity
  8
03__ASM_ALL_CURVES
100
AcDbLine
 62
40
  6
CONTINUOUS
 10
7.2736279546
 20
5.0947087451
 11
7.3195967046
 21
5.0947087451
  0
LINE
  5
3AC
100
AcDbEntity
  8
03__ASM_ALL_CURVES
100
AcDbLine
 62
40
  6
CONTINUOUS
 10
4.9866998289
 20
5.1176931201
 11
5.0384146727
 21
5.1176931201
  0
LINE
  5
3AD
100
AcDbEntity
  8
03__ASM_ALL_CURVES
100
AcDbLine
 62
40
  6
CONTINUOUS
 10
6.3599990484
 20
5.1253545793
 11
6.3944756109
 21
5.1253545793
  0
LINE
  5
3AE
100
AcDbEntity
  8
03__ASM_ALL_CURVES
100
AcDbLine
 62
40
  6
CONTINUOUS
 10
7.5781709234
 20
5.1406774951
 11
7.5494404546
 21
5.1406774951
  0
LINE
  5
3AF
100
AcDbEntity
  8
03__ASM_ALL_CURVES
100
AcDbLine
 62
40
  6
CONTINUOUS
 10
6.7449873296
 20
5.1406774951
 11
6.7679717046
 21
5.1406774951
  0
LINE
  5
3B0
100
AcDbEntity
  8
03__ASM_ALL_CURVES
100
AcDbLine
 62
40
  6
CONTINUOUS
 10
6.9978154546
 20
5.1406774951
 11
7.0437842046
 21
5.1406774951
  0
LINE
  5
3B1
100
AcDbEntity
  8
03__ASM_ALL_CURVES
100
AcDbLine
 62
40
  6
CONTINUOUS
 10
7.4575029546
 20
5.1406774951
 11
7.4862334234
 21
5.1406774951
  0
LINE
  5
3B2
100
AcDbEntity
  8
03__ASM_ALL_CURVES
100
AcDbLine
 62
40
  6
CONTINUOUS
 10
4.5442506102
 20
5.1483389516
 11
4.5557427977
 21
5.1483389516
  0
LINE
  5
3B3
100
AcDbEntity
  8
03__ASM_ALL_CURVES
100
AcDbLine
 62
40
  6
CONTINUOUS
 10
4.8200631102
 20
5.1483389516
 11
4.8315552977
 21
5.1483389516
  0
LINE
  5
3B4
100
AcDbEntity
  8
03__ASM_ALL_CURVES
100
AcDbLine
 62
40
  6
CONTINUOUS
 10
4.7281256102
 20
5.1560004136
 11
4.7396177977
 21
5.1560004136
  0
LINE
  5
3B5
100
AcDbEntity
  8
03__ASM_ALL_CURVES
100
AcDbLine
 62
40
  6
CONTINUOUS
 10
6.9346084234
 20
5.1866462451
 11
6.9231162359
 21
5.1866462451
  0
LINE
  5
3B6
100
AcDbEntity
  8
03__ASM_ALL_CURVES
100
AcDbLine
 62
40
  6
CONTINUOUS
 10
4.7568560789
 20
5.1866462451
 11
4.7223795164
 21
5.1866462451
  0
LINE
  5
3B7
100
AcDbEntity
  8
03__ASM_ALL_CURVES
100
AcDbLine
 62
40
  6
CONTINUOUS
 10
4.3603756102
 20
5.1866462451
 11
4.3718677977
 21
5.1866462451
  0
LINE
  5
3B8
100
AcDbEntity
  8
03__ASM_ALL_CURVES
100
AcDbLine
 62
40
  6
CONTINUOUS
 10
4.5442506102
 20
5.1866462451
 11
4.5557427977
 21
5.1866462451
  0
LINE
  5
3B9
100
AcDbEntity
  8
03__ASM_ALL_CURVES
100
AcDbLine
 62
40
  6
CONTINUOUS
 10
4.8200631102
 20
5.1866462451
 11
4.8315552977
 21
5.1866462451
  0
LINE
  5
3BA
100
AcDbEntity
  8
03__ASM_ALL_CURVES
100
AcDbLine
 62
40
  6
CONTINUOUS
 10
6.1876162359
 20
5.1866462451
 11
6.1991084234
 21
5.1866462451
  0
LINE
  5
3BB
100
AcDbEntity
  8
03__ASM_ALL_CURVES
100
AcDbLine
 62
40
  6
CONTINUOUS
 10
6.2795537359
 20
5.1866462451
 11
6.2910459234
 21
5.1866462451
  0
LINE
  5
3BC
100
AcDbEntity
  8
03__ASM_ALL_CURVES
100
AcDbLine
 62
40
  6
CONTINUOUS
 10
6.4404443609
 20
5.1866462451
 11
6.4979052984
 21
5.1866462451
  0
LINE
  5
3BD
100
AcDbEntity
  8
03__ASM_ALL_CURVES
100
AcDbLine
 62
40
  6
CONTINUOUS
 10
6.7392412359
 20
5.1866462451
 11
6.7507334234
 21
5.1866462451
  0
LINE
  5
3BE
100
AcDbEntity
  8
03__ASM_ALL_CURVES
100
AcDbLine
 62
40
  6
CONTINUOUS
 10
7.1069912359
 20
5.1866462451
 11
7.1184834234
 21
5.1866462451
  0
LINE
  5
3BF
100
AcDbEntity
  8
03__ASM_ALL_CURVES
100
AcDbLine
 62
40
  6
CONTINUOUS
 10
7.3655654546
 20
5.1866462451
 11
7.3885498296
 21
5.1866462451
  0
LINE
  5
3C0
100
AcDbEntity
  8
03__ASM_ALL_CURVES
100
AcDbLine
 62
40
  6
CONTINUOUS
 10
7.4575029546
 20
5.1866462451
 11
7.5034717046
 21
5.1866462451
  0
LINE
  5
3C1
100
AcDbEntity
  8
03__ASM_ALL_CURVES
100
AcDbLine
 62
40
  6
CONTINUOUS
 10
7.5494404546
 20
5.1866462451
 11
7.5781709234
 21
5.1866462451
  0
LINE
  5
3C2
100
AcDbEntity
  8
03__ASM_ALL_CURVES
100
AcDbLine
 62
40
  6
CONTINUOUS
 10
6.1876162359
 20
5.0947087451
 11
6.1761240484
 21
5.1023702037
  0
LINE
  5
3C3
100
AcDbEntity
  8
03__ASM_ALL_CURVES
100
AcDbLine
 62
40
  6
CONTINUOUS
 10
6.2795537359
 20
5.0947087451
 11
6.2680615484
 21
5.1023702037
  0
LINE
  5
3C4
100
AcDbEntity
  8
03__ASM_ALL_CURVES
100
AcDbLine
 62
40
  6
CONTINUOUS
 10
6.2106006109
 20
5.1789847886
 11
6.2220927984
 21
5.1636618701
  0
LINE
  5
3C5
100
AcDbEntity
  8
03__ASM_ALL_CURVES
100
AcDbLine
 62
40
  6
CONTINUOUS
 10
6.2680615484
 20
5.1023702037
 11
6.2565693609
 21
5.1176931201
  0
LINE
  5
3C6
100
AcDbEntity
  8
03__ASM_ALL_CURVES
100
AcDbLine
 62
40
  6
CONTINUOUS
 10
6.3025381109
 20
5.1789847886
 11
6.3082842046
 21
5.1713233266
  0
LINE
  5
3C7
100
AcDbEntity
  8
03__ASM_ALL_CURVES
100
AcDbLine
 62
40
  6
CONTINUOUS
 10
6.3772373296
 20
5.1866462451
 11
6.4059677984
 21
5.0947087451
  0
LINE
  5
3C8
100
AcDbEntity
  8
03__ASM_ALL_CURVES
100
AcDbLine
 62
40
  6
CONTINUOUS
 10
6.7679717046
 20
5.1406774951
 11
6.7679717046
 21
5.1100316622
  0
LINE
  5
3C9
100
AcDbEntity
  8
03__ASM_ALL_CURVES
100
AcDbLine
 62
40
  6
CONTINUOUS
 10
6.8002935673
 20
3.4566417451
 11
6.8002935673
 21
3.3876886201
  0
LINE
  5
3CA
100
AcDbEntity
  8
03__ASM_ALL_CURVES
100
AcDbLine
 62
40
  6
CONTINUOUS
 10
6.8864849736
 20
3.4451495562
 11
6.8864849736
 21
3.4336573715
  0
LINE
  5
3CB
100
AcDbEntity
  8
03__ASM_ALL_CURVES
100
AcDbLine
 62
40
  6
CONTINUOUS
 10
6.9058779546
 20
5.1713233266
 11
6.9058779546
 21
5.1636618701
  0
LINE
  5
3CC
100
AcDbEntity
  8
03__ASM_ALL_CURVES
100
AcDbLine
 62
40
  6
CONTINUOUS
 10
6.6365298955
 20
3.4221651826
 11
6.6408394658
 21
3.4394034638
  0
LINE
  5
3CD
100
AcDbEntity
  8
03__ASM_ALL_CURVES
100
AcDbLine
 62
40
  6
CONTINUOUS
 10
7.0782607671
 20
5.1406774951
 11
7.0840068609
 21
5.1636618701
  0
LINE
  5
3CE
100
AcDbEntity
  8
03__ASM_ALL_CURVES
100
AcDbLine
 62
40
  6
CONTINUOUS
 10
6.6882447392
 20
3.4221651826
 11
6.6839351689
 21
3.4049269013
  0
LINE
  5
3CF
100
AcDbEntity
  8
03__ASM_ALL_CURVES
100
AcDbLine
 62
40
  6
CONTINUOUS
 10
7.1472138921
 20
5.1406774951
 11
7.1414677984
 21
5.1176931201
  0
LINE
  5
3D0
100
AcDbEntity
  8
03__ASM_ALL_CURVES
100
AcDbLine
 62
40
  6
CONTINUOUS
 10
7.7115074457
 20
4.2652519
 11
7.7028883051
 21
4.2595058076
  0
LINE
  5
3D1
100
AcDbEntity
  8
03__ASM_ALL_CURVES
100
AcDbLine
 62
40
  6
CONTINUOUS
 10
7.7546031488
 20
4.2882362777
 11
7.7632222895
 21
4.2939823701
  0
LINE
  5
3D2
100
AcDbEntity
  8
03__ASM_ALL_CURVES
100
AcDbLine
 62
40
  6
CONTINUOUS
 10
3.6283404539
 20
5.0579337451
 11
3.7386654539
 21
5.0763212451
  0
LINE
  5
3D3
100
AcDbEntity
  8
03__ASM_ALL_CURVES
100
AcDbLine
 62
40
  6
CONTINUOUS
 10
3.7386654539
 20
5.0732566618
 11
3.6283404539
 21
5.0579337451
  0
LINE
  5
3D4
100
AcDbEntity
  8
03__ASM_ALL_CURVES
100
AcDbLine
 62
40
  6
CONTINUOUS
 10
3.7386654539
 20
5.0701920784
 11
3.6283404539
 21
5.0579337451
  0
LINE
  5
3D5
100
AcDbEntity
  8
03__ASM_ALL_CURVES
100
AcDbLine
 62
40
  6
CONTINUOUS
 10
6.1991084234
 20
5.1866462451
 11
6.2106006109
 21
5.1789847886
  0
LINE
  5
3D6
100
AcDbEntity
  8
03__ASM_ALL_CURVES
100
AcDbLine
 62
40
  6
CONTINUOUS
 10
6.2910459234
 20
5.1866462451
 11
6.3025381109
 21
5.1789847886
  0
LINE
  5
3D7
100
AcDbEntity
  8
03__ASM_ALL_CURVES
100
AcDbLine
 62
40
  6
CONTINUOUS
 10
7.7632222895
 20
4.2250292451
 11
7.7546031488
 21
4.230775339
  0
LINE
  5
3D8
100
AcDbEntity
  8
03__ASM_ALL_CURVES
100
AcDbLine
 62
40
  6
CONTINUOUS
 10
7.7028883051
 20
4.2939823701
 11
7.7115074457
 21
4.2882362777
  0
LINE
  5
3D9
100
AcDbEntity
  8
03__ASM_ALL_CURVES
100
AcDbLine
 62
40
  6
CONTINUOUS
 10
7.7718414301
 20
4.2939823701
 11
7.7804605707
 21
4.2882362777
  0
LINE
  5
3DA
100
AcDbEntity
  8
03__ASM_ALL_CURVES
100
AcDbLine
 62
40
  6
CONTINUOUS
 10
6.7162568609
 20
5.1176931201
 11
6.7105107671
 21
5.1406774951
  0
LINE
  5
3DB
100
AcDbEntity
  8
03__ASM_ALL_CURVES
100
AcDbLine
 62
40
  6
CONTINUOUS
 10
6.9518467046
 20
5.1253545793
 11
6.9518467046
 21
5.1100316622
  0
LINE
  5
3DC
100
AcDbEntity
  8
0
100
AcDbLine
 62
7
  6
CONTINUOUS
 10
6.9788404539
 20
3.8324917451
 11
6.9788404539
 21
4.5807917451
  0
LINE
  5
3DD
100
AcDbEntity
  8
0
100
AcDbLine
 62
7
  6
CONTINUOUS
 10
6.9948404539
 20
3.7701417451
 11
6.9948404539
 21
4.6431417451
  0
LINE
  5
3DE
100
AcDbEntity
  8
03__ASM_ALL_CURVES
100
AcDbLine
 62
40
  6
CONTINUOUS
 10
6.9978154546
 20
5.1866462451
 11
6.9978154546
 21
5.0947087451
  0
LINE
  5
3DF
100
AcDbEntity
  8
03__ASM_ALL_CURVES
100
AcDbLine
 62
40
  6
CONTINUOUS
 10
7.0437842046
 20
5.1866462451
 11
7.0437842046
 21
5.0947087451
  0
LINE
  5
3E0
100
AcDbEntity
  8
0
100
AcDbLine
 62
7
  6
CONTINUOUS
 10
7.0508404539
 20
3.7701417451
 11
7.0508404539
 21
4.6431417451
  0
LINE
  5
3E1
100
AcDbEntity
  8
03__ASM_ALL_CURVES
100
AcDbLine
 62
40
  6
CONTINUOUS
 10
6.8563179814
 20
3.4049269013
 11
6.8520084111
 21
3.3876886201
  0
LINE
  5
3E2
100
AcDbEntity
  8
03__ASM_ALL_CURVES
100
AcDbLine
 62
40
  6
CONTINUOUS
 10
6.6106724736
 20
3.4336573715
 11
6.6063629033
 21
3.427911275
  0
LINE
  5
3E3
100
AcDbEntity
  8
03__ASM_ALL_CURVES
100
AcDbLine
 62
40
  6
CONTINUOUS
 10
6.6408394658
 20
3.4394034638
 11
6.6494586064
 21
3.4508956527
  0
LINE
  5
3E4
100
AcDbEntity
  8
03__ASM_ALL_CURVES
100
AcDbLine
 62
40
  6
CONTINUOUS
 10
6.6839351689
 20
3.4049269013
 11
6.6753160283
 21
3.393434714
  0
LINE
  5
3E5
100
AcDbEntity
  8
03__ASM_ALL_CURVES
100
AcDbLine
 62
40
  6
CONTINUOUS
 10
6.7485787236
 20
3.4336573715
 11
6.7442691533
 21
3.427911275
  0
LINE
  5
3E6
100
AcDbEntity
  8
03__ASM_ALL_CURVES
100
AcDbLine
 62
40
  6
CONTINUOUS
 10
7.7804605707
 20
4.230775339
 11
7.7718414301
 21
4.2250292451
  0
LINE
  5
3E7
100
AcDbEntity
  8
03__ASM_ALL_CURVES
100
AcDbLine
 62
40
  6
CONTINUOUS
 10
7.8494136957
 20
4.2652519
 11
7.8407945551
 21
4.2595058076
  0
LINE
  5
3E8
100
AcDbEntity
  8
03__ASM_ALL_CURVES
100
AcDbLine
 62
40
  6
CONTINUOUS
 10
6.6063629033
 20
3.427911275
 11
6.5977437626
 21
3.4221651826
  0
LINE
  5
3E9
100
AcDbEntity
  8
03__ASM_ALL_CURVES
100
AcDbLine
 62
40
  6
CONTINUOUS
 10
6.6494586064
 20
3.4508956527
 11
6.658077747
 21
3.4566417451
  0
LINE
  5
3EA
100
AcDbEntity
  8
03__ASM_ALL_CURVES
100
AcDbLine
 62
40
  6
CONTINUOUS
 10
6.6753160283
 20
3.393434714
 11
6.6666968876
 21
3.3876886201
  0
LINE
  5
3EB
100
AcDbEntity
  8
03__ASM_ALL_CURVES
100
AcDbLine
 62
40
  6
CONTINUOUS
 10
6.7442691533
 20
3.427911275
 11
6.7356500126
 21
3.4221651826
  0
LINE
  5
3EC
100
AcDbEntity
  8
03__ASM_ALL_CURVES
100
AcDbLine
 62
40
  6
CONTINUOUS
 10
7.8407945551
 20
4.2939823701
 11
7.8494136957
 21
4.2882362777
  0
LINE
  5
3ED
100
AcDbEntity
  8
03__ASM_ALL_CURVES
100
AcDbLine
 62
40
  6
CONTINUOUS
 10
6.7392412359
 20
5.0947087451
 11
6.7277490484
 21
5.1023702037
  0
LINE
  5
3EE
100
AcDbEntity
  8
03__ASM_ALL_CURVES
100
AcDbLine
 62
40
  6
CONTINUOUS
 10
6.7507334234
 20
5.1866462451
 11
6.7622256109
 21
5.1789847886
  0
LINE
  5
3EF
100
AcDbEntity
  8
03__ASM_ALL_CURVES
100
AcDbLine
 62
40
  6
CONTINUOUS
 10
6.7277490484
 20
5.1023702037
 11
6.7162568609
 21
5.1176931201
  0
LINE
  5
3F0
100
AcDbEntity
  8
03__ASM_ALL_CURVES
100
AcDbLine
 62
40
  6
CONTINUOUS
 10
6.6300654546
 20
5.1866462451
 11
6.6760342046
 21
5.0947087451
  0
LINE
  5
3F1
100
AcDbEntity
  8
0
100
AcDbLine
 62
7
  6
CONTINUOUS
 10
7.1008404539
 20
3.770642408
 11
7.1008404539
 21
4.6426410822
  0
LINE
  5
3F2
100
AcDbEntity
  8
0
100
AcDbLine
 62
7
  6
CONTINUOUS
 10
7.1708404539
 20
3.770642408
 11
7.1708404539
 21
4.6426410822
  0
LINE
  5
3F3
100
AcDbEntity
  8
03__ASM_ALL_CURVES
100
AcDbLine
 62
40
  6
CONTINUOUS
 10
7.1816904546
 20
5.1100316622
 11
7.1816904546
 21
5.1866462451
  0
LINE
  5
3F4
100
AcDbEntity
  8
0
100
AcDbLine
 62
7
  6
CONTINUOUS
 10
7.2208404539
 20
3.770642408
 11
7.2208404539
 21
4.6426410822
  0
LINE
  5
3F5
100
AcDbEntity
  8
03__ASM_ALL_CURVES
100
AcDbLine
 62
40
  6
CONTINUOUS
 10
7.2276592046
 20
5.1866462451
 11
7.2276592046
 21
5.1100316622
  0
LINE
  5
3F6
100
AcDbEntity
  8
03__ASM_ALL_CURVES
100
AcDbLine
 62
40
  6
CONTINUOUS
 10
7.4172802984
 20
5.1406774951
 11
7.4115342046
 21
5.1176931201
  0
LINE
  5
3F7
100
AcDbEntity
  8
03__ASM_ALL_CURVES
100
AcDbLine
 62
40
  6
CONTINUOUS
 10
6.8520084111
 20
3.4451495562
 11
6.8563179814
 21
3.4508956527
  0
LINE
  5
3F8
100
AcDbEntity
  8
03__ASM_ALL_CURVES
100
AcDbLine
 62
40
  6
CONTINUOUS
 10
6.864937122
 20
3.4164190882
 11
6.8563179814
 21
3.4049269013
  0
LINE
  5
3F9
100
AcDbEntity
  8
03__ASM_ALL_CURVES
100
AcDbLine
 62
40
  6
CONTINUOUS
 10
6.8864849736
 20
3.4336573715
 11
6.8821754033
 21
3.427911275
  0
LINE
  5
3FA
100
AcDbEntity
  8
0
100
AcDbLine
 62
7
  6
CONTINUOUS
 10
7.3058404539
 20
3.7861417451
 11
7.2898404539
 21
3.7701417451
  0
LINE
  5
3FB
100
AcDbEntity
  8
03__ASM_ALL_CURVES
100
AcDbLine
 62
40
  6
CONTINUOUS
 10
6.8563179814
 20
3.4508956527
 11
6.864937122
 21
3.4566417451
  0
LINE
  5
3FC
100
AcDbEntity
  8
03__ASM_ALL_CURVES
100
AcDbLine
 62
40
  6
CONTINUOUS
 10
6.8821754033
 20
3.427911275
 11
6.864937122
 21
3.4164190882
  0
LINE
  5
3FD
100
AcDbEntity
  8
03__ASM_ALL_CURVES
100
AcDbLine
 62
40
  6
CONTINUOUS
 10
6.9231162359
 20
5.0947087451
 11
6.9116240484
 21
5.1023702037
  0
LINE
  5
3FE
100
AcDbEntity
  8
03__ASM_ALL_CURVES
100
AcDbLine
 62
40
  6
CONTINUOUS
 10
6.9116240484
 20
5.1560004136
 11
6.9461006109
 21
5.1330160358
  0
LINE
  5
3FF
100
AcDbEntity
  8
03__ASM_ALL_CURVES
100
AcDbLine
 62
40
  6
CONTINUOUS
 10
6.9461006109
 20
5.1789847886
 11
6.9346084234
 21
5.1866462451
  0
LINE
  5
400
100
AcDbEntity
  8
03__ASM_ALL_CURVES
100
AcDbLine
 62
40
  6
CONTINUOUS
 10
7.1069912359
 20
5.0947087451
 11
7.0954990484
 21
5.1023702037
  0
LINE
  5
401
100
AcDbEntity
  8
0
100
AcDbLine
 62
7
  6
CONTINUOUS
 10
7.3058404539
 20
4.6271417451
 11
7.2898404539
 21
4.6431417451
  0
LINE
  5
402
100
AcDbEntity
  8
03__ASM_ALL_CURVES
100
AcDbLine
 62
40
  6
CONTINUOUS
 10
6.7622256109
 20
5.1789847886
 11
6.7679717046
 21
5.1713233266
  0
LINE
  5
403
100
AcDbEntity
  8
03__ASM_ALL_CURVES
100
AcDbLine
 62
40
  6
CONTINUOUS
 10
6.9116240484
 20
5.1023702037
 11
6.9001318609
 21
5.1176931201
  0
LINE
  5
404
100
AcDbEntity
  8
03__ASM_ALL_CURVES
100
AcDbLine
 62
40
  6
CONTINUOUS
 10
6.9058779546
 20
5.1636618701
 11
6.9116240484
 21
5.1560004136
  0
LINE
  5
405
100
AcDbEntity
  8
03__ASM_ALL_CURVES
100
AcDbLine
 62
40
  6
CONTINUOUS
 10
6.9461006109
 20
5.1330160358
 11
6.9518467046
 21
5.1253545793
  0
LINE
  5
406
100
AcDbEntity
  8
0
100
AcDbLine
 62
7
  6
CONTINUOUS
 10
7.2488404539
 20
3.7701417451
 11
7.2488404539
 21
4.6431417451
  0
LINE
  5
407
100
AcDbEntity
  8
03__ASM_ALL_CURVES
100
AcDbLine
 62
40
  6
CONTINUOUS
 10
7.2736279546
 20
5.1866462451
 11
7.2736279546
 21
5.0947087451
  0
LINE
  5
408
100
AcDbEntity
  8
0
100
AcDbLine
 62
7
  6
CONTINUOUS
 10
7.2898404539
 20
3.7701417451
 11
7.2898404539
 21
4.6431417451
  0
LINE
  5
409
100
AcDbEntity
  8
0
100
AcDbLine
 62
7
  6
CONTINUOUS
 10
7.3058404539
 20
3.7861417451
 11
7.3058404539
 21
4.6271417451
  0
LINE
  5
40A
100
AcDbEntity
  8
03__ASM_ALL_CURVES
100
AcDbLine
 62
40
  6
CONTINUOUS
 10
7.3655654546
 20
5.0947087451
 11
7.3655654546
 21
5.1866462451
  0
LINE
  5
40B
100
AcDbEntity
  8
03__ASM_ALL_CURVES
100
AcDbLine
 62
40
  6
CONTINUOUS
 10
7.715817016
 20
4.2709979965
 11
7.7115074457
 21
4.2652519
  0
LINE
  5
40C
100
AcDbEntity
  8
03__ASM_ALL_CURVES
100
AcDbLine
 62
40
  6
CONTINUOUS
 10
7.7459840082
 20
4.2767440888
 11
7.7546031488
 21
4.2882362777
  0
LINE
  5
40D
100
AcDbEntity
  8
03__ASM_ALL_CURVES
100
AcDbLine
 62
40
  6
CONTINUOUS
 10
7.1989287359
 20
5.0947087451
 11
7.1874365484
 21
5.1023702037
  0
LINE
  5
40E
100
AcDbEntity
  8
03__ASM_ALL_CURVES
100
AcDbLine
 62
40
  6
CONTINUOUS
 10
7.1184834234
 20
5.1866462451
 11
7.1299756109
 21
5.1789847886
  0
LINE
  5
40F
100
AcDbEntity
  8
03__ASM_ALL_CURVES
100
AcDbLine
 62
40
  6
CONTINUOUS
 10
6.9518467046
 20
5.1713233266
 11
6.9461006109
 21
5.1789847886
  0
LINE
  5
410
100
AcDbEntity
  8
03__ASM_ALL_CURVES
100
AcDbLine
 62
40
  6
CONTINUOUS
 10
7.0954990484
 20
5.1023702037
 11
7.0840068609
 21
5.1176931201
  0
LINE
  5
411
100
AcDbEntity
  8
03__ASM_ALL_CURVES
100
AcDbLine
 62
40
  6
CONTINUOUS
 10
7.7546031488
 20
4.230775339
 11
7.7459840082
 21
4.2422675263
  0
LINE
  5
412
100
AcDbEntity
  8
03__ASM_ALL_CURVES
100
AcDbLine
 62
40
  6
CONTINUOUS
 10
7.7115074457
 20
4.2882362777
 11
7.715817016
 21
4.2824901812
  0
LINE
  5
413
100
AcDbEntity
  8
03__ASM_ALL_CURVES
100
AcDbLine
 62
40
  6
CONTINUOUS
 10
7.7804605707
 20
4.2882362777
 11
7.7890797113
 21
4.2767440888
  0
LINE
  5
414
100
AcDbEntity
  8
03__ASM_ALL_CURVES
100
AcDbLine
 62
40
  6
CONTINUOUS
 10
7.0840068609
 20
5.1176931201
 11
7.0782607671
 21
5.1406774951
  0
LINE
  5
415
100
AcDbEntity
  8
03__ASM_ALL_CURVES
100
AcDbLine
 62
40
  6
CONTINUOUS
 10
7.1414677984
 20
5.1636618701
 11
7.1472138921
 21
5.1406774951
  0
LINE
  5
416
100
AcDbEntity
  8
03__ASM_ALL_CURVES
100
AcDbLine
 62
40
  6
CONTINUOUS
 10
7.4575029546
 20
5.0947087451
 11
7.4575029546
 21
5.1866462451
  0
LINE
  5
417
100
AcDbEntity
  8
03__ASM_ALL_CURVES
100
AcDbLine
 62
40
  6
CONTINUOUS
 10
7.7890797113
 20
4.2422675263
 11
7.7804605707
 21
4.230775339
  0
LINE
  5
418
100
AcDbEntity
  8
03__ASM_ALL_CURVES
100
AcDbLine
 62
40
  6
CONTINUOUS
 10
7.853723266
 20
4.2709979965
 11
7.8494136957
 21
4.2652519
  0
LINE
  5
419
100
AcDbEntity
  8
03__ASM_ALL_CURVES
100
AcDbLine
 62
40
  6
CONTINUOUS
 10
7.3885498296
 20
5.1866462451
 11
7.4000420171
 21
5.1789847886
  0
LINE
  5
41A
100
AcDbEntity
  8
03__ASM_ALL_CURVES
100
AcDbLine
 62
40
  6
CONTINUOUS
 10
7.5781709234
 20
5.1866462451
 11
7.5896631109
 21
5.1789847886
  0
LINE
  5
41B
100
AcDbEntity
  8
03__ASM_ALL_CURVES
100
AcDbLine
 62
40
  6
CONTINUOUS
 10
7.1874365484
 20
5.1023702037
 11
7.1816904546
 21
5.1100316622
  0
LINE
  5
41C
100
AcDbEntity
  8
03__ASM_ALL_CURVES
100
AcDbLine
 62
40
  6
CONTINUOUS
 10
7.1299756109
 20
5.1789847886
 11
7.1414677984
 21
5.1636618701
  0
LINE
  5
41D
100
AcDbEntity
  8
03__ASM_ALL_CURVES
100
AcDbLine
 62
40
  6
CONTINUOUS
 10
7.8494136957
 20
4.2882362777
 11
7.853723266
 21
4.2824901812
  0
LINE
  5
41E
100
AcDbEntity
  8
03__ASM_ALL_CURVES
100
AcDbLine
 62
40
  6
CONTINUOUS
 10
7.5494404546
 20
5.0947087451
 11
7.5494404546
 21
5.1866462451
  0
LINE
  5
41F
100
AcDbEntity
  8
03__ASM_ALL_CURVES
100
AcDbLine
 62
40
  6
CONTINUOUS
 10
7.5954092046
 20
5.1713233266
 11
7.5954092046
 21
5.1560004136
  0
LINE
  5
420
100
AcDbEntity
  8
03__ASM_ALL_CURVES
100
AcDbLine
 62
40
  6
CONTINUOUS
 10
7.6813404535
 20
4.2250292451
 11
7.6813404535
 21
4.2939823701
  0
LINE
  5
421
100
AcDbEntity
  8
03__ASM_ALL_CURVES
100
AcDbLine
 62
40
  6
CONTINUOUS
 10
7.7416744379
 20
4.2595058076
 11
7.7459840082
 21
4.2767440888
  0
LINE
  5
422
100
AcDbEntity
  8
03__ASM_ALL_CURVES
100
AcDbLine
 62
40
  6
CONTINUOUS
 10
7.4000420171
 20
5.1789847886
 11
7.4115342046
 21
5.1636618701
  0
LINE
  5
423
100
AcDbEntity
  8
03__ASM_ALL_CURVES
100
AcDbLine
 62
40
  6
CONTINUOUS
 10
7.8407945551
 20
4.2595058076
 11
7.853723266
 21
4.2250292451
  0
LINE
  5
424
100
AcDbEntity
  8
03__ASM_ALL_CURVES
100
AcDbLine
 62
40
  6
CONTINUOUS
 10
7.4115342046
 20
5.1636618701
 11
7.4172802984
 21
5.1406774951
  0
LINE
  5
425
100
AcDbEntity
  8
03__ASM_ALL_CURVES
100
AcDbLine
 62
40
  6
CONTINUOUS
 10
7.7459840082
 20
4.2422675263
 11
7.7416744379
 21
4.2595058076
  0
LINE
  5
426
100
AcDbEntity
  8
03__ASM_ALL_CURVES
100
AcDbLine
 62
40
  6
CONTINUOUS
 10
7.715817016
 20
4.2824901812
 11
7.715817016
 21
4.2709979965
  0
LINE
  5
427
100
AcDbEntity
  8
03__ASM_ALL_CURVES
100
AcDbLine
 62
40
  6
CONTINUOUS
 10
7.8192467035
 20
4.2250292451
 11
7.8192467035
 21
4.2939823701
  0
LINE
  5
428
100
AcDbEntity
  8
03__ASM_ALL_CURVES
100
AcDbLine
 62
40
  6
CONTINUOUS
 10
7.853723266
 20
4.2824901812
 11
7.853723266
 21
4.2709979965
  0
LINE
  5
429
100
AcDbEntity
  8
03__ASM_ALL_CURVES
100
AcDbLine
 62
40
  6
CONTINUOUS
 10
7.7933892817
 20
4.2595058076
 11
7.7890797113
 21
4.2422675263
  0
LINE
  5
42A
100
AcDbEntity
  8
03__ASM_ALL_CURVES
100
AcDbLine
 62
40
  6
CONTINUOUS
 10
7.5896631109
 20
5.1789847886
 11
7.5954092046
 21
5.1713233266
  0
LINE
  5
42B
100
AcDbEntity
  8
03__ASM_ALL_CURVES
100
AcDbLine
 62
40
  6
CONTINUOUS
 10
7.5781709234
 20
5.1406774951
 11
7.5954092046
 21
5.0947087451
  0
LINE
  5
42C
100
AcDbEntity
  8
03__ASM_ALL_CURVES
100
AcDbLine
 62
40
  6
CONTINUOUS
 10
7.7890797113
 20
4.2767440888
 11
7.7933892817
 21
4.2595058076
  0
LINE
  5
42D
100
AcDbEntity
  8
03__ASM_ALL_CURVES
100
AcDbLine
 62
40
  6
CONTINUOUS
 10
7.9054381098
 20
4.2939823701
 11
7.9054381098
 21
4.2250292451
  0
LINE
  5
42E
100
AcDbEntity
  8
03__ASM_ALL_CURVES
100
AcDbLine
 62
40
  6
CONTINUOUS
 10
7.9743912348
 20
4.2939823701
 11
7.9743912348
 21
4.2250292451
  0
ARC
  5
42F
100
AcDbEntity
  8
0
100
AcDbCircle
 62
7
  6
CONTINUOUS
 10
6.6729903946
 20
4.2066417451
 40
0.1015
100
AcDbArc
 50
277.2279570847
 51
279.3002241234
  0
ARC
  5
430
100
AcDbEntity
  8
0
100
AcDbCircle
 62
7
  6
CONTINUOUS
 10
6.6729903946
 20
4.2066417451
 40
0.1015
100
AcDbArc
 50
80.6984532768
 51
84.0425233045
  0
ARC
  5
431
100
AcDbEntity
  8
0
100
AcDbCircle
 62
7
  6
CONTINUOUS
 10
6.9788404539
 20
4.5967917451
 40
0.016
100
AcDbArc
 50
270.0
 51
360.0
  0
ARC
  5
432
100
AcDbEntity
  8
0
100
AcDbCircle
 62
7
  6
CONTINUOUS
 10
6.9788404539
 20
3.8164917451
 40
0.016
100
AcDbArc
 50
0.0
 51
90.0
  0
ARC
  5
433
100
AcDbEntity
  8
THREAD
100
AcDbCircle
 62
7
  6
CONTINUOUS
 10
6.1118349004
 20
3.7356417451
 40
0.013
100
AcDbArc
 50
29.9999999933
 51
90.0
  0
ARC
  5
434
100
AcDbEntity
  8
THREAD
100
AcDbCircle
 62
7
  6
CONTINUOUS
 10
6.1118349004
 20
4.6776417451
 40
0.013
100
AcDbArc
 50
270.0
 51
330.0000000082
  0
ARC
  5
435
100
AcDbEntity
  8
0
100
AcDbCircle
 62
7
  6
CONTINUOUS
 10
5.9363404539
 20
3.6762549937
 40
0.005
100
AcDbArc
 50
120.0000000209
 51
179.9999999996
  0
ARC
  5
436
100
AcDbEntity
  8
0
100
AcDbCircle
 62
7
  6
CONTINUOUS
 10
5.9363404539
 20
4.7370284964
 40
0.005
100
AcDbArc
 50
180.0000000003
 51
239.9999999837
  0
ARC
  5
437
100
AcDbEntity
  8
0
100
AcDbCircle
 62
7
  6
CONTINUOUS
 10
5.9283404539
 20
3.6716417451
 40
0.003
100
AcDbArc
 50
270.0
 51
360.0
  0
ARC
  5
438
100
AcDbEntity
  8
0
100
AcDbCircle
 62
7
  6
CONTINUOUS
 10
5.9283404539
 20
4.7416417451
 40
0.003
100
AcDbArc
 50
0.0
 51
90.0
  0
SPLINE
  5
439
100
AcDbEntity
  8
0
100
AcDbSpline
 62
7
  6
CONTINUOUS
 70
0
 71
3
 72
15
 73
11
 74
9
 42
0.0000001
 43
0.0000001
 44
0.0000000001
 12
0.0
 22
0.1099409465
 32
0.0
 13
0.0
 23
-0.1099409465
 33
0.0
 40
0.0
 40
0.0
 40
0.0
 40
0.0
 40
0.125
 40
0.25
 40
0.375
 40
0.5
 40
0.625
 40
0.75
 40
0.875
 40
1.0
 40
1.0
 40
1.0
 40
1.0
 10
7.1708404539
 20
4.6236417451
 30
0.0
 10
7.1708404539
 20
4.6282226179
 30
0.0
 10
7.1690180695
 20
4.6373843634
 30
0.0
 10
7.1612335015
 20
4.6490347927
 30
0.0
 10
7.1495830723
 20
4.6568193606
 30
0.0
 10
7.1358404539
 20
4.6595529373
 30
0.0
 10
7.1220978356
 20
4.6568193606
 30
0.0
 10
7.1104474064
 20
4.6490347927
 30
0.0
 10
7.1026628384
 20
4.6373843634
 30
0.0
 10
7.1008404539
 20
4.6282226179
 30
0.0
 10
7.1008404539
 20
4.6236417451
 30
0.0
 11
7.1708404539
 21
4.6236417451
 31
0.0
 11
7.1681762376
 21
4.6370356652
 31
0.0
 11
7.1605891913
 21
4.6483904824
 31
0.0
 11
7.1492343741
 21
4.6559775287
 31
0.0
 11
7.1358404539
 21
4.6586417451
 31
0.0
 11
7.1224465338
 21
4.6559775287
 31
0.0
 11
7.1110917166
 21
4.6483904824
 31
0.0
 11
7.1035046703
 21
4.6370356652
 31
0.0
 11
7.1008404539
 21
4.6236417451
 31
0.0
  0
SPLINE
  5
43A
100
AcDbEntity
  8
0
100
AcDbSpline
 62
7
  6
CONTINUOUS
 70
0
 71
3
 72
15
 73
11
 74
9
 42
0.0000001
 43
0.0000001
 44
0.0000000001
 12
0.0
 22
-0.1099409465
 32
0.0
 13
0.0
 23
0.1099409465
 33
0.0
 40
0.0
 40
0.0
 40
0.0
 40
0.0
 40
0.125
 40
0.25
 40
0.375
 40
0.5
 40
0.625
 40
0.75
 40
0.875
 40
1.0
 40
1.0
 40
1.0
 40
1.0
 10
7.1708404539
 20
3.7896417451
 30
0.0
 10
7.1708404539
 20
3.7850608723
 30
0.0
 10
7.1690180695
 20
3.7758991268
 30
0.0
 10
7.1612335015
 20
3.7642486975
 30
0.0
 10
7.1495830723
 20
3.7564641296
 30
0.0
 10
7.1358404539
 20
3.7537305528
 30
0.0
 10
7.1220978356
 20
3.7564641296
 30
0.0
 10
7.1104474064
 20
3.7642486975
 30
0.0
 10
7.1026628384
 20
3.7758991268
 30
0.0
 10
7.1008404539
 20
3.7850608723
 30
0.0
 10
7.1008404539
 20
3.7896417451
 30
0.0
 11
7.1708404539
 21
3.7896417451
 31
0.0
 11
7.1681762376
 21
3.776247825
 31
0.0
 11
7.1605891913
 21
3.7648930078
 31
0.0
 11
7.1492343741
 21
3.7573059615
 31
0.0
 11
7.1358404539
 21
3.7546417451
 31
0.0
 11
7.1224465338
 21
3.7573059615
 31
0.0
 11
7.1110917166
 21
3.7648930078
 31
0.0
 11
7.1035046703
 21
3.776247825
 31
0.0
 11
7.1008404539
 21
3.7896417451
 31
0.0
  0
SPLINE
  5
43B
100
AcDbEntity
  8
0
100
AcDbSpline
 62
7
  6
CONTINUOUS
 70
0
 71
3
 72
14
 73
10
 74
8
 42
0.0000001
 43
0.0000001
 44
0.0000000001
 12
0.0
 22
0.0916172274
 32
0.0
 13
-0.045846371
 23
-0.079336773
 33
0.0
 40
0.0
 40
0.0
 40
0.0
 40
0.0
 40
0.1500003733
 40
0.3000007465
 40
0.4500011198
 40
0.6000014931
 40
0.7500018663
 40
0.9000022396
 40
1.0
 40
1.0
 40
1.0
 40
1.0
 10
6.0483404539
 20
4.6996417451
 30
0.0
 10
6.0483404539
 20
4.7042226179
 30
0.0
 10
6.0465180695
 20
4.7133843634
 30
0.0
 10
6.0387335015
 20
4.7250347927
 30
0.0
 10
6.0270830723
 20
4.7328193606
 30
0.0
 10
6.0133404539
 20
4.7355529373
 30
0.0
 10
5.9995978356
 20
4.7328193606
 30
0.0
 10
5.989241963
 20
4.7258997877
 30
0.0
 10
5.9845592817
 20
4.7197853558
 30
0.0
 10
5.9830311035
 20
4.7171408559
 30
0.0
 11
6.0483404539
 21
4.6996417451
 31
0.0
 11
6.0456762376
 21
4.7130356652
 31
0.0
 11
6.0380891913
 21
4.7243904824
 31
0.0
 11
6.0267343741
 21
4.7319775287
 31
0.0
 11
6.0133404539
 21
4.7346417451
 31
0.0
 11
5.9999465338
 21
4.7319775287
 31
0.0
 11
5.9885917166
 21
4.7243904824
 31
0.0
 11
5.9830311035
 21
4.7171408559
 31
0.0
  0
SPLINE
  5
43C
100
AcDbEntity
  8
0
100
AcDbSpline
 62
7
  6
CONTINUOUS
 70
0
 71
3
 72
9
 73
5
 74
3
 42
0.0000001
 43
0.0000001
 44
0.0000000001
 12
-0.0091694111
 22
-0.0158675915
 32
0.0
 13
0.0
 23
-0.0183237191
 33
0.0
 40
0.0
 40
0.0
 40
0.0
 40
0.0
 40
0.2500093315
 40
1.0
 40
1.0
 40
1.0
 40
1.0
 10
5.9830311035
 20
4.7171408559
 30
0.0
 10
5.9822669574
 20
4.7158185073
 30
0.0
 10
5.9795553921
 20
4.7103305242
 30
0.0
 10
5.9783404539
 20
4.7042226179
 30
0.0
 10
5.9783404539
 20
4.6996417451
 30
0.0
 11
5.9830311035
 21
4.7171408559
 31
0.0
 11
5.9810046703
 21
4.7130356652
 31
0.0
 11
5.9783404539
 21
4.6996417451
 31
0.0
  0
SPLINE
  5
43D
100
AcDbEntity
  8
0
100
AcDbSpline
 62
7
  6
CONTINUOUS
 70
0
 71
3
 72
14
 73
10
 74
8
 42
0.0000001
 43
0.0000001
 44
0.0000000001
 12
0.0
 22
-0.0916172274
 32
0.0
 13
-0.045846371
 23
0.079336773
 33
0.0
 40
0.0
 40
0.0
 40
0.0
 40
0.0
 40
0.1500003733
 40
0.3000007465
 40
0.4500011198
 40
0.6000014931
 40
0.7500018663
 40
0.9000022396
 40
1.0
 40
1.0
 40
1.0
 40
1.0
 10
6.0483404539
 20
3.7136417451
 30
0.0
 10
6.0483404539
 20
3.7090608723
 30
0.0
 10
6.0465180695
 20
3.6998991268
 30
0.0
 10
6.0387335015
 20
3.6882486975
 30
0.0
 10
6.0270830723
 20
3.6804641296
 30
0.0
 10
6.0133404539
 20
3.6777305528
 30
0.0
 10
5.9995978356
 20
3.6804641296
 30
0.0
 10
5.989241963
 20
3.6873837025
 30
0.0
 10
5.9845592817
 20
3.6934981344
 30
0.0
 10
5.9830311035
 20
3.6961426343
 30
0.0
 11
6.0483404539
 21
3.7136417451
 31
0.0
 11
6.0456762376
 21
3.700247825
 31
0.0
 11
6.0380891913
 21
3.6888930078
 31
0.0
 11
6.0267343741
 21
3.6813059615
 31
0.0
 11
6.0133404539
 21
3.6786417451
 31
0.0
 11
5.9999465338
 21
3.6813059615
 31
0.0
 11
5.9885917166
 21
3.6888930078
 31
0.0
 11
5.9830311035
 21
3.6961426343
 31
0.0
  0
SPLINE
  5
43E
100
AcDbEntity
  8
0
100
AcDbSpline
 62
7
  6
CONTINUOUS
 70
0
 71
3
 72
9
 73
5
 74
3
 42
0.0000001
 43
0.0000001
 44
0.0000000001
 12
-0.0091694111
 22
0.0158675915
 32
0.0
 13
0.0
 23
0.0183237191
 33
0.0
 40
0.0
 40
0.0
 40
0.0
 40
0.0
 40
0.2500093315
 40
1.0
 40
1.0
 40
1.0
 40
1.0
 10
5.9830311035
 20
3.6961426343
 30
0.0
 10
5.9822669574
 20
3.6974649829
 30
0.0
 10
5.9795553921
 20
3.702952966
 30
0.0
 10
5.9783404539
 20
3.7090608723
 30
0.0
 10
5.9783404539
 20
3.7136417451
 30
0.0
 11
5.9830311035
 21
3.6961426343
 31
0.0
 11
5.9810046703
 21
3.700247825
 31
0.0
 11
5.9783404539
 21
3.7136417451
 31
0.0
  0
SPLINE
  5
43F
100
AcDbEntity
  8
0
100
AcDbSpline
 62
7
  6
CONTINUOUS
 70
0
 71
3
 72
15
 73
11
 74
9
 42
0.0000001
 43
0.0000001
 44
0.0000000001
 12
0.0
 22
0.1099409465
 32
0.0
 13
-0.0
 23
-0.1099409465
 33
0.0
 40
0.0
 40
0.0
 40
0.0
 40
0.0
 40
0.125
 40
0.25
 40
0.375
 40
0.5
 40
0.625
 40
0.75
 40
0.875
 40
1.0
 40
1.0
 40
1.0
 40
1.0
 10
5.4263404539
 20
4.7241417451
 30
0.0
 10
5.4263404539
 20
4.7287226179
 30
0.0
 10
5.4245180695
 20
4.7378843634
 30
0.0
 10
5.4167335015
 20
4.7495347927
 30
0.0
 10
5.4050830723
 20
4.7573193606
 30
0.0
 10
5.3913404539
 20
4.7600529373
 30
0.0
 10
5.3775978356
 20
4.7573193606
 30
0.0
 10
5.3659474064
 20
4.7495347927
 30
0.0
 10
5.3581628384
 20
4.7378843634
 30
0.0
 10
5.3563404539
 20
4.7287226179
 30
0.0
 10
5.3563404539
 20
4.7241417451
 30
0.0
 11
5.4263404539
 21
4.7241417451
 31
0.0
 11
5.4236762376
 21
4.7375356652
 31
0.0
 11
5.4160891913
 21
4.7488904824
 31
0.0
 11
5.4047343741
 21
4.7564775287
 31
0.0
 11
5.3913404539
 21
4.7591417451
 31
0.0
 11
5.3779465338
 21
4.7564775287
 31
0.0
 11
5.3665917166
 21
4.7488904824
 31
0.0
 11
5.3590046703
 21
4.7375356652
 31
0.0
 11
5.3563404539
 21
4.7241417451
 31
0.0
  0
SPLINE
  5
440
100
AcDbEntity
  8
0
100
AcDbSpline
 62
7
  6
CONTINUOUS
 70
0
 71
3
 72
15
 73
11
 74
9
 42
0.0000001
 43
0.0000001
 44
0.0000000001
 12
0.0
 22
-0.1099409465
 32
0.0
 13
-0.0
 23
0.1099409465
 33
0.0
 40
0.0
 40
0.0
 40
0.0
 40
0.0
 40
0.125
 40
0.25
 40
0.375
 40
0.5
 40
0.625
 40
0.75
 40
0.875
 40
1.0
 40
1.0
 40
1.0
 40
1.0
 10
5.4263404539
 20
3.6891417451
 30
0.0
 10
5.4263404539
 20
3.6845608723
 30
0.0
 10
5.4245180695
 20
3.6753991268
 30
0.0
 10
5.4167335015
 20
3.6637486975
 30
0.0
 10
5.4050830723
 20
3.6559641296
 30
0.0
 10
5.3913404539
 20
3.6532305528
 30
0.0
 10
5.3775978356
 20
3.6559641296
 30
0.0
 10
5.3659474064
 20
3.6637486975
 30
0.0
 10
5.3581628384
 20
3.6753991268
 30
0.0
 10
5.3563404539
 20
3.6845608723
 30
0.0
 10
5.3563404539
 20
3.6891417451
 30
0.0
 11
5.4263404539
 21
3.6891417451
 31
0.0
 11
5.4236762376
 21
3.675747825
 31
0.0
 11
5.4160891913
 21
3.6643930078
 31
0.0
 11
5.4047343741
 21
3.6568059615
 31
0.0
 11
5.3913404539
 21
3.6541417451
 31
0.0
 11
5.3779465338
 21
3.6568059615
 31
0.0
 11
5.3665917166
 21
3.6643930078
 31
0.0
 11
5.3590046703
 21
3.675747825
 31
0.0
 11
5.3563404539
 21
3.6891417451
 31
0.0
  0
SPLINE
  5
441
100
AcDbEntity
  8
0
100
AcDbSpline
 62
7
  6
CONTINUOUS
 70
0
 71
3
 72
12
 73
8
 74
6
 42
0.0000001
 43
0.0000001
 44
0.0000000001
 12
-0.0008542445
 22
0.1412302776
 32
0.0
 13
-0.0446617522
 23
0.1339852565
 33
0.0
 40
0.0
 40
0.0
 40
0.0
 40
0.0
 40
0.1928502432
 40
0.386496632
 40
0.5833126522
 40
0.7863661665
 40
1.0
 40
1.0
 40
1.0
 40
1.0
 10
3.9313360324
 20
4.349269298
 30
0.0
 10
3.9312811187
 20
4.3583480625
 30
0.0
 10
3.9304729175
 20
4.3765451529
 30
0.0
 10
3.9272990707
 20
4.4038431693
 30
0.0
 10
3.9221884619
 20
4.4313335379
 30
0.0
 10
3.9151853643
 20
4.4593694858
 30
0.0
 10
3.9094061377
 20
4.4781257273
 30
0.0
 10
3.9062257172
 20
4.4876669886
 30
0.0
 11
3.9313360324
 21
4.349269298
 31
0.0
 11
3.9301522257
 21
4.3764803513
 31
0.0
 11
3.9270119113
 21
4.4036486968
 31
0.0
 11
3.9219705207
 21
4.4309845973
 31
0.0
 11
3.9150632654
 21
4.4588181685
 31
0.0
 11
3.9062257172
 21
4.4876669886
 31
0.0
  0
SPLINE
  5
442
100
AcDbEntity
  8
0
100
AcDbSpline
 62
7
  6
CONTINUOUS
 70
0
 71
3
 72
12
 73
8
 74
6
 42
0.0000001
 43
0.0000001
 44
0.0000000001
 12
-0.0005971608
 22
0.1418021338
 32
0.0
 13
-0.0448421696
 23
0.1345265089
 33
0.0
 40
0.0
 40
0.0
 40
0.0
 40
0.0
 40
0.1924730046
 40
0.3862198908
 40
0.583116988
 40
0.7862455639
 40
1.0
 40
1.0
 40
1.0
 40
1.0
 10
3.9313377715
 20
4.0676731351
 30
0.0
 10
3.931299459
 20
4.0767708293
 30
0.0
 10
3.9305136791
 20
4.0950296805
 30
0.0
 10
3.9273606067
 20
4.1224327048
 30
0.0
 10
3.9222475825
 20
4.150050138
 30
0.0
 10
3.9152241536
 20
4.1782149766
 30
0.0
 10
3.9094207881
 20
4.1970565324
 30
0.0
 10
3.9062257172
 20
4.2066417451
 30
0.0
 11
3.9313377715
 21
4.0676731351
 31
0.0
 11
3.9301927615
 21
4.0949424315
 31
0.0
 11
3.9270697795
 21
4.1222383243
 31
0.0
 11
3.9220267961
 21
4.1496997969
 31
0.0
 11
3.9151004888
 21
4.1776589666
 31
0.0
 11
3.9062257172
 21
4.2066417451
 31
0.0
  0
SPLINE
  5
443
100
AcDbEntity
  8
0
100
AcDbSpline
 62
7
  6
CONTINUOUS
 70
0
 71
3
 72
16
 73
12
 74
10
 42
0.0000001
 43
0.0000001
 44
0.0000000001
 12
-0.0906561768
 22
-0.2719685305
 32
0.0
 13
0.0906561768
 23
-0.2719685305
 33
0.0
 40
0.0
 40
0.0
 40
0.0
 40
0.0
 40
0.1184536949
 40
0.2305643358
 40
0.3393084417
 40
0.4465957431
 40
0.5535016267
 40
0.6607807045
 40
0.7695058147
 40
0.8815670806
 40
1.0
 40
1.0
 40
1.0
 40
1.0
 10
3.7388983735
 20
4.2066417451
 30
0.0
 10
3.7353188538
 20
4.195903186
 30
0.0
 10
3.7288872119
 20
4.174815338
 30
0.0
 10
3.7213670975
 20
4.1432514997
 30
0.0
 10
3.716278381
 20
4.1122798079
 30
0.0
 10
3.7136912695
 20
4.0814938699
 30
0.0
 10
3.7136924568
 20
4.0507372219
 30
0.0
 10
3.7162815434
 20
4.019954073
 30
0.0
 10
3.7213707624
 20
3.9889899043
 30
0.0
 10
3.7288897034
 20
3.9574345769
 30
0.0
 10
3.7353194816
 20
3.9363531773
 30
0.0
 10
3.7388983735
 20
3.9256165016
 30
0.0
 11
3.7388983735
 21
4.2066417451
 31
0.0
 11
3.7290591083
 21
4.1741401239
 31
0.0
 11
3.7216712421
 21
4.1428608777
 31
0.0
 11
3.7166661367
 21
4.1120905248
 31
0.0
 11
3.714118927
 21
4.0814390584
 31
0.0
 11
3.7141200962
 21
4.0507912794
 31
0.0
 11
3.7166692773
 21
4.0201423426
 31
0.0
 11
3.7216751975
 21
3.9893776396
 31
0.0
 11
3.7290606639
 21
3.9581123708
 31
0.0
 11
3.7388983735
 21
3.9256165016
 31
0.0
  0
SPLINE
  5
444
100
AcDbEntity
  8
0
100
AcDbSpline
 62
7
  6
CONTINUOUS
 70
0
 71
3
 72
12
 73
8
 74
6
 42
0.0000001
 43
0.0000001
 44
0.0000000001
 12
0.0446970127
 22
0.1340910382
 32
0.0
 13
0.0007756416
 23
0.1413422367
 33
0.0
 40
0.0
 40
0.0
 40
0.0
 40
0.0
 40
0.2137320188
 40
0.4169249561
 40
0.6138415602
 40
0.8075641977
 40
1.0
 40
1.0
 40
1.0
 40
1.0
 10
3.9062257172
 20
3.9256165016
 30
0.0
 10
3.9094101115
 20
3.9351696843
 30
0.0
 10
3.9151966812
 20
3.953951627
 30
0.0
 10
3.9222059371
 20
3.9820260319
 30
0.0
 10
3.9273172636
 20
4.0095539858
 30
0.0
 10
3.9304825707
 20
4.0368635587
 30
0.0
 10
3.9312853577
 20
4.0550593879
 30
0.0
 10
3.9313351114
 20
4.0641258235
 30
0.0
 11
3.9062257172
 21
3.9256165016
 31
0.0
 11
3.9150733653
 21
3.9545016558
 31
0.0
 11
3.9219875045
 21
3.9823771509
 31
0.0
 11
3.9270292255
 21
4.0097497622
 31
0.0
 11
3.9301640151
 21
4.0369513299
 31
0.0
 11
3.9313351114
 21
4.0641258235
 31
0.0
  0
SPLINE
  5
445
100
AcDbEntity
  8
0
100
AcDbSpline
 62
7
  6
CONTINUOUS
 70
0
 71
3
 72
12
 73
8
 74
6
 42
0.0000001
 43
0.0000001
 44
0.0000000001
 12
0.0448794702
 22
0.1346384107
 32
0.0
 13
0.0005711002
 23
0.141920197
 33
0.0
 40
0.0
 40
0.0
 40
0.0
 40
0.0
 40
0.2136409517
 40
0.4167160065
 40
0.6135242662
 40
0.8071571603
 40
1.0
 40
1.0
 40
1.0
 40
1.0
 10
3.9062257172
 20
4.2066417451
 30
0.0
 10
3.9094217481
 20
4.2162298378
 30
0.0
 10
3.9152274872
 20
4.2350795569
 30
0.0
 10
3.9222528918
 20
4.26325633
 30
0.0
 10
3.9273660244
 20
4.2908851817
 30
0.0
 10
3.930519794
 20
4.3183192026
 30
0.0
 10
3.9313029314
 20
4.3366055654
 30
0.0
 10
3.9313396422
 20
4.34572833
 30
0.0
 11
3.9062257172
 21
4.2066417451
 31
0.0
 11
3.9151029267
 21
4.235633302
 31
0.0
 11
3.9220321877
 21
4.2636085989
 31
0.0
 11
3.9270751259
 21
4.2910808742
 31
0.0
 11
3.9301961025
 21
4.3183837153
 31
0.0
 11
3.9313396422
 21
4.34572833
 31
0.0
  0
SPLINE
  5
446
100
AcDbEntity
  8
0
100
AcDbSpline
 62
7
  6
CONTINUOUS
 70
0
 71
3
 72
16
 73
12
 74
10
 42
0.0000001
 43
0.0000001
 44
0.0000000001
 12
-0.0906561768
 22
-0.2719685305
 32
0.0
 13
0.0906561768
 23
-0.2719685305
 33
0.0
 40
0.0
 40
0.0
 40
0.0
 40
0.0
 40
0.1184536949
 40
0.2305643358
 40
0.3393084417
 40
0.4465957431
 40
0.5535016267
 40
0.6607807045
 40
0.7695058147
 40
0.8815670806
 40
1.0
 40
1.0
 40
1.0
 40
1.0
 10
3.7388983735
 20
4.4876669886
 30
0.0
 10
3.7353188538
 20
4.4769284295
 30
0.0
 10
3.7288872119
 20
4.4558405815
 30
0.0
 10
3.7213670975
 20
4.4242767432
 30
0.0
 10
3.716278381
 20
4.3933050514
 30
0.0
 10
3.7136912695
 20
4.3625191134
 30
0.0
 10
3.7136924568
 20
4.3317624655
 30
0.0
 10
3.7162815434
 20
4.3009793166
 30
0.0
 10
3.7213707624
 20
4.2700151478
 30
0.0
 10
3.7288897034
 20
4.2384598204
 30
0.0
 10
3.7353194816
 20
4.2173784208
 30
0.0
 10
3.7388983735
 20
4.2066417451
 30
0.0
 11
3.7388983735
 21
4.4876669886
 31
0.0
 11
3.7290591083
 21
4.4551653674
 31
0.0
 11
3.7216712421
 21
4.4238861212
 31
0.0
 11
3.7166661367
 21
4.3931157683
 31
0.0
 11
3.714118927
 21
4.3624643019
 31
0.0
 11
3.7141200962
 21
4.3318165229
 31
0.0
 11
3.7166692773
 21
4.3011675861
 31
0.0
 11
3.7216751975
 21
4.2704028831
 31
0.0
 11
3.7290606639
 21
4.2391376143
 31
0.0
 11
3.7388983735
 21
4.2066417451
 31
0.0
  0
SPLINE
  5
447
100
AcDbEntity
  8
0
100
AcDbSpline
 62
7
  6
CONTINUOUS
 70
0
 71
3
 72
9
 73
5
 74
3
 42
0.0000001
 43
0.0000001
 44
0.0000000001
 12
-0.0248083387
 22
-0.0003172758
 32
0.0
 13
-0.0246776889
 23
0.0025593781
 33
0.0
 40
0.0
 40
0.0
 40
0.0
 40
0.0
 40
0.5163935948
 40
1.0
 40
1.0
 40
1.0
 40
1.0
 10
6.6757024865
 20
4.4181657246
 30
0.0
 10
6.6714321974
 20
4.4181111115
 30
0.0
 10
6.6631595062
 20
4.418255131
 30
0.0
 10
6.6549102433
 20
4.4188829001
 30
0.0
 10
6.6509321472
 20
4.4192954773
 30
0.0
 11
6.6757024865
 21
4.4181657246
 31
0.0
 11
6.6628945154
 21
4.4183888508
 31
0.0
 11
6.6509321472
 21
4.4192954773
 31
0.0
  0
SPLINE
  5
448
100
AcDbEntity
  8
0
100
AcDbSpline
 62
7
  6
CONTINUOUS
 70
0
 71
3
 72
8
 73
4
 74
2
 42
0.0000001
 43
0.0000001
 44
0.0000000001
 12
-0.0054375906
 22
0.0005639446
 32
0.0
 13
-0.0054218635
 23
0.0006985144
 33
0.0
 40
0.0
 40
0.0
 40
0.0
 40
0.0
 40
1.0
 40
1.0
 40
1.0
 40
1.0
 10
6.6509321472
 20
4.4192954773
 30
0.0
 10
6.6491196169
 20
4.4194834588
 30
0.0
 10
6.6473094326
 20
4.4196940651
 30
0.0
 10
6.6455021448
 20
4.4199269032
 30
0.0
 11
6.6509321472
 21
4.4192954773
 31
0.0
 11
6.6455021448
 21
4.4199269032
 31
0.0
  0
SPLINE
  5
449
100
AcDbEntity
  8
0
100
AcDbSpline
 62
7
  6
CONTINUOUS
 70
0
 71
3
 72
8
 73
4
 74
2
 42
0.0000001
 43
0.0000001
 44
0.0000000001
 12
0.0053875377
 22
0.0006932467
 32
0.0
 13
0.0054030497
 23
0.0005603842
 33
0.0
 40
0.0
 40
0.0
 40
0.0
 40
0.0
 40
1.0
 40
1.0
 40
1.0
 40
1.0
 10
6.6455360197
 20
3.9933609409
 30
0.0
 10
6.6473318656
 20
3.9935920231
 30
0.0
 10
6.6491305666
 20
3.9938011553
 30
0.0
 10
6.6509315832
 20
3.99398795
 30
0.0
 11
6.6455360197
 21
3.9933609409
 31
0.0
 11
6.6509315832
 21
3.99398795
 31
0.0
  0
SPLINE
  5
44A
100
AcDbEntity
  8
0
100
AcDbSpline
 62
7
  6
CONTINUOUS
 70
0
 71
3
 72
9
 73
5
 74
3
 42
0.0000001
 43
0.0000001
 44
0.0000000001
 12
0.0246890741
 22
0.0025606586
 32
0.0
 13
0.0248197389
 23
-0.0003186665
 33
0.0
 40
0.0
 40
0.0
 40
0.0
 40
0.0
 40
0.4788579812
 40
1.0
 40
1.0
 40
1.0
 40
1.0
 10
6.6509315832
 20
3.99398795
 30
0.0
 10
6.6548724365
 20
3.9943966806
 30
0.0
 10
6.6631252804
 20
3.9950268902
 30
0.0
 10
6.6714018238
 20
3.9951729871
 30
0.0
 10
6.67571336
 20
3.9951176302
 30
0.0
 11
6.6509315832
 21
3.99398795
 31
0.0
 11
6.6627817513
 21
3.994889233
 31
0.0
 11
6.67571336
 21
3.9951176302
 31
0.0
  0
SPLINE
  5
44B
100
AcDbEntity
  8
0
100
AcDbSpline
 62
7
  6
CONTINUOUS
 70
0
 71
3
 72
14
 73
10
 74
8
 42
0.0000001
 43
0.0000001
 44
0.0000000001
 12
0.1024054151
 22
-0.0007151123
 32
0.0
 13
0.1000702368
 23
-0.0217556235
 33
0.0
 40
0.0
 40
0.0
 40
0.0
 40
0.0
 40
0.2261132359
 40
0.4395567578
 40
0.6268183572
 40
0.7810437801
 40
0.9014878559
 40
0.9760351176
 40
1.0
 40
1.0
 40
1.0
 40
1.0
 10
6.6893476098
 20
3.8444822462
 30
0.0
 10
6.6970660164
 20
3.8444283474
 30
0.0
 10
6.7120703455
 20
3.8439026255
 30
0.0
 10
6.7333962162
 20
3.8420697469
 30
0.0
 10
6.7521882017
 20
3.8396447686
 30
0.0
 10
6.7677527179
 20
3.8371032363
 30
0.0
 10
6.7794666332
 20
3.8348867556
 30
0.0
 10
6.7867863115
 20
3.8333734388
 30
0.0
 10
6.7900737741
 20
3.8326655354
 30
0.0
 10
6.7908731646
 20
3.8324917451
 30
0.0
 11
6.6893476098
 21
3.8444822462
 31
0.0
 11
6.7124897162
 21
3.843686471
 31
0.0
 11
6.7342689406
 21
3.8418288107
 31
0.0
 11
6.7532895512
 21
3.839384151
 31
0.0
 11
6.7688778806
 21
3.8368441952
 31
0.0
 11
6.7809977224
 21
3.8345534513
 31
0.0
 11
6.7884739608
 21
3.8330083563
 31
0.0
 11
6.7908731646
 21
3.8324917451
 31
0.0
  0
SPLINE
  5
44C
100
AcDbEntity
  8
0
100
AcDbSpline
 62
7
  6
CONTINUOUS
 70
0
 71
3
 72
12
 73
8
 74
6
 42
0.0000001
 43
0.0000001
 44
0.0000000001
 12
0.1002336106
 22
-0.0026863686
 32
0.0
 13
0.0591606595
 23
-0.0812176471
 33
0.0
 40
0.0
 40
0.0
 40
0.0
 40
0.0
 40
0.2349000451
 40
0.467133292
 40
0.6892319756
 40
0.900871332
 40
1.0
 40
1.0
 40
1.0
 40
1.0
 10
6.6893476098
 20
4.1069348405
 30
0.0
 10
6.697195903
 20
4.1067244978
 30
0.0
 10
6.7128034704
 20
4.1045878169
 30
0.0
 10
6.734645454
 20
4.0968178274
 30
0.0
 10
6.7538911473
 20
4.0853575365
 30
0.0
 10
6.7672313502
 20
4.0733837486
 30
0.0
 10
6.773816009
 20
4.065300966
 30
0.0
 10
6.7757708482
 20
4.0626173003
 30
0.0
 11
6.6893476098
 21
4.1069348405
 31
0.0
 11
6.7126892797
 21
4.1037842853
 31
0.0
 11
6.7346352351
 21
4.0959990536
 31
0.0
 11
6.7537539775
 21
4.0845791013
 31
0.0
 11
6.7694936404
 21
4.0703455632
 31
0.0
 11
6.7757708482
 21
4.0626173003
 31
0.0
  0
SPLINE
  5
44D
100
AcDbEntity
  8
0
100
AcDbSpline
 62
7
  6
CONTINUOUS
 70
0
 71
3
 72
9
 73
5
 74
3
 42
0.0000001
 43
0.0000001
 44
0.0000000001
 12
0.0025222587
 22
0.0004741456
 32
0.0
 13
0.0025351701
 23
0.0003993939
 33
0.0
 40
0.0
 40
0.0
 40
0.0
 40
0.0
 40
0.5004592939
 40
1.0
 40
1.0
 40
1.0
 40
1.0
 10
6.6868186987
 20
4.1064979739
 30
0.0
 10
6.6872394613
 20
4.1065770707
 30
0.0
 10
6.688081389
 20
4.1067289333
 30
0.0
 10
6.6889254695
 20
4.106868336
 30
0.0
 10
6.6893476098
 20
4.1069348405
 30
0.0
 11
6.6868186987
 21
4.1064979739
 31
0.0
 11
6.6880827016
 21
4.1067259521
 31
0.0
 11
6.6893476098
 21
4.1069348405
 31
0.0
  0
SPLINE
  5
44E
100
AcDbEntity
  8
0
100
AcDbSpline
 62
7
  6
CONTINUOUS
 70
0
 71
3
 72
8
 73
4
 74
2
 42
0.0000001
 43
0.0000001
 44
0.0000000001
 12
0.001597812
 22
0.0010092952
 32
0.0
 13
0.0016011202
 23
0.0010040465
 33
0.0
 40
0.0
 40
0.0
 40
0.0
 40
0.0
 40
1.0
 40
1.0
 40
1.0
 40
1.0
 10
6.602334718
 20
3.8008216425
 30
0.0
 10
6.602867322
 20
3.8011580742
 30
0.0
 10
6.6034004763
 20
3.8014936362
 30
0.0
 10
6.6039341831
 20
3.8018283183
 30
0.0
 11
6.602334718
 21
3.8008216425
 31
0.0
 11
6.6039341831
 21
3.8018283183
 31
0.0
  0
SPLINE
  5
44F
100
AcDbEntity
  8
0
100
AcDbSpline
 62
7
  6
CONTINUOUS
 70
0
 71
3
 72
14
 73
10
 74
8
 42
0.0000001
 43
0.0000001
 44
0.0000000001
 12
0.0810252261
 22
0.0508101078
 32
0.0
 13
0.0897516241
 23
0.0330359412
 33
0.0
 40
0.0
 40
0.0
 40
0.0
 40
0.0
 40
0.0601976768
 40
0.1576612955
 40
0.2848631299
 40
0.4402666162
 40
0.6188426927
 40
0.8092605731
 40
1.0
 40
1.0
 40
1.0
 40
1.0
 10
6.6039341831
 20
3.8018283183
 30
0.0
 10
6.6055600265
 20
3.8028478685
 30
0.0
 10
6.609831634
 20
3.8054967474
 30
0.0
 10
6.6176138759
 20
3.8101780581
 30
0.0
 10
6.6281212616
 20
3.8162137012
 30
0.0
 10
6.6410636771
 20
3.8231933577
 30
0.0
 10
6.6560416447
 20
3.8306277438
 30
0.0
 10
6.672335256
 20
3.8379155641
 30
0.0
 10
6.6836412186
 20
3.8423818273
 30
0.0
 10
6.6893476098
 20
3.8444822462
 30
0.0
 11
6.6039341831
 21
3.8018283183
 31
0.0
 11
6.6088271533
 21
3.8048621921
 31
0.0
 11
6.6168152669
 21
3.8096659658
 31
0.0
 11
6.6273655087
 21
3.8157231311
 31
0.0
 11
6.6404494269
 21
3.8227734346
 31
0.0
 11
6.6557507196
 21
3.8303598851
 31
0.0
 11
6.6723784642
 21
3.83778747
 31
0.0
 11
6.6893476098
 21
3.8444822462
 31
0.0
  0
SPLINE
  5
450
100
AcDbEntity
  8
0
100
AcDbSpline
 62
7
  6
CONTINUOUS
 70
0
 71
3
 72
14
 73
10
 74
8
 42
0.0000001
 43
0.0000001
 44
0.0000000001
 12
-0.1000703519
 22
-0.0217556508
 32
0.0
 13
-0.1024055241
 23
-0.0007151131
 33
0.0
 40
0.0
 40
0.0
 40
0.0
 40
0.0
 40
0.0225503523
 40
0.0959861502
 40
0.2180610616
 40
0.3762182762
 40
0.5676788891
 40
0.7812959417
 40
1.0
 40
1.0
 40
1.0
 40
1.0
 10
6.7908731646
 20
4.5807917451
 30
0.0
 10
6.7901209573
 20
4.5806282126
 30
0.0
 10
6.7869178682
 20
4.5799380866
 30
0.0
 10
6.7796286164
 20
4.5784285293
 30
0.0
 10
6.767766052
 20
4.576180131
 30
0.0
 10
6.7518719936
 20
4.5735878883
 30
0.0
 10
6.7327960023
 20
4.5711463163
 30
0.0
 10
6.7115703483
 20
4.5693568354
 30
0.0
 10
6.696813111
 20
4.5688533767
 30
0.0
 10
6.6893476098
 20
4.568801244
 30
0.0
 11
6.7908731646
 21
4.5807917451
 31
0.0
 11
6.7886156288
 21
4.5803053609
 31
0.0
 11
6.7812513604
 21
4.578780832
 31
0.0
 11
6.7689681047
 21
4.5764553462
 31
0.0
 11
6.752981812
 21
4.5738539548
 31
0.0
 11
6.7335320446
 21
4.5713750403
 31
0.0
 11
6.7117320963
 21
4.5695513115
 31
0.0
 11
6.6893476098
 21
4.568801244
 31
0.0
  0
SPLINE
  5
451
100
AcDbEntity
  8
0
100
AcDbSpline
 62
7
  6
CONTINUOUS
 70
0
 71
3
 72
14
 73
10
 74
8
 42
0.0000001
 43
0.0000001
 44
0.0000000001
 12
-0.0897276109
 22
0.0330271023
 32
0.0
 13
-0.0810058276
 23
0.0507928854
 33
0.0
 40
0.0
 40
0.0
 40
0.0
 40
0.0
 40
0.1869147369
 40
0.3755721035
 40
0.5540340702
 40
0.7105399504
 40
0.8395325844
 40
0.9387697624
 40
1.0
 40
1.0
 40
1.0
 40
1.0
 10
6.6893476098
 20
4.568801244
 30
0.0
 10
6.6837571388
 20
4.5708589947
 30
0.0
 10
6.6726179117
 20
4.5752532289
 30
0.0
 10
6.6564867618
 20
4.5824473829
 30
0.0
 10
6.6415258432
 20
4.5898506793
 30
0.0
 10
6.6285015784
 20
4.5968569782
 30
0.0
 10
6.6178636103
 20
4.6029574819
 30
0.0
 10
6.6099561001
 20
4.607710104
 30
0.0
 10
6.6056092744
 20
4.6104048428
 30
0.0
 10
6.603955939
 20
4.6114415296
 30
0.0
 11
6.6893476098
 21
4.568801244
 31
0.0
 11
6.6727201599
 21
4.575352369
 31
0.0
 11
6.6562426545
 21
4.5826916006
 31
0.0
 11
6.6409460466
 21
4.5902526232
 31
0.0
 11
6.6277654216
 21
4.5973372563
 31
0.0
 11
6.6170650691
 21
4.6034703092
 31
0.0
 11
6.6089319128
 21
4.6083570981
 31
0.0
 11
6.603955939
 21
4.6114415296
 31
0.0
  0
SPLINE
  5
452
100
AcDbEntity
  8
0
100
AcDbSpline
 62
7
  6
CONTINUOUS
 70
0
 71
3
 72
8
 73
4
 74
2
 42
0.0000001
 43
0.0000001
 44
0.0000000001
 12
-0.0016229216
 22
0.0010176165
 32
0.0
 13
-0.0016195227
 23
0.0010230093
 33
0.0
 40
0.0
 40
0.0
 40
0.0
 40
0.0
 40
1.0
 40
1.0
 40
1.0
 40
1.0
 10
6.603955939
 20
4.6114415296
 30
0.0
 10
6.6034149652
 20
4.6117807351
 30
0.0
 10
6.6028745589
 20
4.6121208446
 30
0.0
 10
6.602334718
 20
4.6124618477
 30
0.0
 11
6.603955939
 21
4.6114415296
 31
0.0
 11
6.602334718
 21
4.6124618477
 31
0.0
  0
SPLINE
  5
453
100
AcDbEntity
  8
0
100
AcDbSpline
 62
7
  6
CONTINUOUS
 70
0
 71
3
 72
17
 73
13
 74
11
 42
0.0000001
 43
0.0000001
 44
0.0000000001
 12
-0.1800617487
 22
0.0338488216
 32
0.0
 13
0.1082888008
 23
0.1486695347
 33
0.0
 40
0.0
 40
0.0
 40
0.0
 40
0.0
 40
0.1071439523
 40
0.2207109355
 40
0.3365642285
 40
0.4514482338
 40
0.5677050723
 40
0.6803655597
 40
0.783930178
 40
0.8791387205
 40
0.9685131363
 40
1.0
 40
1.0
 40
1.0
 40
1.0
 10
6.6868186987
 20
4.3067855163
 30
0.0
 10
6.6803878563
 20
4.3079944152
 30
0.0
 10
6.6673854276
 20
4.3119955887
 30
0.0
 10
6.6493383158
 20
4.3221262107
 30
0.0
 10
6.6333033451
 20
4.3359319129
 30
0.0
 10
6.6199901612
 20
4.3525645716
 30
0.0
 10
6.6099551585
 20
4.3711412183
 30
0.0
 10
6.603737118
 20
4.390604234
 30
0.0
 10
6.6016506143
 20
4.4096498436
 30
0.0
 10
6.6036846548
 20
4.4272991099
 30
0.0
 10
6.6085655619
 20
4.4397420158
 30
0.0
 10
6.6126091255
 20
4.4459632323
 30
0.0
 10
6.6137456838
 20
4.4475236114
 30
0.0
 11
6.6868186987
 21
4.3067855163
 31
0.0
 11
6.6680389658
 21
4.3125018237
 31
0.0
 11
6.6498572178
 21
4.3226194153
 31
0.0
 11
6.6337354834
 21
4.3364266079
 31
0.0
 11
6.6205669498
 21
4.3528470557
 31
0.0
 11
6.6104693261
 21
4.3716015511
 31
0.0
 11
6.6042715366
 21
4.3912902558
 31
0.0
 11
6.6023370389
 21
4.410166045
 31
0.0
 11
6.6044885222
 21
4.4274765513
 31
0.0
 11
6.6105914013
 21
4.442671573
 31
0.0
 11
6.6137456838
 21
4.4475236114
 31
0.0
  0
SPLINE
  5
454
100
AcDbEntity
  8
0
100
AcDbSpline
 62
7
  6
CONTINUOUS
 70
0
 71
3
 72
9
 73
5
 74
3
 42
0.0000001
 43
0.0000001
 44
0.0000000001
 12
-0.0025351701
 22
0.0003993939
 32
0.0
 13
-0.0025222587
 23
0.0004741456
 33
0.0
 40
0.0
 40
0.0
 40
0.0
 40
0.0
 40
0.499558278
 40
1.0
 40
1.0
 40
1.0
 40
1.0
 10
6.6893476098
 20
4.3063486497
 30
0.0
 10
6.6889254547
 20
4.3064151566
 30
0.0
 10
6.6880813742
 20
4.3065545595
 30
0.0
 10
6.6872394466
 20
4.3067064223
 30
0.0
 10
6.6868186987
 20
4.3067855163
 30
0.0
 11
6.6893476098
 21
4.3063486497
 31
0.0
 11
6.6880826572
 21
4.3065575458
 31
0.0
 11
6.6868186987
 21
4.3067855163
 31
0.0
  0
SPLINE
  5
455
100
AcDbEntity
  8
0
100
AcDbSpline
 62
7
  6
CONTINUOUS
 70
0
 71
3
 72
12
 73
8
 74
6
 42
0.0000001
 43
0.0000001
 44
0.0000000001
 12
-0.0591616544
 22
-0.0812093477
 32
0.0
 13
-0.1002285354
 23
-0.0026862326
 33
0.0
 40
0.0
 40
0.0
 40
0.0
 40
0.0
 40
0.09981916
 40
0.310899573
 40
0.5331670445
 40
0.7653694374
 40
1.0
 40
1.0
 40
1.0
 40
1.0
 10
6.7757676339
 20
4.3506617765
 30
0.0
 10
6.773799145
 20
4.3479596935
 30
0.0
 10
6.7672085351
 20
4.3398766788
 30
0.0
 10
6.7538571683
 20
4.327902697
 30
0.0
 10
6.7346218894
 20
4.3164541979
 30
0.0
 10
6.7127831849
 20
4.3086918572
 30
0.0
 10
6.6971865023
 20
4.3065587405
 30
0.0
 10
6.6893476098
 20
4.3063486497
 30
0.0
 11
6.7757676339
 21
4.3506617765
 31
0.0
 11
6.769443943
 21
4.3428828077
 31
0.0
 11
6.7537404733
 21
4.3286944057
 31
0.0
 11
6.7346057043
 21
4.3172704822
 31
0.0
 11
6.7126617196
 21
4.3094924774
 31
0.0
 11
6.6893476098
 21
4.3063486497
 31
0.0
  0
SPLINE
  5
456
100
AcDbEntity
  8
0
100
AcDbSpline
 62
7
  6
CONTINUOUS
 70
0
 71
3
 72
16
 73
12
 74
10
 42
0.0000001
 43
0.0000001
 44
0.0000000001
 12
0.0456320568
 22
0.1546565677
 32
0.0
 13
-0.1608228673
 23
0.0
 33
0.0
 40
0.0
 40
0.0
 40
0.0
 40
0.0
 40
0.012815267
 40
0.1219437264
 40
0.2220045428
 40
0.3264105834
 40
0.4428771294
 40
0.569712627
 40
0.7087802324
 40
0.8556622504
 40
1.0
 40
1.0
 40
1.0
 40
1.0
 10
6.754246802
 20
4.3288683732
 30
0.0
 10
6.754441731
 20
4.3295290283
 30
0.0
 10
6.7562052146
 20
4.3358432933
 30
0.0
 10
6.7577837068
 20
4.3477975419
 30
0.0
 10
6.7551125176
 20
4.3646317718
 30
0.0
 10
6.7474759896
 20
4.3803229077
 30
0.0
 10
6.7347781285
 20
4.3942785768
 30
0.0
 10
6.7175898397
 20
4.4057436561
 30
0.0
 10
6.697002334
 20
4.4141855324
 30
0.0
 10
6.6744155008
 20
4.4192920226
 30
0.0
 10
6.6587820084
 20
4.4204537598
 30
0.0
 10
6.6510444048
 20
4.4204537598
 30
0.0
 11
6.754246802
 21
4.3288683732
 31
0.0
 11
6.7548024853
 21
4.3308589647
 31
0.0
 11
6.7569584793
 21
4.3482763852
 31
0.0
 11
6.7544014684
 21
4.3641640008
 31
0.0
 11
6.7471350048
 21
4.3793011114
 31
0.0
 11
6.7346866213
 21
4.393296424
 31
0.0
 11
6.7178418779
 21
4.4048001189
 31
0.0
 11
6.6972150233
 21
4.4134451941
 31
0.0
 11
6.6741937608
 21
4.4187385632
 31
0.0
 11
6.6510444048
 21
4.4204537598
 31
0.0
  0
SPLINE
  5
457
100
AcDbEntity
  8
0
100
AcDbSpline
 62
7
  6
CONTINUOUS
 70
0
 71
3
 72
17
 73
13
 74
11
 42
0.0000001
 43
0.0000001
 44
0.0000000001
 12
-0.1082861838
 22
0.1486731667
 32
0.0
 13
0.1800599262
 23
0.033848479
 33
0.0
 40
0.0
 40
0.0
 40
0.0
 40
0.0
 40
0.0314288417
 40
0.1207818759
 40
0.2160797942
 40
0.3199098129
 40
0.432826444
 40
0.5490809563
 40
0.6639196837
 40
0.7799281107
 40
0.8933097459
 40
1.0
 40
1.0
 40
1.0
 40
1.0
 10
6.6137446773
 20
3.9657613432
 30
0.0
 10
6.6126102408
 20
3.967318885
 30
0.0
 10
6.6085688618
 20
3.9735356935
 30
0.0
 10
6.6036855772
 20
3.985978034
 30
0.0
 10
6.6016481628
 20
4.0036478168
 30
0.0
 10
6.6037451477
 20
4.0227305675
 30
0.0
 10
6.609986939
 20
4.0422197481
 30
0.0
 10
6.6200435424
 20
4.0607989301
 30
0.0
 10
6.6333739624
 20
4.0774258189
 30
0.0
 10
6.6494185523
 20
4.0912137364
 30
0.0
 10
6.667449598
 20
4.1013112042
 30
0.0
 10
6.6804151523
 20
4.1052942062
 30
0.0
 10
6.6868186987
 20
4.1064979739
 30
0.0
 11
6.6137446773
 21
3.9657613432
 31
0.0
 11
6.610595834
 21
3.970604231
 31
0.0
 11
6.6044917146
 21
3.985794354
 31
0.0
 11
6.6023370137
 21
4.0031207833
 31
0.0
 11
6.6042821366
 21
4.0220441693
 31
0.0
 11
6.610507963
 21
4.0417730232
 31
0.0
 11
6.6206213092
 21
4.0605183156
 31
0.0
 11
6.6337977964
 21
4.0769214694
 31
0.0
 11
6.6499540576
 21
4.0907316973
 31
0.0
 11
6.6681160963
 21
4.1008144159
 31
0.0
 11
6.6868186987
 21
4.1064979739
 31
0.0
  0
SPLINE
  5
458
100
AcDbEntity
  8
0
100
AcDbSpline
 62
7
  6
CONTINUOUS
 70
0
 71
3
 72
10
 73
6
 74
4
 42
0.0000001
 43
0.0000001
 44
0.0000000001
 12
0.046105136
 22
-0.0191593078
 32
0.0
 13
0.0498300332
 23
0.0
 33
0.0
 40
0.0
 40
0.0
 40
0.0
 40
0.0
 40
0.1293688429
 40
0.5570788274
 40
1.0
 40
1.0
 40
1.0
 40
1.0
 10
6.602281639
 20
4.0017714399
 30
0.0
 10
6.6042698283
 20
4.0009452341
 30
0.0
 10
6.6129492999
 20
3.9976699251
 30
0.0
 10
6.6291994878
 20
3.9938530504
 30
0.0
 10
6.6436874792
 20
3.9928297304
 30
0.0
 10
6.6510444048
 20
3.9928297304
 30
0.0
 11
6.602281639
 21
4.0017714399
 31
0.0
 11
6.6083211712
 21
3.999485968
 31
0.0
 11
6.6290343762
 21
3.9944661375
 31
0.0
 11
6.6510444048
 21
3.9928297304
 31
0.0
  0
SPLINE
  5
459
100
AcDbEntity
  8
0
100
AcDbSpline
 62
7
  6
CONTINUOUS
 70
0
 71
3
 72
16
 73
12
 74
10
 42
0.0000001
 43
0.0000001
 44
0.0000000001
 12
0.160824059
 22
0.0
 32
0.0
 13
-0.0456348998
 23
0.1546538618
 33
0.0
 40
0.0
 40
0.0
 40
0.0
 40
0.0
 40
0.1444202949
 40
0.2913023498
 40
0.430474705
 40
0.5572747052
 40
0.6737887567
 40
0.7782624896
 40
0.8784084746
 40
0.9872055367
 40
1.0
 40
1.0
 40
1.0
 40
1.0
 10
6.6510444048
 20
3.9928297304
 30
0.0
 10
6.6587864908
 20
3.9928297304
 30
0.0
 10
6.674424578
 20
3.9939924674
 30
0.0
 10
6.6970209133
 20
3.9991032309
 30
0.0
 10
6.7176108821
 20
4.0075502168
 30
0.0
 10
6.7348010723
 20
4.0190240637
 30
0.0
 10
6.7474965007
 20
4.0329885029
 30
0.0
 10
6.7551276124
 20
4.0486950327
 30
0.0
 10
6.7577817712
 20
4.065522689
 30
0.0
 10
6.75619976
 20
4.0774607364
 30
0.0
 10
6.754441099
 20
4.0837565984
 30
0.0
 10
6.7542464743
 20
4.0844161694
 30
0.0
 11
6.6510444048
 21
3.9928297304
 31
0.0
 11
6.6742070979
 21
3.9945469113
 31
0.0
 11
6.697228049
 21
3.9998424416
 31
0.0
 11
6.7178689769
 21
4.0084979483
 31
0.0
 11
6.7347056466
 21
4.0200036092
 31
0.0
 11
6.7471533594
 21
4.0340099268
 31
0.0
 11
6.7544146148
 21
4.0491617475
 31
0.0
 11
6.7569595658
 21
4.0650652917
 31
0.0
 11
6.754801342
 21
4.0824288616
 31
0.0
 11
6.7542464743
 21
4.0844161694
 31
0.0
  0
SPLINE
  5
45A
100
AcDbEntity
  8
0
100
AcDbSpline
 62
7
  6
CONTINUOUS
 70
0
 71
3
 72
10
 73
6
 74
4
 42
0.0000001
 43
0.0000001
 44
0.0000000001
 12
-0.0498323224
 22
0.0
 32
0.0
 13
-0.046107286
 23
-0.0191614203
 33
0.0
 40
0.0
 40
0.0
 40
0.0
 40
0.0
 40
0.4419905803
 40
0.8697776441
 40
1.0
 40
1.0
 40
1.0
 40
1.0
 10
6.6510444048
 20
4.4204537598
 30
0.0
 10
6.6437025991
 20
4.4204537598
 30
0.0
 10
6.6292283028
 20
4.4194334439
 30
0.0
 10
6.612976113
 20
4.4156221937
 30
0.0
 10
6.6042809214
 20
4.4123429229
 30
0.0
 10
6.6022795216
 20
4.4115111745
 30
0.0
 11
6.6510444048
 21
4.4204537598
 31
0.0
 11
6.6290793495
 21
4.4188242374
 31
0.0
 11
6.608359657
 21
4.4138107164
 31
0.0
 11
6.6022795216
 21
4.4115111745
 31
0.0
  0
SPLINE
  5
45B
100
AcDbEntity
  8
0
100
AcDbSpline
 62
7
  6
CONTINUOUS
 70
0
 71
3
 72
12
 73
8
 74
6
 42
0.0000001
 43
0.0000001
 44
0.0000000001
 12
-0.0790342543
 22
-0.0148572164
 32
0.0
 13
-0.0475303859
 23
0.0652575679
 33
0.0
 40
0.0
 40
0.0
 40
0.0
 40
0.0
 40
0.2307623799
 40
0.458507636
 40
0.6729260417
 40
0.8732895861
 40
1.0
 40
1.0
 40
1.0
 40
1.0
 10
6.6868186987
 20
3.9436851979
 30
0.0
 10
6.6807393212
 20
3.9425423691
 30
0.0
 10
6.6684515956
 20
3.9412131895
 30
0.0
 10
6.6503415386
 20
3.9426849591
 30
0.0
 10
6.6337856333
 20
3.9481018757
 30
0.0
 10
6.6216036892
 20
3.9563765585
 30
0.0
 10
6.6157522089
 20
3.9630050721
 30
0.0
 10
6.6137446773
 20
3.9657613432
 30
0.0
 11
6.6868186987
 21
3.9436851979
 31
0.0
 11
6.6683576133
 21
3.9417951386
 31
0.0
 11
6.6501172593
 21
3.9434465014
 31
0.0
 11
6.6337859229
 21
3.9489797027
 31
0.0
 11
6.6205121362
 21
3.9581139181
 31
0.0
 11
6.6137446773
 21
3.9657613432
 31
0.0
  0
SPLINE
  5
45C
100
AcDbEntity
  8
0
100
AcDbSpline
 62
7
  6
CONTINUOUS
 70
0
 71
3
 72
9
 73
5
 74
3
 42
0.0000001
 43
0.0000001
 44
0.0000000001
 12
-0.0025233528
 22
-0.0005312681
 32
0.0
 13
-0.0025342834
 23
-0.000476406
 33
0.0
 40
0.0
 40
0.0
 40
0.0
 40
0.0
 40
0.5007369032
 40
1.0
 40
1.0
 40
1.0
 40
1.0
 10
6.6893476098
 20
3.9441891508
 30
0.0
 10
6.6889264311
 20
3.9441004756
 30
0.0
 10
6.6880843552
 20
3.9439279074
 30
0.0
 10
6.6872404568
 20
3.9437644819
 30
0.0
 10
6.6868186987
 20
3.9436851979
 30
0.0
 11
6.6893476098
 21
3.9441891508
 31
0.0
 11
6.6880826572
 21
3.9439299455
 31
0.0
 11
6.6868186987
 21
3.9436851979
 31
0.0
  0
SPLINE
  5
45D
100
AcDbEntity
  8
0
100
AcDbSpline
 62
7
  6
CONTINUOUS
 70
0
 71
3
 72
12
 73
8
 74
6
 42
0.0000001
 43
0.0000001
 44
0.0000000001
 12
0.0475300006
 22
0.0652538676
 32
0.0
 13
0.0790325034
 23
-0.0148568873
 33
0.0
 40
0.0
 40
0.0
 40
0.0
 40
0.0
 40
0.1261544158
 40
0.3264105065
 40
0.5411288772
 40
0.7690266902
 40
1.0
 40
1.0
 40
1.0
 40
1.0
 10
6.6137456838
 20
4.4475236114
 30
0.0
 10
6.6157443902
 20
4.4502676326
 30
0.0
 10
6.6215809631
 20
4.4568843741
 30
0.0
 10
6.6337470493
 20
4.4651641114
 30
0.0
 10
6.6503091371
 20
4.470593805
 30
0.0
 10
6.668436464
 20
4.4720715131
 30
0.0
 10
6.6807338991
 20
4.4707421404
 30
0.0
 10
6.6868186987
 20
4.4695982922
 30
0.0
 11
6.6137456838
 21
4.4475236114
 31
0.0
 11
6.6204803124
 21
4.4551398999
 31
0.0
 11
6.6337388569
 21
4.4642803819
 31
0.0
 11
6.6500892714
 21
4.4698312461
 31
0.0
 11
6.6683409969
 21
4.4714885594
 31
0.0
 11
6.6868186987
 21
4.4695982922
 31
0.0
  0
SPLINE
  5
45E
100
AcDbEntity
  8
0
100
AcDbSpline
 62
7
  6
CONTINUOUS
 70
0
 71
3
 72
17
 73
13
 74
11
 42
0.0000001
 43
0.0000001
 44
0.0000000001
 12
0.1095715358
 22
-0.1504233118
 32
0.0
 13
-0.1856730065
 23
-0.003679654
 33
0.0
 40
0.0
 40
0.0
 40
0.0
 40
0.0
 40
0.0577569773
 40
0.1610912565
 40
0.2542553736
 40
0.3422469943
 40
0.4321535021
 40
0.5304037285
 40
0.6375963511
 40
0.7546972706
 40
0.8781151556
 40
1.0
 40
1.0
 40
1.0
 40
1.0
 10
6.7757708482
 20
4.0626173003
 30
0.0
 10
6.7778803551
 20
4.0597213017
 30
0.0
 10
6.7832913458
 20
4.051301602
 30
0.0
 10
6.7893819782
 20
4.0366049649
 30
0.0
 10
6.7916635081
 20
4.0189213896
 30
0.0
 10
6.7890885728
 20
4.0021160085
 30
0.0
 10
6.7817993582
 20
3.9864130336
 30
0.0
 10
6.7698429606
 20
3.9723173608
 30
0.0
 10
6.7535822636
 20
3.9604598651
 30
0.0
 10
6.7338851253
 20
3.9514700759
 30
0.0
 10
6.7120746575
 20
3.9458137458
 30
0.0
 10
6.6968911849
 20
3.9443386488
 30
0.0
 10
6.6893476098
 20
3.9441891508
 30
0.0
 11
6.7757708482
 21
4.0626173003
 31
0.0
 11
6.7815609053
 21
4.0535691352
 31
0.0
 11
6.7887596705
 21
4.035780381
 31
0.0
 11
6.790865611
 21
4.018607569
 31
0.0
 11
6.7883713858
 21
4.0024581698
 31
0.0
 11
6.7814144579
 21
3.9872800964
 31
0.0
 11
6.7697383094
 21
3.9732592562
 31
0.0
 11
6.7537624191
 21
3.9613829345
 31
0.0
 11
6.7340414367
 21
3.9522175677
 31
0.0
 11
6.7118759602
 21
3.9463855815
 31
0.0
 11
6.6893476098
 21
3.9441891508
 31
0.0
  0
SPLINE
  5
45F
100
AcDbEntity
  8
0
100
AcDbSpline
 62
7
  6
CONTINUOUS
 70
0
 71
3
 72
17
 73
13
 74
11
 42
0.0000001
 43
0.0000001
 44
0.0000000001
 12
0.1856780079
 22
-0.0036797531
 32
0.0
 13
-0.1095818786
 23
-0.1504196084
 33
0.0
 40
0.0
 40
0.0
 40
0.0
 40
0.0
 40
0.1220056399
 40
0.2454318758
 40
0.3624194896
 40
0.4696777776
 40
0.5678777498
 40
0.6576293432
 40
0.7455152722
 40
0.8390870273
 40
0.9427069095
 40
1.0
 40
1.0
 40
1.0
 40
1.0
 10
6.6893476098
 20
4.4690943394
 30
0.0
 10
6.6968988645
 20
4.4689446892
 30
0.0
 10
6.7120907738
 20
4.4674675986
 30
0.0
 10
6.7339018789
 20
4.4618070619
 30
0.0
 10
6.7535958183
 20
4.4528154555
 30
0.0
 10
6.7698509386
 20
4.4409592154
 30
0.0
 10
6.7817992475
 20
4.4268676101
 30
0.0
 10
6.7890813353
 20
4.411183169
 30
0.0
 10
6.7916663704
 20
4.3943701809
 30
0.0
 10
6.7893793921
 20
4.3766474435
 30
0.0
 10
6.783269793
 20
4.3619419596
 30
0.0
 10
6.7778603954
 20
4.3535344446
 30
0.0
 10
6.7757676339
 20
4.3506617765
 30
0.0
 11
6.6893476098
 21
4.4690943394
 31
0.0
 11
6.7118987204
 21
4.466893886
 31
0.0
 11
6.7340652561
 21
4.4610574057
 31
0.0
 11
6.753766514
 21
4.4518981363
 31
0.0
 11
6.7697511226
 21
4.4400122029
 31
0.0
 11
6.7814190902
 21
4.4259960561
 31
0.0
 11
6.7883656552
 21
4.4108443861
 31
0.0
 11
6.7908649793
 21
4.3947151923
 31
0.0
 11
6.7887502189
 21
4.3774667209
 31
0.0
 11
6.7815164093
 21
4.359634379
 31
0.0
 11
6.7757676339
 21
4.3506617765
 31
0.0
  0
SPLINE
  5
460
100
AcDbEntity
  8
0
100
AcDbSpline
 62
7
  6
CONTINUOUS
 70
0
 71
3
 72
9
 73
5
 74
3
 42
0.0000001
 43
0.0000001
 44
0.0000000001
 12
0.0025342834
 22
-0.000476406
 32
0.0
 13
0.0025233528
 23
-0.0005312681
 33
0.0
 40
0.0
 40
0.0
 40
0.0
 40
0.0
 40
0.4992806692
 40
1.0
 40
1.0
 40
1.0
 40
1.0
 10
6.6868186987
 20
4.4695982922
 30
0.0
 10
6.6872404716
 20
4.4695190055
 30
0.0
 10
6.68808437
 20
4.4693555799
 30
0.0
 10
6.6889264459
 20
4.4691830115
 30
0.0
 10
6.6893476098
 20
4.4690943394
 30
0.0
 11
6.6868186987
 21
4.4695982922
 31
0.0
 11
6.6880827016
 21
4.4693535359
 31
0.0
 11
6.6893476098
 21
4.4690943394
 31
0.0
  0
SPLINE
  5
461
100
AcDbEntity
  8
127-416_FEATURES
100
AcDbSpline
 62
7
  6
CONTINUOUS
 70
0
 71
3
 72
11
 73
7
 74
5
 42
0.0000001
 43
0.0000001
 44
0.0000000001
 12
0.0156541099
 22
0.0
 32
0.0
 13
0.0156449827
 23
-0.0005346667
 33
0.0
 40
0.0
 40
0.0
 40
0.0
 40
0.0
 40
0.3220410074
 40
0.6151493978
 40
0.8482337465
 40
1.0
 40
1.0
 40
1.0
 40
1.0
 10
5.8163404539
 20
3.7489390578
 30
0.0
 10
5.8180208757
 20
3.7489390578
 30
0.0
 10
5.821230777
 20
3.7489213791
 30
0.0
 10
5.8256563938
 20
3.7488504575
 30
0.0
 10
5.8291929407
 20
3.7487619879
 30
0.0
 10
5.8312001132
 20
3.7486985894
 30
0.0
 10
5.8319915734
 20
3.7486715413
 30
0.0
 11
5.8163404539
 21
3.7489390578
 31
0.0
 11
5.8213816428
 21
3.7489112965
 31
0.0
 11
5.8259694049
 21
3.7488377841
 31
0.0
 11
5.8296169919
 21
3.7487465426
 31
0.0
 11
5.8319915734
 21
3.7486715413
 31
0.0
  0
SPLINE
  5
462
100
AcDbEntity
  8
127-416_FEATURES
100
AcDbSpline
 62
7
  6
CONTINUOUS
 70
0
 71
3
 72
8
 73
4
 74
2
 42
0.0000001
 43
0.0000001
 44
0.0000000001
 12
0.0008489081
 22
-0.0000290114
 32
0.0
 13
0.0008488526
 23
-0.000030581
 33
0.0
 40
0.0
 40
0.0
 40
0.0
 40
0.0
 40
1.0
 40
1.0
 40
1.0
 40
1.0
 10
5.8319915734
 20
3.7486715413
 30
0.0
 10
5.8322745427
 20
3.7486618709
 30
0.0
 10
5.8325575031
 20
3.7486519387
 30
0.0
 10
5.8328404539
 20
3.7486417451
 30
0.0
 11
5.8319915734
 21
3.7486715413
 31
0.0
 11
5.8328404539
 21
3.7486417451
 31
0.0
  0
SPLINE
  5
463
100
AcDbEntity
  8
127-416_FEATURES
100
AcDbSpline
 62
7
  6
CONTINUOUS
 70
0
 71
3
 72
8
 73
4
 74
2
 42
0.0000001
 43
0.0000001
 44
0.0000000001
 12
0.0008093703
 22
0.0000291586
 32
0.0
 13
0.0008094208
 23
0.0000277316
 33
0.0
 40
0.0
 40
0.0
 40
0.0
 40
0.0
 40
1.0
 40
1.0
 40
1.0
 40
1.0
 10
5.7998404539
 20
3.7486417451
 30
0.0
 10
5.800110244
 20
3.7486514646
 30
0.0
 10
5.8003800427
 20
3.7486609464
 30
0.0
 10
5.8006498497
 20
3.7486701902
 30
0.0
 11
5.7998404539
 21
3.7486417451
 31
0.0
 11
5.8006498497
 21
3.7486701902
 31
0.0
  0
SPLINE
  5
464
100
AcDbEntity
  8
127-416_FEATURES
100
AcDbSpline
 62
7
  6
CONTINUOUS
 70
0
 71
3
 72
8
 73
4
 74
2
 42
0.0000001
 43
0.0000001
 44
0.0000000001
 12
0.0007029494
 22
0.0000240838
 32
0.0
 13
0.0007029858
 23
0.0000230072
 33
0.0
 40
0.0
 40
0.0
 40
0.0
 40
0.0
 40
1.0
 40
1.0
 40
1.0
 40
1.0
 10
5.8006498497
 20
3.7486701902
 30
0.0
 10
5.8008841661
 20
3.7486782182
 30
0.0
 10
5.8011184888
 20
3.7486860667
 30
0.0
 10
5.8013528174
 20
3.7486937358
 30
0.0
 11
5.8006498497
 21
3.7486701902
 31
0.0
 11
5.8013528174
 21
3.7486937358
 31
0.0
  0
SPLINE
  5
465
100
AcDbEntity
  8
127-416_FEATURES
100
AcDbSpline
 62
7
  6
CONTINUOUS
 70
0
 71
3
 72
11
 73
7
 74
5
 42
0.0000001
 43
0.0000001
 44
0.0000000001
 12
0.014982245
 22
0.0004903361
 32
0.0
 13
0.0149902548
 23
0.0
 33
0.0
 40
0.0
 40
0.0
 40
0.0
 40
0.0
 40
0.1067735616
 40
0.3489854016
 40
0.6588176577
 40
1.0
 40
1.0
 40
1.0
 40
1.0
 10
5.8013528174
 20
3.7486937358
 30
0.0
 10
5.8018860533
 20
3.7487111874
 30
0.0
 10
5.8036290151
 20
3.7487651899
 30
0.0
 10
5.8069199474
 20
3.7488483792
 30
0.0
 10
5.8113826619
 20
3.7489208818
 30
0.0
 10
5.8146356505
 20
3.7489390578
 30
0.0
 10
5.8163404539
 20
3.7489390578
 30
0.0
 11
5.8013528174
 21
3.7486937358
 31
0.0
 11
5.8029526139
 21
3.7487433019
 31
0.0
 11
5.8065822717
 21
3.7488350478
 31
0.0
 11
5.8112261235
 21
3.7489104851
 31
0.0
 11
5.8163404539
 21
3.7489390578
 31
0.0
  0
SPLINE
  5
466
100
AcDbEntity
  8
0
100
AcDbSpline
 62
7
  6
CONTINUOUS
 70
0
 71
3
 72
14
 73
10
 74
8
 42
0.0000001
 43
0.0000001
 44
0.0000000001
 12
-0.1442757118
 22
0.2708049707
 32
0.0
 13
0.1442757118
 23
0.2708049707
 33
0.0
 40
0.0
 40
0.0
 40
0.0
 40
0.0
 40
0.1539652166
 40
0.2964780264
 40
0.4328366592
 40
0.567267274
 40
0.7036195666
 40
0.846074992
 40
1.0
 40
1.0
 40
1.0
 40
1.0
 10
4.4769511252
 20
3.5732564356
 30
0.0
 10
4.4695466448
 20
3.5871546176
 30
0.0
 10
4.4565075157
 20
3.6146089575
 30
0.0
 10
4.4425385639
 20
3.6567587406
 30
0.0
 10
4.4353744793
 20
3.6986079439
 30
0.0
 10
4.4353772819
 20
3.7404569074
 30
0.0
 10
4.4425452554
 20
3.7822987449
 30
0.0
 10
4.4565134349
 20
3.8244373817
 30
0.0
 10
4.4695485785
 20
3.8518825021
 30
0.0
 10
4.4769511252
 20
3.8657770546
 30
0.0
 11
4.4769511252
 21
3.5732564356
 31
0.0
 11
4.4569398906
 21
3.6160515594
 31
0.0
 11
4.4434279598
 21
3.6576402769
 31
0.0
 11
4.4365317515
 21
3.6989083286
 31
0.0
 11
4.4365344423
 21
3.7401570244
 31
0.0
 11
4.4434351894
 21
3.7814223451
 31
0.0
 11
4.4569444675
 21
3.8229934104
 31
0.0
 11
4.4769511252
 21
3.8657770546
 31
0.0
  0
SPLINE
  5
467
100
AcDbEntity
  8
0
100
AcDbSpline
 62
7
  6
CONTINUOUS
 70
0
 71
3
 72
14
 73
10
 74
8
 42
0.0000001
 43
0.0000001
 44
0.0000000001
 12
0.1442757118
 22
0.2708049707
 32
0.0
 13
-0.1442757118
 23
0.2708049707
 33
0.0
 40
0.0
 40
0.0
 40
0.0
 40
0.0
 40
0.1539652166
 40
0.2964780264
 40
0.4328366592
 40
0.567267274
 40
0.7036195666
 40
0.846074992
 40
1.0
 40
1.0
 40
1.0
 40
1.0
 10
5.0639148281
 20
3.5732564356
 30
0.0
 10
5.0713193085
 20
3.5871546176
 30
0.0
 10
5.0843584377
 20
3.6146089575
 30
0.0
 10
5.0983273894
 20
3.6567587406
 30
0.0
 10
5.105491474
 20
3.6986079439
 30
0.0
 10
5.1054886714
 20
3.7404569074
 30
0.0
 10
5.0983206979
 20
3.7822987449
 30
0.0
 10
5.0843525185
 20
3.8244373817
 30
0.0
 10
5.0713173748
 20
3.8518825021
 30
0.0
 10
5.0639148281
 20
3.8657770546
 30
0.0
 11
5.0639148281
 21
3.5732564356
 31
0.0
 11
5.0839260628
 21
3.6160515594
 31
0.0
 11
5.0974379935
 21
3.6576402769
 31
0.0
 11
5.1043342018
 21
3.6989083286
 31
0.0
 11
5.104331511
 21
3.7401570244
 31
0.0
 11
5.0974307639
 21
3.7814223451
 31
0.0
 11
5.0839214859
 21
3.8229934104
 31
0.0
 11
5.0639148281
 21
3.8657770546
 31
0.0
  0
SPLINE
  5
468
100
AcDbEntity
  8
0
100
AcDbSpline
 62
7
  6
CONTINUOUS
 70
0
 71
3
 72
14
 73
10
 74
8
 42
0.0000001
 43
0.0000001
 44
0.0000000001
 12
-0.1524912644
 22
0.5724510643
 32
0.0
 13
0.1524912644
 23
0.5724510643
 33
0.0
 40
0.0
 40
0.0
 40
0.0
 40
0.0
 40
0.1483734886
 40
0.2906183378
 40
0.4304255817
 40
0.5696820058
 40
0.7094806994
 40
0.8516660081
 40
1.0
 40
1.0
 40
1.0
 40
1.0
 10
4.4769511252
 20
3.9141211262
 30
0.0
 10
4.4694092383
 20
3.9424333133
 30
0.0
 10
4.456206119
 20
3.9983286562
 30
0.0
 10
4.4424028298
 20
4.0822725125
 30
0.0
 10
4.4353715516
 20
4.165265819
 30
0.0
 10
4.4353742926
 20
4.248079782
 30
0.0
 10
4.4424094713
 20
4.3310592269
 30
0.0
 10
4.456212212
 20
4.4149815394
 30
0.0
 10
4.4694112459
 20
4.4708577135
 30
0.0
 10
4.4769511252
 20
4.499162364
 30
0.0
 11
4.4769511252
 21
3.9141211262
 31
0.0
 11
4.4569398906
 21
3.9997113738
 31
0.0
 11
4.4434279598
 21
4.0828888086
 31
0.0
 11
4.4365317515
 21
4.1654249122
 31
0.0
 11
4.4365344423
 21
4.2479223038
 31
0.0
 11
4.4434351894
 21
4.330452945
 31
0.0
 11
4.4569444675
 21
4.4135950757
 31
0.0
 11
4.4769511252
 21
4.499162364
 31
0.0
  0
SPLINE
  5
469
100
AcDbEntity
  8
0
100
AcDbSpline
 62
7
  6
CONTINUOUS
 70
0
 71
3
 72
14
 73
10
 74
8
 42
0.0000001
 43
0.0000001
 44
0.0000000001
 12
0.1524912644
 22
0.5724510643
 32
0.0
 13
-0.1524912644
 23
0.5724510643
 33
0.0
 40
0.0
 40
0.0
 40
0.0
 40
0.0
 40
0.1483734886
 40
0.2906183378
 40
0.4304255817
 40
0.5696820058
 40
0.7094806994
 40
0.8516660081
 40
1.0
 40
1.0
 40
1.0
 40
1.0
 10
5.0639148281
 20
3.9141211262
 30
0.0
 10
5.0714567151
 20
3.9424333133
 30
0.0
 10
5.0846598343
 20
3.9983286562
 30
0.0
 10
5.0984631236
 20
4.0822725125
 30
0.0
 10
5.1054944018
 20
4.165265819
 30
0.0
 10
5.1054916607
 20
4.248079782
 30
0.0
 10
5.098456482
 20
4.3310592269
 30
0.0
 10
5.0846537414
 20
4.4149815394
 30
0.0
 10
5.0714547074
 20
4.4708577135
 30
0.0
 10
5.0639148281
 20
4.499162364
 30
0.0
 11
5.0639148281
 21
3.9141211262
 31
0.0
 11
5.0839260628
 21
3.9997113738
 31
0.0
 11
5.0974379935
 21
4.0828888086
 31
0.0
 11
5.1043342018
 21
4.1654249122
 31
0.0
 11
5.104331511
 21
4.2479223038
 31
0.0
 11
5.0974307639
 21
4.330452945
 31
0.0
 11
5.0839214859
 21
4.4135950757
 31
0.0
 11
5.0639148281
 21
4.499162364
 31
0.0
  0
SPLINE
  5
46A
100
AcDbEntity
  8
0
100
AcDbSpline
 62
7
  6
CONTINUOUS
 70
0
 71
3
 72
14
 73
10
 74
8
 42
0.0000001
 43
0.0000001
 44
0.0000000001
 12
-0.1442757118
 22
0.2708049707
 32
0.0
 13
0.1442757118
 23
0.2708049707
 33
0.0
 40
0.0
 40
0.0
 40
0.0
 40
0.0
 40
0.1539652166
 40
0.2964780264
 40
0.4328366592
 40
0.567267274
 40
0.7036195666
 40
0.846074992
 40
1.0
 40
1.0
 40
1.0
 40
1.0
 10
4.4769511252
 20
4.5475064356
 30
0.0
 10
4.4695466448
 20
4.5614046176
 30
0.0
 10
4.4565075157
 20
4.5888589575
 30
0.0
 10
4.4425385639
 20
4.6310087406
 30
0.0
 10
4.4353744793
 20
4.6728579439
 30
0.0
 10
4.4353772819
 20
4.7147069074
 30
0.0
 10
4.4425452554
 20
4.7565487449
 30
0.0
 10
4.4565134349
 20
4.7986873817
 30
0.0
 10
4.4695485785
 20
4.8261325021
 30
0.0
 10
4.4769511252
 20
4.8400270546
 30
0.0
 11
4.4769511252
 21
4.5475064356
 31
0.0
 11
4.4569398906
 21
4.5903015594
 31
0.0
 11
4.4434279598
 21
4.6318902769
 31
0.0
 11
4.4365317515
 21
4.6731583286
 31
0.0
 11
4.4365344423
 21
4.7144070244
 31
0.0
 11
4.4434351894
 21
4.7556723451
 31
0.0
 11
4.4569444675
 21
4.7972434104
 31
0.0
 11
4.4769511252
 21
4.8400270546
 31
0.0
  0
SPLINE
  5
46B
100
AcDbEntity
  8
0
100
AcDbSpline
 62
7
  6
CONTINUOUS
 70
0
 71
3
 72
14
 73
10
 74
8
 42
0.0000001
 43
0.0000001
 44
0.0000000001
 12
0.1442757118
 22
0.2708049707
 32
0.0
 13
-0.1442757118
 23
0.2708049707
 33
0.0
 40
0.0
 40
0.0
 40
0.0
 40
0.0
 40
0.1539652166
 40
0.2964780264
 40
0.4328366592
 40
0.567267274
 40
0.7036195666
 40
0.846074992
 40
1.0
 40
1.0
 40
1.0
 40
1.0
 10
5.0639148281
 20
4.5475064356
 30
0.0
 10
5.0713193085
 20
4.5614046176
 30
0.0
 10
5.0843584377
 20
4.5888589575
 30
0.0
 10
5.0983273894
 20
4.6310087406
 30
0.0
 10
5.105491474
 20
4.6728579439
 30
0.0
 10
5.1054886714
 20
4.7147069074
 30
0.0
 10
5.0983206979
 20
4.7565487449
 30
0.0
 10
5.0843525185
 20
4.7986873817
 30
0.0
 10
5.0713173748
 20
4.8261325021
 30
0.0
 10
5.0639148281
 20
4.8400270546
 30
0.0
 11
5.0639148281
 21
4.5475064356
 31
0.0
 11
5.0839260628
 21
4.5903015594
 31
0.0
 11
5.0974379935
 21
4.6318902769
 31
0.0
 11
5.1043342018
 21
4.6731583286
 31
0.0
 11
5.104331511
 21
4.7144070244
 31
0.0
 11
5.0974307639
 21
4.7556723451
 31
0.0
 11
5.0839214859
 21
4.7972434104
 31
0.0
 11
5.0639148281
 21
4.8400270546
 31
0.0
  0
ENDSEC
  0
SECTION
  2
OBJECTS
  0
DICTIONARY
  5
C
100
AcDbDictionary
280
0
281
1
  3
ACAD_GROUP
350
D
  3
ACAD_MLINESTYLE
350
17
  3
ACAD_LAYOUT
350
1A
  3
ACAD_PLOTSETTINGS
350
19
  3
ACAD_PLOTSTYLENAME
350
E
  0
DICTIONARY
  5
D
102
{ACAD_REACTORS
330
C
102
}
100
AcDbDictionary
280
0
281
1
  0
ACDBDICTIONARYWDFLT
  5
E
102
{ACAD_REACTORS
330
C
102
}
100
AcDbDictionary
281
1
  3
Normal
350
F
100
AcDbDictionaryWithDefault
340
F
  0
DICTIONARY
  5
17
102
{ACAD_REACTORS
330
C
102
}
100
AcDbDictionary
280
0
281
1
  3
Standard
350
18
  0
DICTIONARY
  5
19
102
{ACAD_REACTORS
330
C
102
}
100
AcDbDictionary
281
1
  0
DICTIONARY
  5
1A
102
{ACAD_REACTORS
330
C
102
}
100
AcDbDictionary
281
1
  3
Layout1
350
1E
  3
Model
350
22
  0
ACDBPLACEHOLDER
  5
F
102
{ACAD_REACTORS
330
E
102
}
  0
MLINESTYLE
  5
18
102
{ACAD_REACTORS
330
17
102
}
100
AcDbMlineStyle
  2
STANDARD
 70
0
  3

 62
256
 51
90.0
 52
90.0
 71
2
 49
0.5
 62
256
  6
BYLAYER
 49
-0.5
 62
256
  6
BYLAYER
  0
LAYOUT
  5
1E
102
{ACAD_REACTORS
330
1A
102
}
100
AcDbPlotSettings
  1

  2

  4

  6

 40
0.0
 41
0.0
 42
0.0
 43
0.0
 44
0.0
 45
0.0
 46
0.0
 47
0.0
 48
0.0
 49
0.0
140
0.0
141
0.0
142
1.0
143
1.0
 70
0
 72
0
 73
0
 74
0
  7

 75
0
147
1.0
148
0.0
149
0.0
100
AcDbLayout
  1
Layout1
 70
0
 71
0
 10
0.0
 20
0.0
 11
0.0
 21
0.0
 12
0.0
 22
0.0
 32
0.0
 14
0.0
 24
0.0
 34
0.0
 15
0.0
 25
0.0
 35
0.0
146
0.0
 13
0.0
 23
0.0
 33
0.0
 16
0.0
 26
0.0
 36
0.0
 17
0.0
 27
0.0
 37
0.0
 76
0
330
1B
331
0
345
0
346
0
  0
LAYOUT
  5
22
102
{ACAD_REACTORS
330
1A
102
}
100
AcDbPlotSettings
  1

  2

  4

  6

 40
0.0
 41
0.0
 42
0.0
 43
0.0
 44
0.0
 45
0.0
 46
0.0
 47
0.0
 48
0.0
 49
0.0
140
0.0
141
0.0
142
1.0
143
1.0
 70
0
 72
0
 73
0
 74
0
  7

 75
0
147
1.0
148
0.0
149
0.0
100
AcDbLayout
  1
Model
 70
0
 71
0
 10
0.0
 20
0.0
 11
0.0
 21
0.0
 12
0.0
 22
0.0
 32
0.0
 14
0.0
 24
0.0
 34
0.0
 15
0.0
 25
0.0
 35
0.0
146
0.0
 13
0.0
 23
0.0
 33
0.0
 16
0.0
 26
0.0
 36
0.0
 17
0.0
 27
0.0
 37
0.0
 76
0
330
1F
331
0
345
0
346
0
  0
ENDSEC
  0
EOF
