999
DXF file: CBEA-LIN.dxf
999
Pro/ENGINEER 2006240 by Parametric Technology Corporation
  0
SECTION
  2
HEADER
  9
$ACADVER
  1
AC1015
  9
$DWGCODEPAGE
  3
ANSI_1252
  9
$EXTMAX
 10
11.6929133858
 20
8.2677165354
 30
0.0
  9
$EXTMIN
 10
0.0
 20
0.0
 30
0.0
  9
$LIMMIN
 10
0.0
 20
0.0
  9
$LIMMAX
 10
11.6929133858
 20
8.2677165354
  9
$VIEWCTR
 10
5.8464566929
 20
4.1338582677
  9
$VIEWSIZE
 40
8.2677165354
  9
$CLAYER
  8
0
  9
$LTSCALE
 40
0.6431102362
  9
$CELTYPE
  6
BYLAYER
  9
$DIMSCALE
 40
1.0
  9
$DIMASZ
 40
0.1875
  9
$DIMEXO
 40
0.0730807087
  9
$DIMDLI
 40
0.4443307087
  9
$DIMEXE
 40
0.2104724409
  9
$DIMCEN
 40
0.1052362205
  9
$DIMLFAC
 40
1.0
  9
$DIMBLK
  1
_CLOSED
  9
$DIMTXT
 40
0.15625
  9
$DIMTOL
 70
0
  9
$DIMLIM
 70
0
  9
$DIMTFAC
 40
1.0
  9
$PDMODE
 70
3
  9
$PDSIZE
 40
0.3125
  9
$HANDSEED
  5
4B2
  9
$MEASUREMENT
 70
0
  9
$INSUNITS
 70
1
  0
ENDSEC
  0
SECTION
  2
CLASSES
  0
CLASS
  1
ACDBDICTIONARYWDFLT
  2
AcDbDictionaryWithDefault
  3
AutoCAD 2000
 90
0
280
0
281
0
  0
CLASS
  1
ACDBPLACEHOLDER
  2
AcDbPlaceHolder
  3
AutoCAD 2000
 90
0
280
0
281
0
  0
CLASS
  1
LAYOUT
  2
AcDbLayout
  3
AutoCAD 2000
 90
0
280
0
281
0
  0
ENDSEC
  0
SECTION
  2
TABLES
  0
TABLE
  2
VPORT
  5
8
100
AcDbSymbolTable
 70
2
  0
VPORT
  5
1F4
100
AcDbSymbolTableRecord
100
AcDbViewportTableRecord
  2
*ACTIVE
 70
0
 10
0.0
 20
0.0
 11
1.0
 21
1.0
 12
5.8464566929
 22
4.1338582677
 13
0.0
 23
0.0
 14
1.0
 24
1.0
 15
0.0
 25
0.0
 16
0.0
 26
0.0
 36
1.0
 17
0.0
 27
0.0
 37
0.0
 40
8.2677165354
 41
1.4142857143
 42
50.0
 43
0.0
 44
0.0
 50
0.0
 51
0.0
 71
0
 72
100
 73
1
 74
1
 75
0
 76
0
 77
0
 78
0
  0
ENDTAB
  0
TABLE
  2
LTYPE
  5
5
100
AcDbSymbolTable
 70
6
  0
LTYPE
  5
14
100
AcDbSymbolTableRecord
100
AcDbLinetypeTableRecord
  2
BYBLOCK
 70
0
  3

 72
65
 73
0
 40
0.0
  0
LTYPE
  5
15
100
AcDbSymbolTableRecord
100
AcDbLinetypeTableRecord
  2
BYLAYER
 70
0
  3

 72
65
 73
0
 40
0.0
  0
LTYPE
  5
16
100
AcDbSymbolTableRecord
100
AcDbLinetypeTableRecord
  2
CONTINUOUS
 70
64
  3
Solid line
 72
65
 73
0
 40
0.0
  0
LTYPE
  5
1F5
100
AcDbSymbolTableRecord
100
AcDbLinetypeTableRecord
  2
CENTER
 70
64
  3
____ _ ____ _ ____ _ ____ _ ____ _ ____ _ ____
 72
65
 73
4
 40
0.6
 49
0.375
 74
0
 49
-0.075
 74
0
 49
0.075
 74
0
 49
-0.075
 74
0
  0
LTYPE
  5
1F6
100
AcDbSymbolTableRecord
100
AcDbLinetypeTableRecord
  2
HIDDEN
 70
64
  3
- - - - - - - - - - - - - - - - - - - -
 72
65
 73
2
 40
0.2
 49
0.1
 74
0
 49
-0.1
 74
0
  0
LTYPE
  5
1F7
100
AcDbSymbolTableRecord
100
AcDbLinetypeTableRecord
  2
PHANTOM
 70
64
  3
_____ _ _ _____ _ _ _____ _ _ _____
 72
65
 73
6
 40
0.8
 49
0.45
 74
0
 49
-0.05
 74
0
 49
0.1
 74
0
 49
-0.05
 74
0
 49
0.1
 74
0
 49
-0.05
 74
0
  0
LTYPE
  5
1F8
100
AcDbSymbolTableRecord
100
AcDbLinetypeTableRecord
  2
DOT
 70
64
  3
. . . . . . . . . . . . . . . . . . . .
 72
65
 73
2
 40
0.2
 49
0.1
 74
0
 49
-0.1
 74
0
  0
LTYPE
  5
1F9
100
AcDbSymbolTableRecord
100
AcDbLinetypeTableRecord
  2
DASHED
 70
64
  3
- - - - - - - - - - - - - - - - - - - -
 72
65
 73
2
 40
0.2
 49
0.1
 74
0
 49
-0.1
 74
0
  0
ENDTAB
  0
TABLE
  2
LAYER
  5
2
100
AcDbSymbolTable
 70
36
  0
LAYER
  5
10
100
AcDbSymbolTableRecord
100
AcDbLayerTableRecord
  2
0
 70
0
 62
7
  6
CONTINUOUS
370
-3
390
F
  0
LAYER
  5
1FA
100
AcDbSymbolTableRecord
100
AcDbLayerTableRecord
  2
DEFAULT_1
 70
0
 62
7
  6
CENTER
370
-3
390
F
  0
LAYER
  5
1FB
100
AcDbSymbolTableRecord
100
AcDbLayerTableRecord
  2
DEFAULT_2
 70
0
 62
8
  6
HIDDEN
370
-3
390
F
  0
LAYER
  5
1FC
100
AcDbSymbolTableRecord
100
AcDbLayerTableRecord
  2
DEFAULT_3
 70
0
 62
7
  6
PHANTOM
370
-3
390
F
  0
LAYER
  5
1FD
100
AcDbSymbolTableRecord
100
AcDbLayerTableRecord
  2
_BLACK_HOLE
 70
0
 62
7
  6
CONTINUOUS
370
-3
390
F
  0
LAYER
  5
1FE
100
AcDbSymbolTableRecord
100
AcDbLayerTableRecord
  2
01_ALL_DTM_PLN
 70
0
 62
7
  6
CONTINUOUS
370
-3
390
F
  0
LAYER
  5
1FF
100
AcDbSymbolTableRecord
100
AcDbLayerTableRecord
  2
01__ASM_ALL_DTM_PLN
 70
0
 62
7
  6
CONTINUOUS
370
-3
390
F
  0
LAYER
  5
200
100
AcDbSymbolTableRecord
100
AcDbLayerTableRecord
  2
01__ASM_DEF_DTM_PLN
 70
0
 62
7
  6
CONTINUOUS
370
-3
390
F
  0
LAYER
  5
201
100
AcDbSymbolTableRecord
100
AcDbLayerTableRecord
  2
01___PRT_ALL_DTM_PLN
 70
0
 62
7
  6
CONTINUOUS
370
-3
390
F
  0
LAYER
  5
202
100
AcDbSymbolTableRecord
100
AcDbLayerTableRecord
  2
01___PRT_DEF_DTM_PLN
 70
0
 62
7
  6
CONTINUOUS
370
-3
390
F
  0
LAYER
  5
203
100
AcDbSymbolTableRecord
100
AcDbLayerTableRecord
  2
02_ALL_AXES
 70
0
 62
7
  6
CONTINUOUS
370
-3
390
F
  0
LAYER
  5
204
100
AcDbSymbolTableRecord
100
AcDbLayerTableRecord
  2
02__ASM_ALL_AXES
 70
0
 62
7
  6
CONTINUOUS
370
-3
390
F
  0
LAYER
  5
205
100
AcDbSymbolTableRecord
100
AcDbLayerTableRecord
  2
02___PRT_ALL_AXES
 70
0
 62
7
  6
CONTINUOUS
370
-3
390
F
  0
LAYER
  5
206
100
AcDbSymbolTableRecord
100
AcDbLayerTableRecord
  2
03_ALL_CURVES
 70
0
 62
7
  6
CONTINUOUS
370
-3
390
F
  0
LAYER
  5
207
100
AcDbSymbolTableRecord
100
AcDbLayerTableRecord
  2
03__ASM_ALL_CURVES
 70
0
 62
7
  6
CONTINUOUS
370
-3
390
F
  0
LAYER
  5
208
100
AcDbSymbolTableRecord
100
AcDbLayerTableRecord
  2
03___PRT_ALL_CURVES
 70
0
 62
7
  6
CONTINUOUS
370
-3
390
F
  0
LAYER
  5
209
100
AcDbSymbolTableRecord
100
AcDbLayerTableRecord
  2
04_ALL_DTM_PNT
 70
0
 62
7
  6
CONTINUOUS
370
-3
390
F
  0
LAYER
  5
20A
100
AcDbSymbolTableRecord
100
AcDbLayerTableRecord
  2
04__ASM_ALL_DTM_PNT
 70
0
 62
7
  6
CONTINUOUS
370
-3
390
F
  0
LAYER
  5
20B
100
AcDbSymbolTableRecord
100
AcDbLayerTableRecord
  2
04___PRT_ALL_DTM_PNT
 70
0
 62
7
  6
CONTINUOUS
370
-3
390
F
  0
LAYER
  5
20C
100
AcDbSymbolTableRecord
100
AcDbLayerTableRecord
  2
05_ALL_DTM_CSYS
 70
0
 62
7
  6
CONTINUOUS
370
-3
390
F
  0
LAYER
  5
20D
100
AcDbSymbolTableRecord
100
AcDbLayerTableRecord
  2
05__ASM_ALL_DTM_CSYS
 70
0
 62
7
  6
CONTINUOUS
370
-3
390
F
  0
LAYER
  5
20E
100
AcDbSymbolTableRecord
100
AcDbLayerTableRecord
  2
05__ASM_DEF_DTM_CSYS
 70
0
 62
7
  6
CONTINUOUS
370
-3
390
F
  0
LAYER
  5
20F
100
AcDbSymbolTableRecord
100
AcDbLayerTableRecord
  2
05___PRT_ALL_DTM_CSYS
 70
0
 62
7
  6
CONTINUOUS
370
-3
390
F
  0
LAYER
  5
210
100
AcDbSymbolTableRecord
100
AcDbLayerTableRecord
  2
05___PRT_DEF_DTM_CSYS
 70
0
 62
7
  6
CONTINUOUS
370
-3
390
F
  0
LAYER
  5
211
100
AcDbSymbolTableRecord
100
AcDbLayerTableRecord
  2
06_ALL_SURFS
 70
0
 62
7
  6
CONTINUOUS
370
-3
390
F
  0
LAYER
  5
212
100
AcDbSymbolTableRecord
100
AcDbLayerTableRecord
  2
06__ASM_ALL_SURFS
 70
0
 62
7
  6
CONTINUOUS
370
-3
390
F
  0
LAYER
  5
213
100
AcDbSymbolTableRecord
100
AcDbLayerTableRecord
  2
06___PRT_ALL_SURFS
 70
0
 62
7
  6
CONTINUOUS
370
-3
390
F
  0
LAYER
  5
214
100
AcDbSymbolTableRecord
100
AcDbLayerTableRecord
  2
07__ASM_ALL_SKELETONS
 70
0
 62
7
  6
CONTINUOUS
370
-3
390
F
  0
LAYER
  5
215
100
AcDbSymbolTableRecord
100
AcDbLayerTableRecord
  2
127-001_FEATURES
 70
0
 62
7
  6
CONTINUOUS
370
-3
390
F
  0
LAYER
  5
216
100
AcDbSymbolTableRecord
100
AcDbLayerTableRecord
  2
127-001_REF_GEOMETRY
 70
0
 62
7
  6
CONTINUOUS
370
-3
390
F
  0
LAYER
  5
217
100
AcDbSymbolTableRecord
100
AcDbLayerTableRecord
  2
127-004_FEATURES
 70
0
 62
7
  6
CONTINUOUS
370
-3
390
F
  0
LAYER
  5
218
100
AcDbSymbolTableRecord
100
AcDbLayerTableRecord
  2
127-004_REF_GEOMETRY
 70
0
 62
7
  6
CONTINUOUS
370
-3
390
F
  0
LAYER
  5
219
100
AcDbSymbolTableRecord
100
AcDbLayerTableRecord
  2
127-008_FEATURES
 70
0
 62
7
  6
CONTINUOUS
370
-3
390
F
  0
LAYER
  5
21A
100
AcDbSymbolTableRecord
100
AcDbLayerTableRecord
  2
127-008_REF_GEOMETRY
 70
0
 62
7
  6
CONTINUOUS
370
-3
390
F
  0
LAYER
  5
21B
100
AcDbSymbolTableRecord
100
AcDbLayerTableRecord
  2
127-410_FEATURES
 70
0
 62
7
  6
CONTINUOUS
370
-3
390
F
  0
LAYER
  5
21C
100
AcDbSymbolTableRecord
100
AcDbLayerTableRecord
  2
127-410_REF_GEOMETRY
 70
0
 62
7
  6
CONTINUOUS
370
-3
390
F
  0
LAYER
  5
21D
100
AcDbSymbolTableRecord
100
AcDbLayerTableRecord
  2
127-411_FEATURES
 70
0
 62
7
  6
CONTINUOUS
370
-3
390
F
  0
LAYER
  5
21E
100
AcDbSymbolTableRecord
100
AcDbLayerTableRecord
  2
127-411_REF_GEOMETRY
 70
0
 62
7
  6
CONTINUOUS
370
-3
390
F
  0
LAYER
  5
21F
100
AcDbSymbolTableRecord
100
AcDbLayerTableRecord
  2
127-412_FEATURES
 70
0
 62
7
  6
CONTINUOUS
370
-3
390
F
  0
LAYER
  5
220
100
AcDbSymbolTableRecord
100
AcDbLayerTableRecord
  2
127-412_REF_GEOMETRY
 70
0
 62
7
  6
CONTINUOUS
370
-3
390
F
  0
LAYER
  5
221
100
AcDbSymbolTableRecord
100
AcDbLayerTableRecord
  2
127-413_FEATURES
 70
0
 62
7
  6
CONTINUOUS
370
-3
390
F
  0
LAYER
  5
222
100
AcDbSymbolTableRecord
100
AcDbLayerTableRecord
  2
127-413_REF_GEOMETRY
 70
0
 62
7
  6
CONTINUOUS
370
-3
390
F
  0
LAYER
  5
223
100
AcDbSymbolTableRecord
100
AcDbLayerTableRecord
  2
127-414_FEATURES
 70
0
 62
7
  6
CONTINUOUS
370
-3
390
F
  0
LAYER
  5
224
100
AcDbSymbolTableRecord
100
AcDbLayerTableRecord
  2
127-414_REF_GEOMETRY
 70
0
 62
7
  6
CONTINUOUS
370
-3
390
F
  0
LAYER
  5
225
100
AcDbSymbolTableRecord
100
AcDbLayerTableRecord
  2
127-415_FEATURES
 70
0
 62
7
  6
CONTINUOUS
370
-3
390
F
  0
LAYER
  5
226
100
AcDbSymbolTableRecord
100
AcDbLayerTableRecord
  2
127-415_REF_GEOMETRY
 70
0
 62
7
  6
CONTINUOUS
370
-3
390
F
  0
LAYER
  5
227
100
AcDbSymbolTableRecord
100
AcDbLayerTableRecord
  2
127-416_FEATURES
 70
0
 62
7
  6
CONTINUOUS
370
-3
390
F
  0
LAYER
  5
228
100
AcDbSymbolTableRecord
100
AcDbLayerTableRecord
  2
127-416_REF_GEOMETRY
 70
0
 62
7
  6
CONTINUOUS
370
-3
390
F
  0
LAYER
  5
229
100
AcDbSymbolTableRecord
100
AcDbLayerTableRecord
  2
250-NPTF_PORT
 70
0
 62
7
  6
CONTINUOUS
370
-3
390
F
  0
LAYER
  5
22A
100
AcDbSymbolTableRecord
100
AcDbLayerTableRecord
  2
COPY_GEO_FET
 70
0
 62
7
  6
CONTINUOUS
370
-3
390
F
  0
LAYER
  5
22B
100
AcDbSymbolTableRecord
100
AcDbLayerTableRecord
  2
COSMETIC
 70
0
 62
7
  6
CONTINUOUS
370
-3
390
F
  0
LAYER
  5
22C
100
AcDbSymbolTableRecord
100
AcDbLayerTableRecord
  2
CURVES
 70
0
 62
7
  6
CONTINUOUS
370
-3
390
F
  0
LAYER
  5
22D
100
AcDbSymbolTableRecord
100
AcDbLayerTableRecord
  2
CUT_REF_SURF
 70
0
 62
7
  6
CONTINUOUS
370
-3
390
F
  0
LAYER
  5
22E
100
AcDbSymbolTableRecord
100
AcDbLayerTableRecord
  2
DATUM
 70
0
 62
7
  6
CONTINUOUS
370
-3
390
F
  0
LAYER
  5
22F
100
AcDbSymbolTableRecord
100
AcDbLayerTableRecord
  2
DATUMCURVES
 70
0
 62
7
  6
CONTINUOUS
370
-3
390
F
  0
LAYER
  5
230
100
AcDbSymbolTableRecord
100
AcDbLayerTableRecord
  2
DATUM_B
 70
0
 62
7
  6
CONTINUOUS
370
-3
390
F
  0
LAYER
  5
231
100
AcDbSymbolTableRecord
100
AcDbLayerTableRecord
  2
DIMENSIONS
 70
0
 62
7
  6
CONTINUOUS
370
-3
390
F
  0
LAYER
  5
232
100
AcDbSymbolTableRecord
100
AcDbLayerTableRecord
  2
DRAWINGNOTES
 70
0
 62
7
  6
CONTINUOUS
370
-3
390
F
  0
LAYER
  5
233
100
AcDbSymbolTableRecord
100
AcDbLayerTableRecord
  2
DTM
 70
0
 62
7
  6
CONTINUOUS
370
-3
390
F
  0
LAYER
  5
234
100
AcDbSymbolTableRecord
100
AcDbLayerTableRecord
  2
DTM230
 70
0
 62
7
  6
CONTINUOUS
370
-3
390
F
  0
LAYER
  5
235
100
AcDbSymbolTableRecord
100
AcDbLayerTableRecord
  2
DTM_300-001-___
 70
0
 62
7
  6
CONTINUOUS
370
-3
390
F
  0
LAYER
  5
236
100
AcDbSymbolTableRecord
100
AcDbLayerTableRecord
  2
DTM_350-012
 70
0
 62
7
  6
CONTINUOUS
370
-3
390
F
  0
LAYER
  5
237
100
AcDbSymbolTableRecord
100
AcDbLayerTableRecord
  2
DTM_500001
 70
0
 62
7
  6
CONTINUOUS
370
-3
390
F
  0
LAYER
  5
238
100
AcDbSymbolTableRecord
100
AcDbLayerTableRecord
  2
DTM_500002
 70
0
 62
7
  6
CONTINUOUS
370
-3
390
F
  0
LAYER
  5
239
100
AcDbSymbolTableRecord
100
AcDbLayerTableRecord
  2
DTM_515002
 70
0
 62
7
  6
CONTINUOUS
370
-3
390
F
  0
LAYER
  5
23A
100
AcDbSymbolTableRecord
100
AcDbLayerTableRecord
  2
DTM_525001
 70
0
 62
7
  6
CONTINUOUS
370
-3
390
F
  0
LAYER
  5
23B
100
AcDbSymbolTableRecord
100
AcDbLayerTableRecord
  2
DTM_HOLE
 70
0
 62
7
  6
CONTINUOUS
370
-3
390
F
  0
LAYER
  5
23C
100
AcDbSymbolTableRecord
100
AcDbLayerTableRecord
  2
DTM_SPRING_RH
 70
0
 62
7
  6
CONTINUOUS
370
-3
390
F
  0
LAYER
  5
23D
100
AcDbSymbolTableRecord
100
AcDbLayerTableRecord
  2
DTM_SP_RH_CONSTR
 70
0
 62
7
  6
CONTINUOUS
370
-3
390
F
  0
LAYER
  5
23E
100
AcDbSymbolTableRecord
100
AcDbLayerTableRecord
  2
DTP
 70
0
 62
7
  6
CONTINUOUS
370
-3
390
F
  0
LAYER
  5
23F
100
AcDbSymbolTableRecord
100
AcDbLayerTableRecord
  2
DTP325-083
 70
0
 62
7
  6
CONTINUOUS
370
-3
390
F
  0
LAYER
  5
240
100
AcDbSymbolTableRecord
100
AcDbLayerTableRecord
  2
GEOMETRICTOLERANCES
 70
0
 62
7
  6
CONTINUOUS
370
-3
390
F
  0
LAYER
  5
241
100
AcDbSymbolTableRecord
100
AcDbLayerTableRecord
  2
LAY0001
 70
0
 62
7
  6
CONTINUOUS
370
-3
390
F
  0
LAYER
  5
242
100
AcDbSymbolTableRecord
100
AcDbLayerTableRecord
  2
PARAMETERDIMENSIONS
 70
0
 62
7
  6
CONTINUOUS
370
-3
390
F
  0
LAYER
  5
243
100
AcDbSymbolTableRecord
100
AcDbLayerTableRecord
  2
PLANE
 70
0
 62
7
  6
CONTINUOUS
370
-3
390
F
  0
LAYER
  5
244
100
AcDbSymbolTableRecord
100
AcDbLayerTableRecord
  2
SUN_SAE-4_PORT
 70
0
 62
7
  6
CONTINUOUS
370
-3
390
F
  0
LAYER
  5
245
100
AcDbSymbolTableRecord
100
AcDbLayerTableRecord
  2
TEXT
 70
0
 62
7
  6
CONTINUOUS
370
-3
390
F
  0
LAYER
  5
246
100
AcDbSymbolTableRecord
100
AcDbLayerTableRecord
  2
THREAD
 70
0
 62
7
  6
CONTINUOUS
370
-3
390
F
  0
ENDTAB
  0
TABLE
  2
STYLE
  5
3
100
AcDbSymbolTable
 70
1
  0
STYLE
  5
11
100
AcDbSymbolTableRecord
100
AcDbTextStyleTableRecord
  2
STANDARD
 70
0
 40
0.0
 41
0.8
 50
0.0
 71
0
 42
0.2
  3
txt
  4

  0
ENDTAB
  0
TABLE
  2
VIEW
  5
6
100
AcDbSymbolTable
 70
0
  0
ENDTAB
  0
TABLE
  2
UCS
  5
7
100
AcDbSymbolTable
 70
0
  0
ENDTAB
  0
TABLE
  2
APPID
  5
9
100
AcDbSymbolTable
 70
1
  0
APPID
  5
247
100
AcDbSymbolTableRecord
100
AcDbRegAppTableRecord
  2
ACAD
 70
0
  0
ENDTAB
  0
TABLE
  2
BLOCK_RECORD
  5
1
100
AcDbSymbolTable
 70
0
  0
BLOCK_RECORD
  5
1F
100
AcDbSymbolTableRecord
100
AcDbBlockTableRecord
  2
*MODEL_SPACE
  0
BLOCK_RECORD
  5
1B
100
AcDbSymbolTableRecord
100
AcDbBlockTableRecord
  2
*PAPER_SPACE
  0
ENDTAB
  0
TABLE
  2
DIMSTYLE
  5
A
100
AcDbSymbolTable
 70
1
100
AcDbDimStyleTable
 71
0
  0
DIMSTYLE
105
248
100
AcDbSymbolTableRecord
100
AcDbDimStyleTableRecord
  2
STANDARD
 70
0
  3

  4

 40
1.0
 41
0.1875
 42
0.0625
 43
0.38
 44
0.18
 45
0.0
 46
0.0
 47
0.01
 48
0.01
140
0.15625
141
0.09
142
0.0
143
25.4
144
1.0
145
0.0
146
1.0
147
0.09
 71
0.0
 72
0.0
 73
1
 74
1
 75
0
 76
0
 77
0
 78
4
170
0
171
2
172
0
173
0
174
0
175
0
176
0
177
0
178
0
270
2
271
2
272
2
273
2
274
2
275
0
280
0
281
0
282
0
283
1
284
4
285
0
286
0
287
3
288
0
340
11
  0
ENDTAB
  0
ENDSEC
  0
SECTION
  2
BLOCKS
  0
BLOCK
  5
20
100
AcDbEntity
  8
0
100
AcDbBlockBegin
  2
*MODEL_SPACE
 70
0
 10
0.0
 20
0.0
 30
0.0
  3
*MODEL_SPACE
  1

  0
ENDBLK
  5
21
100
AcDbEntity
  8
0
100
AcDbBlockEnd
  0
BLOCK
  5
1C
100
AcDbEntity
  8
0
100
AcDbBlockBegin
  2
*PAPER_SPACE
 70
0
 10
0.0
 20
0.0
 30
0.0
  3
*PAPER_SPACE
  1

  0
ENDBLK
  5
1D
100
AcDbEntity
  8
0
100
AcDbBlockEnd
  0
ENDSEC
  0
SECTION
  2
ENTITIES
  0
LINE
  5
249
100
AcDbEntity
  8
0
100
AcDbLine
 62
7
  6
CONTINUOUS
 10
3.626185669
 20
4.104010092
 11
3.626185669
 21
4.4150015232
  0
LINE
  5
24A
100
AcDbEntity
  8
03__ASM_ALL_CURVES
100
AcDbLine
 62
40
  6
CONTINUOUS
 10
3.626185669
 20
4.4150053694
 11
3.626185669
 21
5.1475728076
  0
LINE
  5
24B
100
AcDbEntity
  8
0
100
AcDbLine
 62
7
  6
CONTINUOUS
 10
3.657185668
 20
4.0730058076
 11
3.657185668
 21
4.4460058076
  0
LINE
  5
24C
100
AcDbEntity
  8
0
100
AcDbLine
 62
7
  6
CONTINUOUS
 10
3.710185669
 20
4.5380061416
 11
3.710185669
 21
3.9810054736
  0
LINE
  5
24D
100
AcDbEntity
  8
03__ASM_ALL_CURVES
100
AcDbLine
 62
40
  6
CONTINUOUS
 10
3.736510669
 20
5.1291853076
 11
3.736510669
 21
5.0924103076
  0
LINE
  5
24E
100
AcDbEntity
  8
0
100
AcDbLine
 62
7
  6
CONTINUOUS
 10
3.710185669
 20
4.5380061416
 11
3.7119647261
 21
4.5410875589
  0
LINE
  5
24F
100
AcDbEntity
  8
0
100
AcDbLine
 62
7
  6
CONTINUOUS
 10
3.710185669
 20
3.9810054736
 11
3.7119647261
 21
3.9779240562
  0
LINE
  5
250
100
AcDbEntity
  8
0
100
AcDbLine
 62
7
  6
CONTINUOUS
 10
3.929185669
 20
3.8245058076
 11
3.929185669
 21
4.6945058076
  0
LINE
  5
251
100
AcDbEntity
  8
0
100
AcDbLine
 62
7
  6
CONTINUOUS
 10
3.991185669
 20
3.7625058076
 11
3.991185669
 21
4.7565058076
  0
LINE
  5
252
100
AcDbEntity
  8
03__ASM_ALL_CURVES
100
AcDbLine
 62
40
  6
CONTINUOUS
 10
4.340982544
 20
5.2241873891
 11
4.3467286378
 21
5.2318488511
  0
LINE
  5
253
100
AcDbEntity
  8
03__ASM_ALL_CURVES
100
AcDbLine
 62
40
  6
CONTINUOUS
 10
4.3467286378
 20
5.1705571826
 11
4.340982544
 21
5.1475728076
  0
LINE
  5
254
100
AcDbEntity
  8
03__ASM_ALL_CURVES
100
AcDbLine
 62
40
  6
CONTINUOUS
 10
4.3582208253
 20
5.1858800983
 11
4.3467286378
 21
5.1705571826
  0
LINE
  5
255
100
AcDbEntity
  8
03__ASM_ALL_CURVES
100
AcDbLine
 62
40
  6
CONTINUOUS
 10
4.386951294
 20
5.2088644761
 11
4.3812052003
 21
5.2012030141
  0
LINE
  5
256
100
AcDbEntity
  8
0
100
AcDbLine
 62
7
  6
CONTINUOUS
 10
3.6261861063
 20
4.4150053694
 11
3.6571861945
 21
4.4460052832
  0
LINE
  5
257
100
AcDbEntity
  8
0
100
AcDbLine
 62
7
  6
CONTINUOUS
 10
3.991185669
 20
4.7565058076
 11
3.929185669
 21
4.6945058076
  0
LINE
  5
258
100
AcDbEntity
  8
03__ASM_ALL_CURVES
100
AcDbLine
 62
40
  6
CONTINUOUS
 10
4.3467286378
 20
5.2318488511
 11
4.3582208253
 21
5.2395103076
  0
LINE
  5
259
100
AcDbEntity
  8
0
100
AcDbLine
 62
7
  6
CONTINUOUS
 10
3.6261861063
 20
4.1040062458
 11
3.6571861945
 21
4.073006332
  0
LINE
  5
25A
100
AcDbEntity
  8
0
100
AcDbLine
 62
7
  6
CONTINUOUS
 10
3.991185669
 20
3.7625058076
 11
3.929185669
 21
3.8245058076
  0
LINE
  5
25B
100
AcDbEntity
  8
03__ASM_ALL_CURVES
100
AcDbLine
 62
40
  6
CONTINUOUS
 10
4.386951294
 20
5.2241873891
 11
4.386951294
 21
5.2088644761
  0
LINE
  5
25C
100
AcDbEntity
  8
0
100
AcDbLine
 62
7
  6
CONTINUOUS
 10
4.4745301715
 20
4.8930447897
 11
4.429185669
 21
4.8145058076
  0
LINE
  5
25D
100
AcDbEntity
  8
03__ASM_ALL_CURVES
100
AcDbLine
 62
40
  6
CONTINUOUS
 10
4.570826294
 20
5.2165259326
 11
4.5650802003
 21
5.2088644761
  0
LINE
  5
25E
100
AcDbEntity
  8
03__ASM_ALL_CURVES
100
AcDbLine
 62
40
  6
CONTINUOUS
 10
4.5765723878
 20
5.1705571826
 11
4.5650802003
 21
5.1552342662
  0
LINE
  5
25F
100
AcDbEntity
  8
03__ASM_ALL_CURVES
100
AcDbLine
 62
40
  6
CONTINUOUS
 10
4.6455255128
 20
5.2395103076
 11
4.6340333253
 21
5.2241873891
  0
LINE
  5
260
100
AcDbEntity
  8
03__ASM_ALL_CURVES
100
AcDbLine
 62
40
  6
CONTINUOUS
 10
4.3812052003
 20
5.2012030141
 11
4.3582208253
 21
5.1858800983
  0
LINE
  5
261
100
AcDbEntity
  8
03__ASM_ALL_CURVES
100
AcDbLine
 62
40
  6
CONTINUOUS
 10
4.5306036378
 20
5.2318488511
 11
4.5420958253
 21
5.2395103076
  0
LINE
  5
262
100
AcDbEntity
  8
03__ASM_ALL_CURVES
100
AcDbLine
 62
40
  6
CONTINUOUS
 10
4.5650802003
 20
5.2088644761
 11
4.5535880128
 21
5.2012030141
  0
LINE
  5
263
100
AcDbEntity
  8
03__ASM_ALL_CURVES
100
AcDbLine
 62
40
  6
CONTINUOUS
 10
4.5650802003
 20
5.1552342662
 11
4.5535880128
 21
5.1475728076
  0
LINE
  5
264
100
AcDbEntity
  8
0
100
AcDbLine
 62
7
  6
CONTINUOUS
 10
4.4747963403
 20
3.6255058076
 11
4.429185669
 21
3.7045058076
  0
LINE
  5
265
100
AcDbEntity
  8
0
100
AcDbLine
 62
7
  6
CONTINUOUS
 10
4.429185669
 20
3.7045058076
 11
4.429185669
 21
4.8145058076
  0
LINE
  5
266
100
AcDbEntity
  8
03__ASM_ALL_CURVES
100
AcDbLine
 62
40
  6
CONTINUOUS
 10
4.4501583253
 20
5.1475728076
 11
4.4501583253
 21
5.1552342662
  0
LINE
  5
267
100
AcDbEntity
  8
0
100
AcDbLine
 62
7
  6
CONTINUOUS
 10
4.4747963403
 20
3.6255058076
 11
4.4747963403
 21
3.6261204981
  0
LINE
  5
268
100
AcDbEntity
  8
0
100
AcDbLine
 62
7
  6
CONTINUOUS
 10
4.4747963403
 20
3.9186411171
 11
4.4747963403
 21
3.9669851887
  0
LINE
  5
269
100
AcDbEntity
  8
0
100
AcDbLine
 62
7
  6
CONTINUOUS
 10
4.4747963403
 20
4.5520264265
 11
4.4747963403
 21
4.6003704981
  0
LINE
  5
26A
100
AcDbEntity
  8
0
100
AcDbLine
 62
7
  6
CONTINUOUS
 10
4.4747963403
 20
4.8928911171
 11
4.4747963403
 21
4.8935058076
  0
LINE
  5
26B
100
AcDbEntity
  8
03__ASM_ALL_CURVES
100
AcDbLine
 62
40
  6
CONTINUOUS
 10
4.6340333253
 20
5.2241873891
 11
4.6282872315
 21
5.2012030141
  0
LINE
  5
26C
100
AcDbEntity
  8
03__ASM_ALL_CURVES
100
AcDbLine
 62
40
  6
CONTINUOUS
 10
4.7604473878
 20
5.1782186418
 11
4.754701294
 21
5.1628957247
  0
LINE
  5
26D
100
AcDbEntity
  8
03__ASM_ALL_CURVES
100
AcDbLine
 62
40
  6
CONTINUOUS
 10
4.754701294
 20
5.1628957247
 11
4.7489552003
 21
5.1552342662
  0
LINE
  5
26E
100
AcDbEntity
  8
03__ASM_ALL_CURVES
100
AcDbLine
 62
40
  6
CONTINUOUS
 10
4.800670044
 20
5.2241873891
 11
4.8064161378
 21
5.2318488511
  0
LINE
  5
26F
100
AcDbEntity
  8
03__ASM_ALL_CURVES
100
AcDbLine
 62
40
  6
CONTINUOUS
 10
4.7949239503
 20
5.1782186418
 11
4.8064161378
 21
5.1935415576
  0
LINE
  5
270
100
AcDbEntity
  8
03__ASM_ALL_CURVES
100
AcDbLine
 62
40
  6
CONTINUOUS
 10
4.846638794
 20
5.2165259326
 11
4.8408927003
 21
5.2088644761
  0
LINE
  5
271
100
AcDbEntity
  8
03__ASM_ALL_CURVES
100
AcDbLine
 62
40
  6
CONTINUOUS
 10
4.8523848878
 20
5.1705571826
 11
4.8408927003
 21
5.1552342662
  0
LINE
  5
272
100
AcDbEntity
  8
03__ASM_ALL_CURVES
100
AcDbLine
 62
40
  6
CONTINUOUS
 10
4.7144786378
 20
5.2012030141
 11
4.7259708253
 21
5.2088644761
  0
LINE
  5
273
100
AcDbEntity
  8
03__ASM_ALL_CURVES
100
AcDbLine
 62
40
  6
CONTINUOUS
 10
4.8064161378
 20
5.2318488511
 11
4.8179083253
 21
5.2395103076
  0
LINE
  5
274
100
AcDbEntity
  8
03__ASM_ALL_CURVES
100
AcDbLine
 62
40
  6
CONTINUOUS
 10
4.7489552003
 20
5.1552342662
 11
4.7374630128
 21
5.1475728076
  0
LINE
  5
275
100
AcDbEntity
  8
03__ASM_ALL_CURVES
100
AcDbLine
 62
40
  6
CONTINUOUS
 10
4.8064161378
 20
5.1935415576
 11
4.8179083253
 21
5.2012030141
  0
LINE
  5
276
100
AcDbEntity
  8
03__ASM_ALL_CURVES
100
AcDbLine
 62
40
  6
CONTINUOUS
 10
4.8408927003
 20
5.2088644761
 11
4.8294005128
 21
5.2012030141
  0
LINE
  5
277
100
AcDbEntity
  8
03__ASM_ALL_CURVES
100
AcDbLine
 62
40
  6
CONTINUOUS
 10
4.8408927003
 20
5.1552342662
 11
4.8294005128
 21
5.1475728076
  0
LINE
  5
278
100
AcDbEntity
  8
03__ASM_ALL_CURVES
100
AcDbLine
 62
40
  6
CONTINUOUS
 10
4.570826294
 20
5.2241873891
 11
4.570826294
 21
5.2165259326
  0
LINE
  5
279
100
AcDbEntity
  8
03__ASM_ALL_CURVES
100
AcDbLine
 62
40
  6
CONTINUOUS
 10
4.5765723878
 20
5.1782186418
 11
4.5765723878
 21
5.1705571826
  0
LINE
  5
27A
100
AcDbEntity
  8
03__ASM_ALL_CURVES
100
AcDbLine
 62
40
  6
CONTINUOUS
 10
4.6282872315
 20
5.2012030141
 11
4.6282872315
 21
5.1858800983
  0
LINE
  5
27B
100
AcDbEntity
  8
03__ASM_ALL_CURVES
100
AcDbLine
 62
40
  6
CONTINUOUS
 10
4.7202247315
 20
5.2395103076
 11
4.7144786378
 21
5.2012030141
  0
LINE
  5
27C
100
AcDbEntity
  8
03__ASM_ALL_CURVES
100
AcDbLine
 62
40
  6
CONTINUOUS
 10
5.0247677003
 20
5.2395103076
 11
4.984545044
 21
5.1705571826
  0
LINE
  5
27D
100
AcDbEntity
  8
03__ASM_ALL_CURVES
100
AcDbLine
 62
40
  6
CONTINUOUS
 10
4.7949239503
 20
5.1705571826
 11
4.7949239503
 21
5.1782186418
  0
LINE
  5
27E
100
AcDbEntity
  8
03__ASM_ALL_CURVES
100
AcDbLine
 62
40
  6
CONTINUOUS
 10
4.800670044
 20
5.2165259326
 11
4.800670044
 21
5.2241873891
  0
LINE
  5
27F
100
AcDbEntity
  8
03__ASM_ALL_CURVES
100
AcDbLine
 62
40
  6
CONTINUOUS
 10
4.846638794
 20
5.2241873891
 11
4.846638794
 21
5.2165259326
  0
LINE
  5
280
100
AcDbEntity
  8
03__ASM_ALL_CURVES
100
AcDbLine
 62
40
  6
CONTINUOUS
 10
4.8523848878
 20
5.1782186418
 11
4.8523848878
 21
5.1705571826
  0
LINE
  5
281
100
AcDbEntity
  8
03__ASM_ALL_CURVES
100
AcDbLine
 62
40
  6
CONTINUOUS
 10
5.1971505128
 20
5.1628957247
 11
5.1856583253
 21
5.1475728076
  0
LINE
  5
282
100
AcDbEntity
  8
03__ASM_ALL_CURVES
100
AcDbLine
 62
40
  6
CONTINUOUS
 10
6.8520084189
 20
3.3348245576
 11
6.8175318564
 21
3.3348245576
  0
LINE
  5
283
100
AcDbEntity
  8
03__ASM_ALL_CURVES
100
AcDbLine
 62
40
  6
CONTINUOUS
 10
6.6322203329
 20
3.3348245576
 11
6.6236011923
 21
3.3348245576
  0
LINE
  5
284
100
AcDbEntity
  8
03__ASM_ALL_CURVES
100
AcDbLine
 62
40
  6
CONTINUOUS
 10
6.5632672079
 20
3.3348245576
 11
6.5546480673
 21
3.3348245576
  0
LINE
  5
285
100
AcDbEntity
  8
03__ASM_ALL_CURVES
100
AcDbLine
 62
40
  6
CONTINUOUS
 10
5.7302935777
 20
3.3348245576
 11
5.7216744371
 21
3.3348245576
  0
LINE
  5
286
100
AcDbEntity
  8
03__ASM_ALL_CURVES
100
AcDbLine
 62
40
  6
CONTINUOUS
 10
5.6397926012
 20
3.3348245576
 11
5.6742691637
 21
3.3348245576
  0
LINE
  5
287
100
AcDbEntity
  8
03__ASM_ALL_CURVES
100
AcDbLine
 62
40
  6
CONTINUOUS
 10
6.7485787314
 20
3.3348245576
 11
6.7830552939
 21
3.3348245576
  0
LINE
  5
288
100
AcDbEntity
  8
03__ASM_ALL_CURVES
100
AcDbLine
 62
40
  6
CONTINUOUS
 10
4.9098458253
 20
5.1475728076
 11
4.9098458253
 21
5.1552342662
  0
LINE
  5
289
100
AcDbEntity
  8
03__ASM_ALL_CURVES
100
AcDbLine
 62
40
  6
CONTINUOUS
 10
5.0247677003
 20
5.1475728076
 11
5.0247677003
 21
5.2395103076
  0
LINE
  5
28A
100
AcDbEntity
  8
03__ASM_ALL_CURVES
100
AcDbLine
 62
40
  6
CONTINUOUS
 10
5.2028966065
 20
5.1858800983
 11
5.1971505128
 21
5.1628957247
  0
LINE
  5
28B
100
AcDbEntity
  8
03__ASM_ALL_CURVES
100
AcDbLine
 62
40
  6
CONTINUOUS
 10
5.5234342027
 20
3.3693011201
 11
5.5018863512
 21
3.3693011201
  0
LINE
  5
28C
100
AcDbEntity
  8
03__ASM_ALL_CURVES
100
AcDbLine
 62
40
  6
CONTINUOUS
 10
6.8175318564
 20
3.3693011201
 11
6.8390797079
 21
3.3693011201
  0
LINE
  5
28D
100
AcDbEntity
  8
03__ASM_ALL_CURVES
100
AcDbLine
 62
40
  6
CONTINUOUS
 10
5.5018863512
 20
3.4037776826
 11
5.5234342027
 21
3.4037776826
  0
LINE
  5
28E
100
AcDbEntity
  8
03__ASM_ALL_CURVES
100
AcDbLine
 62
40
  6
CONTINUOUS
 10
5.7216744371
 20
3.4037776826
 11
5.7302935777
 21
3.4037776826
  0
LINE
  5
28F
100
AcDbEntity
  8
03__ASM_ALL_CURVES
100
AcDbLine
 62
40
  6
CONTINUOUS
 10
5.7733892809
 20
3.4037776826
 11
5.816484984
 21
3.4037776826
  0
LINE
  5
290
100
AcDbEntity
  8
03__ASM_ALL_CURVES
100
AcDbLine
 62
40
  6
CONTINUOUS
 10
6.5546480673
 20
3.4037776826
 11
6.5632672079
 21
3.4037776826
  0
LINE
  5
291
100
AcDbEntity
  8
03__ASM_ALL_CURVES
100
AcDbLine
 62
40
  6
CONTINUOUS
 10
6.6753160361
 20
3.4037776826
 11
6.7184117392
 21
3.4037776826
  0
LINE
  5
292
100
AcDbEntity
  8
03__ASM_ALL_CURVES
100
AcDbLine
 62
40
  6
CONTINUOUS
 10
6.8175318564
 20
3.4037776826
 11
6.8520084189
 21
3.4037776826
  0
LINE
  5
293
100
AcDbEntity
  8
03__ASM_ALL_CURVES
100
AcDbLine
 62
40
  6
CONTINUOUS
 10
6.8821754111
 20
3.4037776826
 11
6.9252711142
 21
3.4037776826
  0
LINE
  5
294
100
AcDbEntity
  8
03__ASM_ALL_CURVES
100
AcDbLine
 62
40
  6
CONTINUOUS
 10
6.6645421027
 20
3.4405526826
 11
6.6559229621
 21
3.4405526826
  0
LINE
  5
295
100
AcDbEntity
  8
03__ASM_ALL_CURVES
100
AcDbLine
 62
40
  6
CONTINUOUS
 10
5.7992467027
 20
3.4405526826
 11
5.7906275621
 21
3.4405526826
  0
LINE
  5
296
100
AcDbEntity
  8
03__ASM_ALL_CURVES
100
AcDbLine
 62
40
  6
CONTINUOUS
 10
5.5923873277
 20
3.4405526826
 11
5.5837681871
 21
3.4405526826
  0
LINE
  5
297
100
AcDbEntity
  8
03__ASM_ALL_CURVES
100
AcDbLine
 62
40
  6
CONTINUOUS
 10
6.8498536261
 20
3.4405526826
 11
6.8843301886
 21
3.4405526826
  0
LINE
  5
298
100
AcDbEntity
  8
03__ASM_ALL_CURVES
100
AcDbLine
 62
40
  6
CONTINUOUS
 10
6.7334952277
 20
3.4750292451
 11
6.7119473761
 21
3.4750292451
  0
LINE
  5
299
100
AcDbEntity
  8
03__ASM_ALL_CURVES
100
AcDbLine
 62
40
  6
CONTINUOUS
 10
6.5955889777
 20
3.4750292451
 11
6.5740411261
 21
3.4750292451
  0
LINE
  5
29A
100
AcDbEntity
  8
03__ASM_ALL_CURVES
100
AcDbLine
 62
40
  6
CONTINUOUS
 10
5.6613404527
 20
3.4750292451
 11
5.6397926012
 21
3.4750292451
  0
LINE
  5
29B
100
AcDbEntity
  8
03__ASM_ALL_CURVES
100
AcDbLine
 62
40
  6
CONTINUOUS
 10
5.5234342027
 20
3.4750292451
 11
5.5018863512
 21
3.4750292451
  0
LINE
  5
29C
100
AcDbEntity
  8
03__ASM_ALL_CURVES
100
AcDbLine
 62
40
  6
CONTINUOUS
 10
5.7906275621
 20
3.4807753375
 11
5.7992467027
 21
3.4807753375
  0
LINE
  5
29D
100
AcDbEntity
  8
03__ASM_ALL_CURVES
100
AcDbLine
 62
40
  6
CONTINUOUS
 10
5.5018863512
 20
3.5095058076
 11
5.5234342027
 21
3.5095058076
  0
LINE
  5
29E
100
AcDbEntity
  8
03__ASM_ALL_CURVES
100
AcDbLine
 62
40
  6
CONTINUOUS
 10
5.5837681871
 20
3.5095058076
 11
5.5923873277
 21
3.5095058076
  0
LINE
  5
29F
100
AcDbEntity
  8
03__ASM_ALL_CURVES
100
AcDbLine
 62
40
  6
CONTINUOUS
 10
5.6397926012
 20
3.5095058076
 11
5.6613404527
 21
3.5095058076
  0
LINE
  5
2A0
100
AcDbEntity
  8
03__ASM_ALL_CURVES
100
AcDbLine
 62
40
  6
CONTINUOUS
 10
5.7044361559
 20
3.5095058076
 11
5.747531859
 21
3.5095058076
  0
LINE
  5
2A1
100
AcDbEntity
  8
03__ASM_ALL_CURVES
100
AcDbLine
 62
40
  6
CONTINUOUS
 10
5.7906275621
 20
3.5095058076
 11
5.7992467027
 21
3.5095058076
  0
LINE
  5
2A2
100
AcDbEntity
  8
03__ASM_ALL_CURVES
100
AcDbLine
 62
40
  6
CONTINUOUS
 10
6.5740411261
 20
3.5095058076
 11
6.5955889777
 21
3.5095058076
  0
LINE
  5
2A3
100
AcDbEntity
  8
03__ASM_ALL_CURVES
100
AcDbLine
 62
40
  6
CONTINUOUS
 10
6.6559229621
 20
3.5095058076
 11
6.6645421027
 21
3.5095058076
  0
LINE
  5
2A4
100
AcDbEntity
  8
03__ASM_ALL_CURVES
100
AcDbLine
 62
40
  6
CONTINUOUS
 10
6.7119473761
 20
3.5095058076
 11
6.7334952277
 21
3.5095058076
  0
LINE
  5
2A5
100
AcDbEntity
  8
03__ASM_ALL_CURVES
100
AcDbLine
 62
40
  6
CONTINUOUS
 10
6.7765909308
 20
3.5095058076
 11
6.8196866339
 21
3.5095058076
  0
LINE
  5
2A6
100
AcDbEntity
  8
03__ASM_ALL_CURVES
100
AcDbLine
 62
40
  6
CONTINUOUS
 10
6.8627823371
 20
3.5095058076
 11
6.8714014777
 21
3.5095058076
  0
LINE
  5
2A7
100
AcDbEntity
  8
03__ASM_ALL_CURVES
100
AcDbLine
 62
40
  6
CONTINUOUS
 10
5.5234342027
 20
3.4037776826
 11
5.5320533434
 21
3.3980315902
  0
LINE
  5
2A8
100
AcDbEntity
  8
03__ASM_ALL_CURVES
100
AcDbLine
 62
40
  6
CONTINUOUS
 10
5.7216744371
 20
3.3348245576
 11
5.7130552965
 21
3.3405706515
  0
LINE
  5
2A9
100
AcDbEntity
  8
03__ASM_ALL_CURVES
100
AcDbLine
 62
40
  6
CONTINUOUS
 10
5.5837681871
 20
3.4405526826
 11
5.5751490465
 21
3.4462987765
  0
LINE
  5
2AA
100
AcDbEntity
  8
03__ASM_ALL_CURVES
100
AcDbLine
 62
40
  6
CONTINUOUS
 10
5.5234342027
 20
3.5095058076
 11
5.5320533434
 21
3.5037597152
  0
LINE
  5
2AB
100
AcDbEntity
  8
03__ASM_ALL_CURVES
100
AcDbLine
 62
40
  6
CONTINUOUS
 10
5.7302935777
 20
3.4037776826
 11
5.7389127184
 21
3.3980315902
  0
LINE
  5
2AC
100
AcDbEntity
  8
03__ASM_ALL_CURVES
100
AcDbLine
 62
40
  6
CONTINUOUS
 10
4.6282872315
 20
5.1858800983
 11
4.6340333253
 21
5.1628957247
  0
LINE
  5
2AD
100
AcDbEntity
  8
0
100
AcDbLine
 62
7
  6
CONTINUOUS
 10
5.0617600432
 20
3.6255058076
 11
5.0617600432
 21
3.6261204981
  0
LINE
  5
2AE
100
AcDbEntity
  8
0
100
AcDbLine
 62
7
  6
CONTINUOUS
 10
5.0617600432
 20
3.9186411171
 11
5.0617600432
 21
3.9669851887
  0
LINE
  5
2AF
100
AcDbEntity
  8
0
100
AcDbLine
 62
7
  6
CONTINUOUS
 10
5.0617600432
 20
4.5520264265
 11
5.0617600432
 21
4.6003704981
  0
LINE
  5
2B0
100
AcDbEntity
  8
0
100
AcDbLine
 62
7
  6
CONTINUOUS
 10
5.0617600432
 20
4.8928911171
 11
5.0617600432
 21
4.8935058076
  0
LINE
  5
2B1
100
AcDbEntity
  8
03__ASM_ALL_CURVES
100
AcDbLine
 62
40
  6
CONTINUOUS
 10
5.099466919
 20
5.2395103076
 11
5.099466919
 21
5.1475728076
  0
LINE
  5
2B2
100
AcDbEntity
  8
0
100
AcDbLine
 62
7
  6
CONTINUOUS
 10
5.117185669
 20
3.7215058076
 11
5.117185669
 21
4.7975058076
  0
LINE
  5
2B3
100
AcDbEntity
  8
0
100
AcDbLine
 62
7
  6
CONTINUOUS
 10
5.0617600432
 20
3.6255058076
 11
4.4747963403
 21
3.6255058076
  0
LINE
  5
2B4
100
AcDbEntity
  8
0
100
AcDbLine
 62
7
  6
CONTINUOUS
 10
5.0617600432
 20
3.6261204981
 11
4.4747963403
 21
3.6261204981
  0
LINE
  5
2B5
100
AcDbEntity
  8
03__ASM_ALL_CURVES
100
AcDbLine
 62
40
  6
CONTINUOUS
 10
5.5923873277
 20
3.5095058076
 11
5.6010064684
 21
3.5037597152
  0
LINE
  5
2B6
100
AcDbEntity
  8
03__ASM_ALL_CURVES
100
AcDbLine
 62
40
  6
CONTINUOUS
 10
5.6613404527
 20
3.5095058076
 11
5.6699595934
 21
3.5037597152
  0
LINE
  5
2B7
100
AcDbEntity
  8
03__ASM_ALL_CURVES
100
AcDbLine
 62
40
  6
CONTINUOUS
 10
5.7906275621
 20
3.4405526826
 11
5.7820084215
 21
3.4462987765
  0
LINE
  5
2B8
100
AcDbEntity
  8
03__ASM_ALL_CURVES
100
AcDbLine
 62
40
  6
CONTINUOUS
 10
5.7992467027
 20
3.4807753375
 11
5.8078658434
 21
3.4750292451
  0
LINE
  5
2B9
100
AcDbEntity
  8
03__ASM_ALL_CURVES
100
AcDbLine
 62
40
  6
CONTINUOUS
 10
5.7992467027
 20
3.5095058076
 11
5.8078658434
 21
3.5037597152
  0
LINE
  5
2BA
100
AcDbEntity
  8
03__ASM_ALL_CURVES
100
AcDbLine
 62
40
  6
CONTINUOUS
 10
5.5320533434
 20
3.3980315902
 11
5.5363629137
 21
3.3922854937
  0
LINE
  5
2BB
100
AcDbEntity
  8
03__ASM_ALL_CURVES
100
AcDbLine
 62
40
  6
CONTINUOUS
 10
5.5751490465
 20
3.4462987765
 11
5.5665299059
 21
3.4577909638
  0
LINE
  5
2BC
100
AcDbEntity
  8
03__ASM_ALL_CURVES
100
AcDbLine
 62
40
  6
CONTINUOUS
 10
5.5320533434
 20
3.5037597152
 11
5.5363629137
 21
3.4980136187
  0
LINE
  5
2BD
100
AcDbEntity
  8
03__ASM_ALL_CURVES
100
AcDbLine
 62
40
  6
CONTINUOUS
 10
5.7130552965
 20
3.3405706515
 11
5.7044361559
 21
3.3520628388
  0
LINE
  5
2BE
100
AcDbEntity
  8
03__ASM_ALL_CURVES
100
AcDbLine
 62
40
  6
CONTINUOUS
 10
5.6010064684
 20
3.5037597152
 11
5.609625609
 21
3.4922675263
  0
LINE
  5
2BF
100
AcDbEntity
  8
03__ASM_ALL_CURVES
100
AcDbLine
 62
40
  6
CONTINUOUS
 10
4.754701294
 20
5.1935415576
 11
4.7604473878
 21
5.1782186418
  0
LINE
  5
2C0
100
AcDbEntity
  8
03__ASM_ALL_CURVES
100
AcDbLine
 62
40
  6
CONTINUOUS
 10
5.2028966065
 20
5.2012030141
 11
5.2028966065
 21
5.1858800983
  0
LINE
  5
2C1
100
AcDbEntity
  8
0
100
AcDbLine
 62
7
  6
CONTINUOUS
 10
5.304185669
 20
3.7215058076
 11
5.304185669
 21
4.7975058076
  0
LINE
  5
2C2
100
AcDbEntity
  8
03__ASM_ALL_CURVES
100
AcDbLine
 62
40
  6
CONTINUOUS
 10
6.1739692634
 20
5.2318488511
 11
6.1854614509
 21
5.2395103076
  0
LINE
  5
2C3
100
AcDbEntity
  8
03__ASM_ALL_CURVES
100
AcDbLine
 62
40
  6
CONTINUOUS
 10
6.2659067634
 20
5.2318488511
 11
6.2773989509
 21
5.2395103076
  0
LINE
  5
2C4
100
AcDbEntity
  8
03__ASM_ALL_CURVES
100
AcDbLine
 62
40
  6
CONTINUOUS
 10
6.2084458259
 20
5.1552342662
 11
6.1969536384
 21
5.1475728076
  0
LINE
  5
2C5
100
AcDbEntity
  8
0
100
AcDbLine
 62
7
  6
CONTINUOUS
 10
5.9505420755
 20
3.7443359346
 11
5.9530420755
 21
3.7450058076
  0
LINE
  5
2C6
100
AcDbEntity
  8
0
100
AcDbLine
 62
7
  6
CONTINUOUS
 10
5.926185669
 20
3.7215058076
 11
5.864185669
 21
3.7215058076
  0
LINE
  5
2C7
100
AcDbEntity
  8
0
100
AcDbLine
 62
7
  6
CONTINUOUS
 10
5.490185669
 20
3.7215058076
 11
5.445185669
 21
3.7215058076
  0
LINE
  5
2C8
100
AcDbEntity
  8
0
100
AcDbLine
 62
7
  6
CONTINUOUS
 10
5.304185669
 20
3.7215058076
 11
5.117185669
 21
3.7215058076
  0
LINE
  5
2C9
100
AcDbEntity
  8
0
100
AcDbLine
 62
7
  6
CONTINUOUS
 10
5.304185669
 20
3.7230058076
 11
5.354185669
 21
3.7230058076
  0
LINE
  5
2CA
100
AcDbEntity
  8
THREAD
100
AcDbLine
 62
7
  6
CONTINUOUS
 10
5.976185669
 20
3.7450058076
 11
5.9530420755
 21
3.7450058076
  0
LINE
  5
2CB
100
AcDbEntity
  8
0
100
AcDbLine
 62
7
  6
CONTINUOUS
 10
6.046185669
 20
3.7475058076
 11
6.096185669
 21
3.7475058076
  0
LINE
  5
2CC
100
AcDbEntity
  8
0
100
AcDbLine
 62
7
  6
CONTINUOUS
 10
4.429185669
 20
3.7625058076
 11
3.991185669
 21
3.7625058076
  0
LINE
  5
2CD
100
AcDbEntity
  8
THREAD
100
AcDbLine
 62
7
  6
CONTINUOUS
 10
6.410185669
 20
3.7635058076
 11
6.1391249792
 21
3.7635058076
  0
LINE
  5
2CE
100
AcDbEntity
  8
0
100
AcDbLine
 62
7
  6
CONTINUOUS
 10
5.445185669
 20
3.7770058076
 11
5.424185669
 21
3.7770058076
  0
LINE
  5
2CF
100
AcDbEntity
  8
THREAD
100
AcDbLine
 62
7
  6
CONTINUOUS
 10
6.1096801155
 20
3.8015058076
 11
6.096185669
 21
3.8015058076
  0
LINE
  5
2D0
100
AcDbEntity
  8
0
100
AcDbLine
 62
7
  6
CONTINUOUS
 10
5.8427497336
 20
3.8015058076
 11
5.830685669
 21
3.8015058076
  0
LINE
  5
2D1
100
AcDbEntity
  8
0
100
AcDbLine
 62
7
  6
CONTINUOUS
 10
5.797685669
 20
3.8015058076
 11
5.5116216044
 21
3.8015058076
  0
LINE
  5
2D2
100
AcDbEntity
  8
THREAD
100
AcDbLine
 62
7
  6
CONTINUOUS
 10
6.538185669
 20
3.8075058076
 11
6.454185669
 21
3.8075058076
  0
LINE
  5
2D3
100
AcDbEntity
  8
0
100
AcDbLine
 62
7
  6
CONTINUOUS
 10
7.287685669
 20
3.8230058076
 11
7.246685669
 21
3.8230058076
  0
LINE
  5
2D4
100
AcDbEntity
  8
0
100
AcDbLine
 62
7
  6
CONTINUOUS
 10
7.048685669
 20
3.8230058076
 11
6.992685669
 21
3.8230058076
  0
LINE
  5
2D5
100
AcDbEntity
  8
0
100
AcDbLine
 62
7
  6
CONTINUOUS
 10
7.048685669
 20
3.8235058076
 11
7.098685669
 21
3.8235058076
  0
LINE
  5
2D6
100
AcDbEntity
  8
0
100
AcDbLine
 62
7
  6
CONTINUOUS
 10
7.168685669
 20
3.8235058076
 11
7.218685669
 21
3.8235058076
  0
LINE
  5
2D7
100
AcDbEntity
  8
03__ASM_ALL_CURVES
100
AcDbLine
 62
40
  6
CONTINUOUS
 10
5.7389127184
 20
3.3980315902
 11
5.747531859
 21
3.3865394013
  0
LINE
  5
2D8
100
AcDbEntity
  8
03__ASM_ALL_CURVES
100
AcDbLine
 62
40
  6
CONTINUOUS
 10
5.6699595934
 20
3.5037597152
 11
5.6742691637
 21
3.4980136187
  0
LINE
  5
2D9
100
AcDbEntity
  8
03__ASM_ALL_CURVES
100
AcDbLine
 62
40
  6
CONTINUOUS
 10
4.3812052003
 20
5.2318488511
 11
4.386951294
 21
5.2241873891
  0
LINE
  5
2DA
100
AcDbEntity
  8
03__ASM_ALL_CURVES
100
AcDbLine
 62
40
  6
CONTINUOUS
 10
4.4501583253
 20
5.1552342662
 11
4.455904419
 21
5.1475728076
  0
LINE
  5
2DB
100
AcDbEntity
  8
03__ASM_ALL_CURVES
100
AcDbLine
 62
40
  6
CONTINUOUS
 10
5.7820084215
 20
3.4462987765
 11
5.7776988512
 21
3.4520448704
  0
LINE
  5
2DC
100
AcDbEntity
  8
03__ASM_ALL_CURVES
100
AcDbLine
 62
40
  6
CONTINUOUS
 10
4.5306036378
 20
5.1552342662
 11
4.524857544
 21
5.1628957247
  0
LINE
  5
2DD
100
AcDbEntity
  8
03__ASM_ALL_CURVES
100
AcDbLine
 62
40
  6
CONTINUOUS
 10
5.8078658434
 20
3.4750292451
 11
5.816484984
 21
3.4635370583
  0
LINE
  5
2DE
100
AcDbEntity
  8
03__ASM_ALL_CURVES
100
AcDbLine
 62
40
  6
CONTINUOUS
 10
5.8078658434
 20
3.5037597152
 11
5.8121754137
 21
3.4980136187
  0
LINE
  5
2DF
100
AcDbEntity
  8
0
100
AcDbLine
 62
7
  6
CONTINUOUS
 10
5.354185669
 20
3.7230058076
 11
5.354185669
 21
4.7960058076
  0
LINE
  5
2E0
100
AcDbEntity
  8
0
100
AcDbLine
 62
7
  6
CONTINUOUS
 10
5.424185669
 20
4.7770058076
 11
5.424185669
 21
3.7420058076
  0
LINE
  5
2E1
100
AcDbEntity
  8
0
100
AcDbLine
 62
7
  6
CONTINUOUS
 10
5.445185669
 20
3.7215058076
 11
5.445185669
 21
4.7975058076
  0
LINE
  5
2E2
100
AcDbEntity
  8
0
100
AcDbLine
 62
7
  6
CONTINUOUS
 10
5.490185669
 20
3.7215058076
 11
5.490185669
 21
4.7975058076
  0
LINE
  5
2E3
100
AcDbEntity
  8
03__ASM_ALL_CURVES
100
AcDbLine
 62
40
  6
CONTINUOUS
 10
5.5018863512
 20
3.3348245576
 11
5.5018863512
 21
3.4037776826
  0
LINE
  5
2E4
100
AcDbEntity
  8
03__ASM_ALL_CURVES
100
AcDbLine
 62
40
  6
CONTINUOUS
 10
5.5018863512
 20
3.4405526826
 11
5.5018863512
 21
3.5095058076
  0
LINE
  5
2E5
100
AcDbEntity
  8
0
100
AcDbLine
 62
7
  6
CONTINUOUS
 10
5.117185669
 20
3.7215058076
 11
5.062026212
 21
3.6259668255
  0
LINE
  5
2E6
100
AcDbEntity
  8
03__ASM_ALL_CURVES
100
AcDbLine
 62
40
  6
CONTINUOUS
 10
6.3003833259
 20
5.1552342662
 11
6.2888911384
 21
5.1475728076
  0
LINE
  5
2E7
100
AcDbEntity
  8
0
100
AcDbLine
 62
7
  6
CONTINUOUS
 10
6.554185669
 20
3.8535058076
 11
6.599685669
 21
3.8535058076
  0
LINE
  5
2E8
100
AcDbEntity
  8
0
100
AcDbLine
 62
7
  6
CONTINUOUS
 10
7.218685669
 20
3.8775058076
 11
7.246685669
 21
3.8775058076
  0
LINE
  5
2E9
100
AcDbEntity
  8
0
100
AcDbLine
 62
7
  6
CONTINUOUS
 10
6.7887183796
 20
3.8853558076
 11
6.976685669
 21
3.8853558076
  0
LINE
  5
2EA
100
AcDbEntity
  8
0
100
AcDbLine
 62
7
  6
CONTINUOUS
 10
5.0617600432
 20
3.9186411171
 11
4.4747963403
 21
3.9186411171
  0
LINE
  5
2EB
100
AcDbEntity
  8
0
100
AcDbLine
 62
7
  6
CONTINUOUS
 10
5.0617600432
 20
3.9669851887
 11
4.4747963403
 21
3.9669851887
  0
LINE
  5
2EC
100
AcDbEntity
  8
0
100
AcDbLine
 62
7
  6
CONTINUOUS
 10
3.9291829881
 20
3.9784805641
 11
3.7116462019
 21
3.9784805641
  0
LINE
  5
2ED
100
AcDbEntity
  8
03__ASM_ALL_CURVES
100
AcDbLine
 62
40
  6
CONTINUOUS
 10
6.5546480673
 20
3.3348245576
 11
6.5460289267
 21
3.3405706515
  0
LINE
  5
2EE
100
AcDbEntity
  8
03__ASM_ALL_CURVES
100
AcDbLine
 62
40
  6
CONTINUOUS
 10
6.6236011923
 20
3.3348245576
 11
6.6149820517
 21
3.3405706515
  0
LINE
  5
2EF
100
AcDbEntity
  8
03__ASM_ALL_CURVES
100
AcDbLine
 62
40
  6
CONTINUOUS
 10
6.5632672079
 20
3.4037776826
 11
6.5718863486
 21
3.3980315902
  0
LINE
  5
2F0
100
AcDbEntity
  8
03__ASM_ALL_CURVES
100
AcDbLine
 62
40
  6
CONTINUOUS
 10
4.5650802003
 20
5.1935415576
 11
4.5765723878
 21
5.1782186418
  0
LINE
  5
2F1
100
AcDbEntity
  8
03__ASM_ALL_CURVES
100
AcDbLine
 62
40
  6
CONTINUOUS
 10
4.5650802003
 20
5.2318488511
 11
4.570826294
 21
5.2241873891
  0
LINE
  5
2F2
100
AcDbEntity
  8
03__ASM_ALL_CURVES
100
AcDbLine
 62
40
  6
CONTINUOUS
 10
4.6340333253
 20
5.1628957247
 11
4.6455255128
 21
5.1475728076
  0
LINE
  5
2F3
100
AcDbEntity
  8
03__ASM_ALL_CURVES
100
AcDbLine
 62
40
  6
CONTINUOUS
 10
4.7144786378
 20
5.1552342662
 11
4.708732544
 21
5.1628957247
  0
LINE
  5
2F4
100
AcDbEntity
  8
0
100
AcDbLine
 62
7
  6
CONTINUOUS
 10
5.117185669
 20
4.7975058076
 11
5.062026212
 21
4.8930447897
  0
LINE
  5
2F5
100
AcDbEntity
  8
03__ASM_ALL_CURVES
100
AcDbLine
 62
40
  6
CONTINUOUS
 10
5.6613404527
 20
3.4750292451
 11
5.6742691637
 21
3.4405526826
  0
LINE
  5
2F6
100
AcDbEntity
  8
03__ASM_ALL_CURVES
100
AcDbLine
 62
40
  6
CONTINUOUS
 10
5.5665299059
 20
3.4577909638
 11
5.5622203355
 21
3.4750292451
  0
LINE
  5
2F7
100
AcDbEntity
  8
03__ASM_ALL_CURVES
100
AcDbLine
 62
40
  6
CONTINUOUS
 10
5.609625609
 20
3.4922675263
 11
5.6139351793
 21
3.4750292451
  0
LINE
  5
2F8
100
AcDbEntity
  8
03__ASM_ALL_CURVES
100
AcDbLine
 62
40
  6
CONTINUOUS
 10
5.1971505128
 20
5.2241873891
 11
5.2028966065
 21
5.2012030141
  0
LINE
  5
2F9
100
AcDbEntity
  8
03__ASM_ALL_CURVES
100
AcDbLine
 62
40
  6
CONTINUOUS
 10
5.7044361559
 20
3.3520628388
 11
5.7001265855
 21
3.3693011201
  0
LINE
  5
2FA
100
AcDbEntity
  8
0
100
AcDbLine
 62
7
  6
CONTINUOUS
 10
5.5116216044
 20
3.8015058076
 11
5.5116216044
 21
4.7175058076
  0
LINE
  5
2FB
100
AcDbEntity
  8
03__ASM_ALL_CURVES
100
AcDbLine
 62
40
  6
CONTINUOUS
 10
5.5363629137
 20
3.4980136187
 11
5.5363629137
 21
3.486521434
  0
LINE
  5
2FC
100
AcDbEntity
  8
03__ASM_ALL_CURVES
100
AcDbLine
 62
40
  6
CONTINUOUS
 10
5.5363629137
 20
3.3922854937
 11
5.5363629137
 21
3.380793309
  0
LINE
  5
2FD
100
AcDbEntity
  8
03__ASM_ALL_CURVES
100
AcDbLine
 62
40
  6
CONTINUOUS
 10
5.5880777574
 20
3.4037776826
 11
5.5880777574
 21
3.3348245576
  0
LINE
  5
2FE
100
AcDbEntity
  8
03__ASM_ALL_CURVES
100
AcDbLine
 62
40
  6
CONTINUOUS
 10
5.6397926012
 20
3.4037776826
 11
5.6397926012
 21
3.3348245576
  0
LINE
  5
2FF
100
AcDbEntity
  8
03__ASM_ALL_CURVES
100
AcDbLine
 62
40
  6
CONTINUOUS
 10
5.6397926012
 20
3.4405526826
 11
5.6397926012
 21
3.5095058076
  0
LINE
  5
300
100
AcDbEntity
  8
0
100
AcDbLine
 62
7
  6
CONTINUOUS
 10
5.5116216044
 20
3.8015058076
 11
5.490185669
 21
3.7215058076
  0
LINE
  5
301
100
AcDbEntity
  8
03__ASM_ALL_CURVES
100
AcDbLine
 62
40
  6
CONTINUOUS
 10
6.1624770759
 20
5.2165259326
 11
6.1739692634
 21
5.2318488511
  0
LINE
  5
302
100
AcDbEntity
  8
03__ASM_ALL_CURVES
100
AcDbLine
 62
40
  6
CONTINUOUS
 10
6.2199380134
 20
5.1705571826
 11
6.2084458259
 21
5.1552342662
  0
LINE
  5
303
100
AcDbEntity
  8
03__ASM_ALL_CURVES
100
AcDbLine
 62
40
  6
CONTINUOUS
 10
6.2544145759
 20
5.2165259326
 11
6.2659067634
 21
5.2318488511
  0
LINE
  5
304
100
AcDbEntity
  8
03__ASM_ALL_CURVES
100
AcDbLine
 62
40
  6
CONTINUOUS
 10
6.7255942634
 20
5.2318488511
 11
6.7370864509
 21
5.2395103076
  0
LINE
  5
305
100
AcDbEntity
  8
03__ASM_ALL_CURVES
100
AcDbLine
 62
40
  6
CONTINUOUS
 10
6.7600708259
 20
5.1552342662
 11
6.7485786384
 21
5.1475728076
  0
LINE
  5
306
100
AcDbEntity
  8
03__ASM_ALL_CURVES
100
AcDbLine
 62
40
  6
CONTINUOUS
 10
6.9209614509
 20
5.2395103076
 11
6.9094692634
 21
5.2318488511
  0
LINE
  5
307
100
AcDbEntity
  8
0
100
AcDbLine
 62
7
  6
CONTINUOUS
 10
3.710185669
 20
4.0730058076
 11
3.6571856701
 21
4.0730058076
  0
LINE
  5
308
100
AcDbEntity
  8
03__ASM_ALL_CURVES
100
AcDbLine
 62
40
  6
CONTINUOUS
 10
6.6559229621
 20
3.4405526826
 11
6.6473038214
 21
3.4462987765
  0
LINE
  5
309
100
AcDbEntity
  8
03__ASM_ALL_CURVES
100
AcDbLine
 62
40
  6
CONTINUOUS
 10
6.5955889777
 20
3.5095058076
 11
6.6042081183
 21
3.5037597152
  0
LINE
  5
30A
100
AcDbEntity
  8
03__ASM_ALL_CURVES
100
AcDbLine
 62
40
  6
CONTINUOUS
 10
6.6645421027
 20
3.5095058076
 11
6.6731612433
 21
3.5037597152
  0
LINE
  5
30B
100
AcDbEntity
  8
03__ASM_ALL_CURVES
100
AcDbLine
 62
40
  6
CONTINUOUS
 10
4.7489552003
 20
5.2012030141
 11
4.754701294
 21
5.1935415576
  0
LINE
  5
30C
100
AcDbEntity
  8
03__ASM_ALL_CURVES
100
AcDbLine
 62
40
  6
CONTINUOUS
 10
4.8064161378
 20
5.1552342662
 11
4.7949239503
 21
5.1705571826
  0
LINE
  5
30D
100
AcDbEntity
  8
03__ASM_ALL_CURVES
100
AcDbLine
 62
40
  6
CONTINUOUS
 10
4.8064161378
 20
5.2088644761
 11
4.800670044
 21
5.2165259326
  0
LINE
  5
30E
100
AcDbEntity
  8
03__ASM_ALL_CURVES
100
AcDbLine
 62
40
  6
CONTINUOUS
 10
4.8408927003
 20
5.1935415576
 11
4.8523848878
 21
5.1782186418
  0
LINE
  5
30F
100
AcDbEntity
  8
03__ASM_ALL_CURVES
100
AcDbLine
 62
40
  6
CONTINUOUS
 10
4.8408927003
 20
5.2318488511
 11
4.846638794
 21
5.2241873891
  0
LINE
  5
310
100
AcDbEntity
  8
03__ASM_ALL_CURVES
100
AcDbLine
 62
40
  6
CONTINUOUS
 10
4.9098458253
 20
5.1552342662
 11
4.915591919
 21
5.1475728076
  0
LINE
  5
311
100
AcDbEntity
  8
0
100
AcDbLine
 62
7
  6
CONTINUOUS
 10
5.5116216044
 20
4.7175058076
 11
5.490185669
 21
4.7975058076
  0
LINE
  5
312
100
AcDbEntity
  8
03__ASM_ALL_CURVES
100
AcDbLine
 62
40
  6
CONTINUOUS
 10
5.747531859
 20
3.3865394013
 11
5.7518414293
 21
3.3693011201
  0
LINE
  5
313
100
AcDbEntity
  8
03__ASM_ALL_CURVES
100
AcDbLine
 62
40
  6
CONTINUOUS
 10
5.6742691637
 20
3.4980136187
 11
5.6742691637
 21
3.486521434
  0
LINE
  5
314
100
AcDbEntity
  8
03__ASM_ALL_CURVES
100
AcDbLine
 62
40
  6
CONTINUOUS
 10
5.7259840074
 20
3.5095058076
 11
5.7259840074
 21
3.4405526826
  0
LINE
  5
315
100
AcDbEntity
  8
03__ASM_ALL_CURVES
100
AcDbLine
 62
40
  6
CONTINUOUS
 10
5.7949371324
 20
3.4037776826
 11
5.7949371324
 21
3.3348245576
  0
LINE
  5
316
100
AcDbEntity
  8
03__ASM_ALL_CURVES
100
AcDbLine
 62
40
  6
CONTINUOUS
 10
5.8121754137
 20
3.4980136187
 11
5.8121754137
 21
3.4922675263
  0
LINE
  5
317
100
AcDbEntity
  8
03__ASM_ALL_CURVES
100
AcDbLine
 62
40
  6
CONTINUOUS
 10
5.816484984
 20
3.4635370583
 11
5.816484984
 21
3.4577909638
  0
LINE
  5
318
100
AcDbEntity
  8
03__ASM_ALL_CURVES
100
AcDbLine
 62
40
  6
CONTINUOUS
 10
5.818860669
 20
5.1291853076
 11
5.818860669
 21
5.0924103076
  0
LINE
  5
319
100
AcDbEntity
  8
03__ASM_ALL_CURVES
100
AcDbLine
 62
40
  6
CONTINUOUS
 10
5.5622203355
 20
3.4750292451
 11
5.5665299059
 21
3.4922675263
  0
LINE
  5
31A
100
AcDbEntity
  8
03__ASM_ALL_CURVES
100
AcDbLine
 62
40
  6
CONTINUOUS
 10
5.6139351793
 20
3.4750292451
 11
5.609625609
 21
3.4577909638
  0
LINE
  5
31B
100
AcDbEntity
  8
0
100
AcDbLine
 62
7
  6
CONTINUOUS
 10
5.864185669
 20
4.7975058076
 11
5.8427497336
 21
4.7175058076
  0
LINE
  5
31C
100
AcDbEntity
  8
03__ASM_ALL_CURVES
100
AcDbLine
 62
40
  6
CONTINUOUS
 10
6.3061294197
 20
5.1628957247
 11
6.3003833259
 21
5.1552342662
  0
LINE
  5
31D
100
AcDbEntity
  8
03__ASM_ALL_CURVES
100
AcDbLine
 62
40
  6
CONTINUOUS
 10
6.9439458259
 20
5.1552342662
 11
6.9324536384
 21
5.1475728076
  0
LINE
  5
31E
100
AcDbEntity
  8
03__ASM_ALL_CURVES
100
AcDbLine
 62
40
  6
CONTINUOUS
 10
7.0933442634
 20
5.2318488511
 11
7.1048364509
 21
5.2395103076
  0
LINE
  5
31F
100
AcDbEntity
  8
03__ASM_ALL_CURVES
100
AcDbLine
 62
40
  6
CONTINUOUS
 10
7.1278208259
 20
5.1552342662
 11
7.1163286384
 21
5.1475728076
  0
LINE
  5
320
100
AcDbEntity
  8
03__ASM_ALL_CURVES
100
AcDbLine
 62
40
  6
CONTINUOUS
 10
7.9032833244
 20
4.1721651826
 11
7.8688067619
 21
4.1721651826
  0
LINE
  5
321
100
AcDbEntity
  8
03__ASM_ALL_CURVES
100
AcDbLine
 62
40
  6
CONTINUOUS
 10
7.7998536369
 20
4.1721651826
 11
7.8343301994
 21
4.1721651826
  0
LINE
  5
322
100
AcDbEntity
  8
03__ASM_ALL_CURVES
100
AcDbLine
 62
40
  6
CONTINUOUS
 10
7.8688067619
 20
4.2066417451
 11
7.8903546135
 21
4.2066417451
  0
LINE
  5
323
100
AcDbEntity
  8
03__ASM_ALL_CURVES
100
AcDbLine
 62
40
  6
CONTINUOUS
 10
7.8688067619
 20
4.2411183076
 11
7.9032833244
 21
4.2411183076
  0
LINE
  5
324
100
AcDbEntity
  8
03__ASM_ALL_CURVES
100
AcDbLine
 62
40
  6
CONTINUOUS
 10
7.9334503166
 20
4.2411183076
 11
7.9765460197
 21
4.2411183076
  0
LINE
  5
325
100
AcDbEntity
  8
0
100
AcDbLine
 62
7
  6
CONTINUOUS
 10
3.9040709323
 20
4.2595058076
 11
3.7367435885
 21
4.2595058076
  0
LINE
  5
326
100
AcDbEntity
  8
03__ASM_ALL_CURVES
100
AcDbLine
 62
40
  6
CONTINUOUS
 10
7.7696866451
 20
4.2778933076
 11
7.7610675045
 21
4.2778933076
  0
LINE
  5
327
100
AcDbEntity
  8
03__ASM_ALL_CURVES
100
AcDbLine
 62
40
  6
CONTINUOUS
 10
6.7334952277
 20
3.5095058076
 11
6.7421143683
 21
3.5037597152
  0
LINE
  5
328
100
AcDbEntity
  8
03__ASM_ALL_CURVES
100
AcDbLine
 62
40
  6
CONTINUOUS
 10
6.8714014777
 20
3.5095058076
 11
6.8800206183
 21
3.5037597152
  0
LINE
  5
329
100
AcDbEntity
  8
03__ASM_ALL_CURVES
100
AcDbLine
 62
40
  6
CONTINUOUS
 10
4.3697130128
 20
5.2395103076
 11
4.3812052003
 21
5.2318488511
  0
LINE
  5
32A
100
AcDbEntity
  8
03__ASM_ALL_CURVES
100
AcDbLine
 62
40
  6
CONTINUOUS
 10
4.5420958253
 20
5.1475728076
 11
4.5306036378
 21
5.1552342662
  0
LINE
  5
32B
100
AcDbEntity
  8
0
100
AcDbLine
 62
7
  6
CONTINUOUS
 10
5.864185669
 20
3.7215058076
 11
5.8427497336
 21
3.8015058076
  0
LINE
  5
32C
100
AcDbEntity
  8
0
100
AcDbLine
 62
7
  6
CONTINUOUS
 10
5.8427497336
 20
3.8015058076
 11
5.8427497336
 21
4.7175058076
  0
LINE
  5
32D
100
AcDbEntity
  8
0
100
AcDbLine
 62
7
  6
CONTINUOUS
 10
5.864185669
 20
3.7215058076
 11
5.864185669
 21
4.7975058076
  0
LINE
  5
32E
100
AcDbEntity
  8
0
100
AcDbLine
 62
7
  6
CONTINUOUS
 10
5.926185669
 20
4.7975058076
 11
5.926185669
 21
3.7215058076
  0
LINE
  5
32F
100
AcDbEntity
  8
0
100
AcDbLine
 62
7
  6
CONTINUOUS
 10
5.929185669
 20
4.7945058076
 11
5.929185669
 21
3.7245058076
  0
LINE
  5
330
100
AcDbEntity
  8
03__ASM_ALL_CURVES
100
AcDbLine
 62
40
  6
CONTINUOUS
 10
5.929185669
 20
4.8158933076
 11
5.929185669
 21
5.1475728076
  0
LINE
  5
331
100
AcDbEntity
  8
0
100
AcDbLine
 62
7
  6
CONTINUOUS
 10
5.931685669
 20
3.7334491833
 11
5.931685669
 21
4.7855624319
  0
LINE
  5
332
100
AcDbEntity
  8
0
100
AcDbLine
 62
7
  6
CONTINUOUS
 10
5.950542069
 20
4.7740058316
 11
5.9505420755
 21
4.7746756806
  0
LINE
  5
333
100
AcDbEntity
  8
0
100
AcDbLine
 62
7
  6
CONTINUOUS
 10
5.9505420755
 20
3.7443359346
 11
5.950542069
 21
4.7740058316
  0
LINE
  5
334
100
AcDbEntity
  8
0
100
AcDbLine
 62
7
  6
CONTINUOUS
 10
5.9530420755
 20
3.7450058076
 11
5.9530420755
 21
4.7740058076
  0
LINE
  5
335
100
AcDbEntity
  8
THREAD
100
AcDbLine
 62
7
  6
CONTINUOUS
 10
5.976185669
 20
3.7450058076
 11
5.976185669
 21
4.7740058076
  0
LINE
  5
336
100
AcDbEntity
  8
03__ASM_ALL_CURVES
100
AcDbLine
 62
40
  6
CONTINUOUS
 10
5.7001265855
 20
3.3693011201
 11
5.7044361559
 21
3.3865394013
  0
LINE
  5
337
100
AcDbEntity
  8
03__ASM_ALL_CURVES
100
AcDbLine
 62
40
  6
CONTINUOUS
 10
6.1567309822
 20
5.1935415576
 11
6.1624770759
 21
5.2165259326
  0
LINE
  5
338
100
AcDbEntity
  8
03__ASM_ALL_CURVES
100
AcDbLine
 62
40
  6
CONTINUOUS
 10
5.7518414293
 20
3.3693011201
 11
5.747531859
 21
3.3520628388
  0
LINE
  5
339
100
AcDbEntity
  8
THREAD
100
AcDbLine
 62
7
  6
CONTINUOUS
 10
6.1391249792
 20
4.7555058076
 11
6.1209384458
 21
4.7240058076
  0
LINE
  5
33A
100
AcDbEntity
  8
03__ASM_ALL_CURVES
100
AcDbLine
 62
40
  6
CONTINUOUS
 10
6.7141020759
 20
5.2165259326
 11
6.7255942634
 21
5.2318488511
  0
LINE
  5
33B
100
AcDbEntity
  8
03__ASM_ALL_CURVES
100
AcDbLine
 62
40
  6
CONTINUOUS
 10
7.2197583259
 20
5.1552342662
 11
7.2082661384
 21
5.1475728076
  0
LINE
  5
33C
100
AcDbEntity
  8
03__ASM_ALL_CURVES
100
AcDbLine
 62
40
  6
CONTINUOUS
 10
7.3978872322
 20
5.1552342662
 11
7.3863950447
 21
5.1475728076
  0
LINE
  5
33D
100
AcDbEntity
  8
03__ASM_ALL_CURVES
100
AcDbLine
 62
40
  6
CONTINUOUS
 10
7.8386397701
 20
4.3123698701
 11
7.8170919186
 21
4.3123698701
  0
LINE
  5
33E
100
AcDbEntity
  8
03__ASM_ALL_CURVES
100
AcDbLine
 62
40
  6
CONTINUOUS
 10
7.7007335201
 20
4.3123698701
 11
7.6791856686
 21
4.3123698701
  0
LINE
  5
33F
100
AcDbEntity
  8
03__ASM_ALL_CURVES
100
AcDbLine
 62
40
  6
CONTINUOUS
 10
7.6791856686
 20
4.3468464326
 11
7.7007335201
 21
4.3468464326
  0
LINE
  5
340
100
AcDbEntity
  8
03__ASM_ALL_CURVES
100
AcDbLine
 62
40
  6
CONTINUOUS
 10
7.7610675045
 20
4.3468464326
 11
7.7696866451
 21
4.3468464326
  0
LINE
  5
341
100
AcDbEntity
  8
03__ASM_ALL_CURVES
100
AcDbLine
 62
40
  6
CONTINUOUS
 10
7.8170919186
 20
4.3468464326
 11
7.8386397701
 21
4.3468464326
  0
LINE
  5
342
100
AcDbEntity
  8
03__ASM_ALL_CURVES
100
AcDbLine
 62
40
  6
CONTINUOUS
 10
7.8817354733
 20
4.3468464326
 11
7.9248311764
 21
4.3468464326
  0
LINE
  5
343
100
AcDbEntity
  8
0
100
AcDbLine
 62
7
  6
CONTINUOUS
 10
3.710185669
 20
4.4460058076
 11
3.6571856701
 21
4.4460058076
  0
LINE
  5
344
100
AcDbEntity
  8
03__ASM_ALL_CURVES
100
AcDbLine
 62
40
  6
CONTINUOUS
 10
4.5535880128
 20
5.2012030141
 11
4.5650802003
 21
5.1935415576
  0
LINE
  5
345
100
AcDbEntity
  8
03__ASM_ALL_CURVES
100
AcDbLine
 62
40
  6
CONTINUOUS
 10
4.5535880128
 20
5.2395103076
 11
4.5650802003
 21
5.2318488511
  0
LINE
  5
346
100
AcDbEntity
  8
03__ASM_ALL_CURVES
100
AcDbLine
 62
40
  6
CONTINUOUS
 10
4.7259708253
 20
5.1475728076
 11
4.7144786378
 21
5.1552342662
  0
LINE
  5
347
100
AcDbEntity
  8
03__ASM_ALL_CURVES
100
AcDbLine
 62
40
  6
CONTINUOUS
 10
4.8179083253
 20
5.1475728076
 11
4.8064161378
 21
5.1552342662
  0
LINE
  5
348
100
AcDbEntity
  8
03__ASM_ALL_CURVES
100
AcDbLine
 62
40
  6
CONTINUOUS
 10
4.7374630128
 20
5.2088644761
 11
4.7489552003
 21
5.2012030141
  0
LINE
  5
349
100
AcDbEntity
  8
03__ASM_ALL_CURVES
100
AcDbLine
 62
40
  6
CONTINUOUS
 10
6.5460289267
 20
3.3405706515
 11
6.5374097861
 21
3.3520628388
  0
LINE
  5
34A
100
AcDbEntity
  8
03__ASM_ALL_CURVES
100
AcDbLine
 62
40
  6
CONTINUOUS
 10
5.1856583253
 20
5.2395103076
 11
5.1971505128
 21
5.2241873891
  0
LINE
  5
34B
100
AcDbEntity
  8
03__ASM_ALL_CURVES
100
AcDbLine
 62
40
  6
CONTINUOUS
 10
6.6149820517
 20
3.3405706515
 11
6.6106724814
 21
3.3463167454
  0
LINE
  5
34C
100
AcDbEntity
  8
03__ASM_ALL_CURVES
100
AcDbLine
 62
40
  6
CONTINUOUS
 10
6.5718863486
 20
3.3980315902
 11
6.5805054892
 21
3.3865394013
  0
LINE
  5
34D
100
AcDbEntity
  8
03__ASM_ALL_CURVES
100
AcDbLine
 62
40
  6
CONTINUOUS
 10
6.6473038214
 20
3.4462987765
 11
6.6386846808
 21
3.4577909638
  0
LINE
  5
34E
100
AcDbEntity
  8
03__ASM_ALL_CURVES
100
AcDbLine
 62
40
  6
CONTINUOUS
 10
6.6042081183
 20
3.5037597152
 11
6.6085176886
 21
3.4980136187
  0
LINE
  5
34F
100
AcDbEntity
  8
THREAD
100
AcDbLine
 62
7
  6
CONTINUOUS
 10
6.1391249792
 20
3.7635058076
 11
6.1209384458
 21
3.7950058076
  0
LINE
  5
350
100
AcDbEntity
  8
03__ASM_ALL_CURVES
100
AcDbLine
 62
40
  6
CONTINUOUS
 10
6.039510669
 20
5.1291853076
 11
6.039510669
 21
5.0924103076
  0
LINE
  5
351
100
AcDbEntity
  8
0
100
AcDbLine
 62
7
  6
CONTINUOUS
 10
6.046185669
 20
3.7475058076
 11
6.046185669
 21
4.7715058076
  0
LINE
  5
352
100
AcDbEntity
  8
03__ASM_ALL_CURVES
100
AcDbLine
 62
40
  6
CONTINUOUS
 10
6.0762856697
 20
5.2395103076
 11
6.0762856697
 21
5.1475728076
  0
LINE
  5
353
100
AcDbEntity
  8
0
100
AcDbLine
 62
7
  6
CONTINUOUS
 10
6.096185669
 20
3.7475058076
 11
6.096185669
 21
4.7715058076
  0
LINE
  5
354
100
AcDbEntity
  8
THREAD
100
AcDbLine
 62
7
  6
CONTINUOUS
 10
6.1096801155
 20
3.8015058076
 11
6.1096801155
 21
4.7175058076
  0
LINE
  5
355
100
AcDbEntity
  8
THREAD
100
AcDbLine
 62
7
  6
CONTINUOUS
 10
6.1209384458
 20
3.7950058076
 11
6.1209384458
 21
4.7240058076
  0
LINE
  5
356
100
AcDbEntity
  8
THREAD
100
AcDbLine
 62
7
  6
CONTINUOUS
 10
6.1391249792
 20
3.7635058076
 11
6.1391249792
 21
4.7555058076
  0
LINE
  5
357
100
AcDbEntity
  8
03__ASM_ALL_CURVES
100
AcDbLine
 62
40
  6
CONTINUOUS
 10
6.2256841072
 20
5.1935415576
 11
6.2199380134
 21
5.1705571826
  0
LINE
  5
358
100
AcDbEntity
  8
03__ASM_ALL_CURVES
100
AcDbLine
 62
40
  6
CONTINUOUS
 10
6.2486684822
 20
5.1935415576
 11
6.2544145759
 21
5.2165259326
  0
LINE
  5
359
100
AcDbEntity
  8
03__ASM_ALL_CURVES
100
AcDbLine
 62
40
  6
CONTINUOUS
 10
6.3463520759
 20
5.1475728076
 11
6.3750825447
 21
5.2395103076
  0
LINE
  5
35A
100
AcDbEntity
  8
03__ASM_ALL_CURVES
100
AcDbLine
 62
40
  6
CONTINUOUS
 10
6.7658169197
 20
5.1628957247
 11
6.7600708259
 21
5.1552342662
  0
LINE
  5
35B
100
AcDbEntity
  8
03__ASM_ALL_CURVES
100
AcDbLine
 62
40
  6
CONTINUOUS
 10
5.5363629137
 20
3.486521434
 11
5.5320533434
 21
3.4807753375
  0
LINE
  5
35C
100
AcDbEntity
  8
03__ASM_ALL_CURVES
100
AcDbLine
 62
40
  6
CONTINUOUS
 10
5.5665299059
 20
3.4922675263
 11
5.5751490465
 21
3.5037597152
  0
LINE
  5
35D
100
AcDbEntity
  8
03__ASM_ALL_CURVES
100
AcDbLine
 62
40
  6
CONTINUOUS
 10
6.9094692634
 20
5.2318488511
 11
6.9037231697
 21
5.2241873891
  0
LINE
  5
35E
100
AcDbEntity
  8
03__ASM_ALL_CURVES
100
AcDbLine
 62
40
  6
CONTINUOUS
 10
5.5363629137
 20
3.380793309
 11
5.5320533434
 21
3.3750472125
  0
LINE
  5
35F
100
AcDbEntity
  8
03__ASM_ALL_CURVES
100
AcDbLine
 62
40
  6
CONTINUOUS
 10
7.5875083259
 20
5.2012030141
 11
7.5760161384
 21
5.1935415576
  0
LINE
  5
360
100
AcDbEntity
  8
0
100
AcDbLine
 62
7
  6
CONTINUOUS
 10
3.7116462019
 20
4.5405310511
 11
3.9291848684
 21
4.5405310511
  0
LINE
  5
361
100
AcDbEntity
  8
0
100
AcDbLine
 62
7
  6
CONTINUOUS
 10
5.0617600432
 20
4.5520264265
 11
4.4747963403
 21
4.5520264265
  0
LINE
  5
362
100
AcDbEntity
  8
0
100
AcDbLine
 62
7
  6
CONTINUOUS
 10
5.0617600432
 20
4.6003704981
 11
4.4747963403
 21
4.6003704981
  0
LINE
  5
363
100
AcDbEntity
  8
03__ASM_ALL_CURVES
100
AcDbLine
 62
40
  6
CONTINUOUS
 10
4.8179083253
 20
5.2012030141
 11
4.8064161378
 21
5.2088644761
  0
LINE
  5
364
100
AcDbEntity
  8
03__ASM_ALL_CURVES
100
AcDbLine
 62
40
  6
CONTINUOUS
 10
4.8294005128
 20
5.2012030141
 11
4.8408927003
 21
5.1935415576
  0
LINE
  5
365
100
AcDbEntity
  8
03__ASM_ALL_CURVES
100
AcDbLine
 62
40
  6
CONTINUOUS
 10
4.8294005128
 20
5.2395103076
 11
4.8408927003
 21
5.2318488511
  0
LINE
  5
366
100
AcDbEntity
  8
03__ASM_ALL_CURVES
100
AcDbLine
 62
40
  6
CONTINUOUS
 10
6.6731612433
 20
3.5037597152
 11
6.6817803839
 21
3.4922675263
  0
LINE
  5
367
100
AcDbEntity
  8
03__ASM_ALL_CURVES
100
AcDbLine
 62
40
  6
CONTINUOUS
 10
6.7421143683
 20
3.5037597152
 11
6.7464239386
 21
3.4980136187
  0
LINE
  5
368
100
AcDbEntity
  8
03__ASM_ALL_CURVES
100
AcDbLine
 62
40
  6
CONTINUOUS
 10
5.609625609
 20
3.4577909638
 11
5.6010064684
 21
3.4462987765
  0
LINE
  5
369
100
AcDbEntity
  8
03__ASM_ALL_CURVES
100
AcDbLine
 62
40
  6
CONTINUOUS
 10
5.6742691637
 20
3.486521434
 11
5.6699595934
 21
3.4807753375
  0
LINE
  5
36A
100
AcDbEntity
  8
03__ASM_ALL_CURVES
100
AcDbLine
 62
40
  6
CONTINUOUS
 10
6.9496919197
 20
5.1628957247
 11
6.9439458259
 21
5.1552342662
  0
LINE
  5
36B
100
AcDbEntity
  8
03__ASM_ALL_CURVES
100
AcDbLine
 62
40
  6
CONTINUOUS
 10
5.7044361559
 20
3.3865394013
 11
5.7130552965
 21
3.3980315902
  0
LINE
  5
36C
100
AcDbEntity
  8
03__ASM_ALL_CURVES
100
AcDbLine
 62
40
  6
CONTINUOUS
 10
7.0818520759
 20
5.2165259326
 11
7.0933442634
 21
5.2318488511
  0
LINE
  5
36D
100
AcDbEntity
  8
03__ASM_ALL_CURVES
100
AcDbLine
 62
40
  6
CONTINUOUS
 10
5.8121754137
 20
3.4922675263
 11
5.8078658434
 21
3.486521434
  0
LINE
  5
36E
100
AcDbEntity
  8
0
100
AcDbLine
 62
7
  6
CONTINUOUS
 10
6.7887183796
 20
4.6336558076
 11
6.976685669
 21
4.6336558076
  0
LINE
  5
36F
100
AcDbEntity
  8
0
100
AcDbLine
 62
7
  6
CONTINUOUS
 10
7.218685669
 20
4.6415058076
 11
7.246685669
 21
4.6415058076
  0
LINE
  5
370
100
AcDbEntity
  8
0
100
AcDbLine
 62
7
  6
CONTINUOUS
 10
6.554185669
 20
4.6655058076
 11
6.599685669
 21
4.6655058076
  0
LINE
  5
371
100
AcDbEntity
  8
0
100
AcDbLine
 62
7
  6
CONTINUOUS
 10
7.048685669
 20
4.6955058076
 11
7.098685669
 21
4.6955058076
  0
LINE
  5
372
100
AcDbEntity
  8
0
100
AcDbLine
 62
7
  6
CONTINUOUS
 10
7.168685669
 20
4.6955058076
 11
7.218685669
 21
4.6955058076
  0
LINE
  5
373
100
AcDbEntity
  8
0
100
AcDbLine
 62
7
  6
CONTINUOUS
 10
7.287685669
 20
4.6960058076
 11
7.246685669
 21
4.6960058076
  0
LINE
  5
374
100
AcDbEntity
  8
0
100
AcDbLine
 62
7
  6
CONTINUOUS
 10
7.048685669
 20
4.6960058076
 11
6.992685669
 21
4.6960058076
  0
LINE
  5
375
100
AcDbEntity
  8
THREAD
100
AcDbLine
 62
7
  6
CONTINUOUS
 10
6.538185669
 20
4.7115058076
 11
6.454185669
 21
4.7115058076
  0
LINE
  5
376
100
AcDbEntity
  8
THREAD
100
AcDbLine
 62
7
  6
CONTINUOUS
 10
6.1096801155
 20
4.7175058076
 11
6.096185669
 21
4.7175058076
  0
LINE
  5
377
100
AcDbEntity
  8
0
100
AcDbLine
 62
7
  6
CONTINUOUS
 10
5.8427497336
 20
4.7175058076
 11
5.5116216044
 21
4.7175058076
  0
LINE
  5
378
100
AcDbEntity
  8
0
100
AcDbLine
 62
7
  6
CONTINUOUS
 10
5.445185669
 20
4.7420058076
 11
5.424185669
 21
4.7420058076
  0
LINE
  5
379
100
AcDbEntity
  8
THREAD
100
AcDbLine
 62
7
  6
CONTINUOUS
 10
6.410185669
 20
4.7555058076
 11
6.1391249792
 21
4.7555058076
  0
LINE
  5
37A
100
AcDbEntity
  8
0
100
AcDbLine
 62
7
  6
CONTINUOUS
 10
4.429185669
 20
4.7565058076
 11
3.991185669
 21
4.7565058076
  0
LINE
  5
37B
100
AcDbEntity
  8
0
100
AcDbLine
 62
7
  6
CONTINUOUS
 10
6.046185669
 20
4.7715058076
 11
6.096185669
 21
4.7715058076
  0
LINE
  5
37C
100
AcDbEntity
  8
THREAD
100
AcDbLine
 62
7
  6
CONTINUOUS
 10
5.976185669
 20
4.7740058076
 11
5.9530420755
 21
4.7740058076
  0
LINE
  5
37D
100
AcDbEntity
  8
03__ASM_ALL_CURVES
100
AcDbLine
 62
40
  6
CONTINUOUS
 10
3.736510669
 20
5.0924103076
 11
3.626185669
 21
5.1107978076
  0
LINE
  5
37E
100
AcDbEntity
  8
03__ASM_ALL_CURVES
100
AcDbLine
 62
40
  6
CONTINUOUS
 10
6.8800206183
 20
3.5037597152
 11
6.8843301886
 21
3.4980136187
  0
LINE
  5
37F
100
AcDbEntity
  8
03__ASM_ALL_CURVES
100
AcDbLine
 62
40
  6
CONTINUOUS
 10
6.5374097861
 20
3.3520628388
 11
6.5331002158
 21
3.3693011201
  0
LINE
  5
380
100
AcDbEntity
  8
THREAD
100
AcDbLine
 62
7
  6
CONTINUOUS
 10
6.410185669
 20
3.7635058076
 11
6.410185669
 21
4.7555058076
  0
LINE
  5
381
100
AcDbEntity
  8
THREAD
100
AcDbLine
 62
7
  6
CONTINUOUS
 10
6.454185669
 20
3.8075058076
 11
6.454185669
 21
4.7115058076
  0
LINE
  5
382
100
AcDbEntity
  8
03__ASM_ALL_CURVES
100
AcDbLine
 62
40
  6
CONTINUOUS
 10
5.816484984
 20
3.4577909638
 11
5.8078658434
 21
3.4462987765
  0
LINE
  5
383
100
AcDbEntity
  8
03__ASM_ALL_CURVES
100
AcDbLine
 62
40
  6
CONTINUOUS
 10
5.747531859
 20
3.3520628388
 11
5.7389127184
 21
3.3405706515
  0
LINE
  5
384
100
AcDbEntity
  8
03__ASM_ALL_CURVES
100
AcDbLine
 62
40
  6
CONTINUOUS
 10
7.1393130134
 20
5.1705571826
 11
7.1278208259
 21
5.1552342662
  0
LINE
  5
385
100
AcDbEntity
  8
03__ASM_ALL_CURVES
100
AcDbLine
 62
40
  6
CONTINUOUS
 10
7.2255044197
 20
5.1628957247
 11
7.2197583259
 21
5.1552342662
  0
LINE
  5
386
100
AcDbEntity
  8
03__ASM_ALL_CURVES
100
AcDbLine
 62
40
  6
CONTINUOUS
 10
5.5320533434
 20
3.4807753375
 11
5.5234342027
 21
3.4750292451
  0
LINE
  5
387
100
AcDbEntity
  8
03__ASM_ALL_CURVES
100
AcDbLine
 62
40
  6
CONTINUOUS
 10
5.5751490465
 20
3.5037597152
 11
5.5837681871
 21
3.5095058076
  0
LINE
  5
388
100
AcDbEntity
  8
03__ASM_ALL_CURVES
100
AcDbLine
 62
40
  6
CONTINUOUS
 10
5.6010064684
 20
3.4462987765
 11
5.5923873277
 21
3.4405526826
  0
LINE
  5
389
100
AcDbEntity
  8
03__ASM_ALL_CURVES
100
AcDbLine
 62
40
  6
CONTINUOUS
 10
5.6699595934
 20
3.4807753375
 11
5.6613404527
 21
3.4750292451
  0
LINE
  5
38A
100
AcDbEntity
  8
03__ASM_ALL_CURVES
100
AcDbLine
 62
40
  6
CONTINUOUS
 10
5.5320533434
 20
3.3750472125
 11
5.5234342027
 21
3.3693011201
  0
LINE
  5
38B
100
AcDbEntity
  8
03__ASM_ALL_CURVES
100
AcDbLine
 62
40
  6
CONTINUOUS
 10
5.7820084215
 20
3.5037597152
 11
5.7906275621
 21
3.5095058076
  0
LINE
  5
38C
100
AcDbEntity
  8
THREAD
100
AcDbLine
 62
7
  6
CONTINUOUS
 10
5.9505420755
 20
3.7443359346
 11
5.931685669
 21
3.7334491833
  0
LINE
  5
38D
100
AcDbEntity
  8
0
100
AcDbLine
 62
7
  6
CONTINUOUS
 10
5.304185669
 20
4.7960058076
 11
5.354185669
 21
4.7960058076
  0
LINE
  5
38E
100
AcDbEntity
  8
0
100
AcDbLine
 62
7
  6
CONTINUOUS
 10
5.926185669
 20
4.7975058076
 11
5.864185669
 21
4.7975058076
  0
LINE
  5
38F
100
AcDbEntity
  8
0
100
AcDbLine
 62
7
  6
CONTINUOUS
 10
5.490185669
 20
4.7975058076
 11
5.445185669
 21
4.7975058076
  0
LINE
  5
390
100
AcDbEntity
  8
0
100
AcDbLine
 62
7
  6
CONTINUOUS
 10
5.304185669
 20
4.7975058076
 11
5.117185669
 21
4.7975058076
  0
LINE
  5
391
100
AcDbEntity
  8
0
100
AcDbLine
 62
7
  6
CONTINUOUS
 10
5.0617600432
 20
4.8928911171
 11
4.4747963403
 21
4.8928911171
  0
LINE
  5
392
100
AcDbEntity
  8
0
100
AcDbLine
 62
7
  6
CONTINUOUS
 10
5.0617600432
 20
4.8935058076
 11
4.4747963403
 21
4.8935058076
  0
LINE
  5
393
100
AcDbEntity
  8
03__ASM_ALL_CURVES
100
AcDbLine
 62
40
  6
CONTINUOUS
 10
3.736510669
 20
5.1016040576
 11
3.626185669
 21
5.1107978076
  0
LINE
  5
394
100
AcDbEntity
  8
03__ASM_ALL_CURVES
100
AcDbLine
 62
40
  6
CONTINUOUS
 10
3.736510669
 20
5.0985394743
 11
3.626185669
 21
5.1107978076
  0
LINE
  5
395
100
AcDbEntity
  8
03__ASM_ALL_CURVES
100
AcDbLine
 62
40
  6
CONTINUOUS
 10
3.736510669
 20
5.0954748909
 11
3.626185669
 21
5.1107978076
  0
LINE
  5
396
100
AcDbEntity
  8
0
100
AcDbLine
 62
7
  6
CONTINUOUS
 10
5.9505420755
 20
4.7746756806
 11
5.9530420755
 21
4.7740058076
  0
LINE
  5
397
100
AcDbEntity
  8
0
100
AcDbLine
 62
7
  6
CONTINUOUS
 10
6.599685669
 20
4.6655058076
 11
6.6001799331
 21
4.6653259102
  0
LINE
  5
398
100
AcDbEntity
  8
THREAD
100
AcDbLine
 62
7
  6
CONTINUOUS
 10
5.9505420755
 20
4.7746756806
 11
5.931685669
 21
4.7855624319
  0
LINE
  5
399
100
AcDbEntity
  8
03__ASM_ALL_CURVES
100
AcDbLine
 62
40
  6
CONTINUOUS
 10
6.7334952277
 20
3.4750292451
 11
6.7464239386
 21
3.4405526826
  0
LINE
  5
39A
100
AcDbEntity
  8
03__ASM_ALL_CURVES
100
AcDbLine
 62
40
  6
CONTINUOUS
 10
6.5805054892
 20
3.3865394013
 11
6.5848150595
 21
3.3693011201
  0
LINE
  5
39B
100
AcDbEntity
  8
03__ASM_ALL_CURVES
100
AcDbLine
 62
40
  6
CONTINUOUS
 10
6.1624770759
 20
5.1705571826
 11
6.1567309822
 21
5.1935415576
  0
LINE
  5
39C
100
AcDbEntity
  8
03__ASM_ALL_CURVES
100
AcDbLine
 62
40
  6
CONTINUOUS
 10
6.6386846808
 20
3.4577909638
 11
6.6343751105
 21
3.4750292451
  0
LINE
  5
39D
100
AcDbEntity
  8
03__ASM_ALL_CURVES
100
AcDbLine
 62
40
  6
CONTINUOUS
 10
6.2199380134
 20
5.2165259326
 11
6.2256841072
 21
5.1935415576
  0
LINE
  5
39E
100
AcDbEntity
  8
03__ASM_ALL_CURVES
100
AcDbLine
 62
40
  6
CONTINUOUS
 10
6.2544145759
 20
5.1705571826
 11
6.2486684822
 21
5.1935415576
  0
LINE
  5
39F
100
AcDbEntity
  8
03__ASM_ALL_CURVES
100
AcDbLine
 62
40
  6
CONTINUOUS
 10
6.4670200447
 20
5.2395103076
 11
6.4670200447
 21
5.1475728076
  0
LINE
  5
3A0
100
AcDbEntity
  8
0
100
AcDbLine
 62
7
  6
CONTINUOUS
 10
6.538185669
 20
3.8075058076
 11
6.538185669
 21
4.7115058076
  0
LINE
  5
3A1
100
AcDbEntity
  8
0
100
AcDbLine
 62
7
  6
CONTINUOUS
 10
6.554185669
 20
3.8235058076
 11
6.554185669
 21
4.6955058076
  0
LINE
  5
3A2
100
AcDbEntity
  8
03__ASM_ALL_CURVES
100
AcDbLine
 62
40
  6
CONTINUOUS
 10
6.5589575447
 20
5.2395103076
 11
6.5589575447
 21
5.1475728076
  0
LINE
  5
3A3
100
AcDbEntity
  8
03__ASM_ALL_CURVES
100
AcDbLine
 62
40
  6
CONTINUOUS
 10
6.5740411261
 20
3.4405526826
 11
6.5740411261
 21
3.5095058076
  0
LINE
  5
3A4
100
AcDbEntity
  8
0
100
AcDbLine
 62
7
  6
CONTINUOUS
 10
6.599685669
 20
4.6655058076
 11
6.599685669
 21
3.8535058076
  0
LINE
  5
3A5
100
AcDbEntity
  8
03__ASM_ALL_CURVES
100
AcDbLine
 62
40
  6
CONTINUOUS
 10
6.6085176886
 20
3.4980136187
 11
6.6085176886
 21
3.486521434
  0
LINE
  5
3A6
100
AcDbEntity
  8
03__ASM_ALL_CURVES
100
AcDbLine
 62
40
  6
CONTINUOUS
 10
6.6106724814
 20
3.3463167454
 11
6.6106724814
 21
3.4037776826
  0
LINE
  5
3A7
100
AcDbEntity
  8
03__ASM_ALL_CURVES
100
AcDbLine
 62
40
  6
CONTINUOUS
 10
6.7083559822
 20
5.1935415576
 11
6.7141020759
 21
5.2165259326
  0
LINE
  5
3A8
100
AcDbEntity
  8
03__ASM_ALL_CURVES
100
AcDbLine
 62
40
  6
CONTINUOUS
 10
7.4093794197
 20
5.1705571826
 11
7.3978872322
 21
5.1552342662
  0
LINE
  5
3A9
100
AcDbEntity
  8
THREAD
100
AcDbLine
 62
7
  6
CONTINUOUS
 10
6.454185669
 20
3.8075058076
 11
6.410185669
 21
3.7635058076
  0
LINE
  5
3AA
100
AcDbEntity
  8
03__ASM_ALL_CURVES
100
AcDbLine
 62
40
  6
CONTINUOUS
 10
5.8078658434
 20
3.486521434
 11
5.7992467027
 21
3.4807753375
  0
LINE
  5
3AB
100
AcDbEntity
  8
03__ASM_ALL_CURVES
100
AcDbLine
 62
40
  6
CONTINUOUS
 10
5.7130552965
 20
3.3980315902
 11
5.7216744371
 21
3.4037776826
  0
LINE
  5
3AC
100
AcDbEntity
  8
03__ASM_ALL_CURVES
100
AcDbLine
 62
40
  6
CONTINUOUS
 10
5.8078658434
 20
3.4462987765
 11
5.7992467027
 21
3.4405526826
  0
LINE
  5
3AD
100
AcDbEntity
  8
03__ASM_ALL_CURVES
100
AcDbLine
 62
40
  6
CONTINUOUS
 10
5.7389127184
 20
3.3405706515
 11
5.7302935777
 21
3.3348245576
  0
LINE
  5
3AE
100
AcDbEntity
  8
0
100
AcDbLine
 62
7
  6
CONTINUOUS
 10
6.599685669
 20
3.8535058076
 11
6.6001799331
 21
3.853685705
  0
LINE
  5
3AF
100
AcDbEntity
  8
03__ASM_ALL_CURVES
100
AcDbLine
 62
40
  6
CONTINUOUS
 10
5.818860669
 20
5.0924103076
 11
6.039510669
 21
5.1291853076
  0
LINE
  5
3B0
100
AcDbEntity
  8
03__ASM_ALL_CURVES
100
AcDbLine
 62
40
  6
CONTINUOUS
 10
5.818860669
 20
5.0954748909
 11
6.039510669
 21
5.1261207243
  0
LINE
  5
3B1
100
AcDbEntity
  8
03__ASM_ALL_CURVES
100
AcDbLine
 62
40
  6
CONTINUOUS
 10
5.818860669
 20
5.0985394743
 11
6.039510669
 21
5.1230561409
  0
LINE
  5
3B2
100
AcDbEntity
  8
03__ASM_ALL_CURVES
100
AcDbLine
 62
40
  6
CONTINUOUS
 10
5.818860669
 20
5.1016040576
 11
6.039510669
 21
5.1199915576
  0
LINE
  5
3B3
100
AcDbEntity
  8
03__ASM_ALL_CURVES
100
AcDbLine
 62
40
  6
CONTINUOUS
 10
3.736510669
 20
5.1077332243
 11
3.626185669
 21
5.1107978076
  0
LINE
  5
3B4
100
AcDbEntity
  8
03__ASM_ALL_CURVES
100
AcDbLine
 62
40
  6
CONTINUOUS
 10
3.736510669
 20
5.1046686409
 11
3.626185669
 21
5.1107978076
  0
LINE
  5
3B5
100
AcDbEntity
  8
THREAD
100
AcDbLine
 62
7
  6
CONTINUOUS
 10
6.454185669
 20
4.7115058076
 11
6.410185669
 21
4.7555058076
  0
LINE
  5
3B6
100
AcDbEntity
  8
03__ASM_ALL_CURVES
100
AcDbLine
 62
40
  6
CONTINUOUS
 10
6.6817803839
 20
3.4922675263
 11
6.6860899543
 21
3.4750292451
  0
LINE
  5
3B7
100
AcDbEntity
  8
03__ASM_ALL_CURVES
100
AcDbLine
 62
40
  6
CONTINUOUS
 10
6.6279106697
 20
5.1475728076
 11
6.6279106697
 21
5.2395103076
  0
LINE
  5
3B8
100
AcDbEntity
  8
03__ASM_ALL_CURVES
100
AcDbLine
 62
40
  6
CONTINUOUS
 10
6.6451490439
 20
3.4037776826
 11
6.6451490439
 21
3.3463167454
  0
LINE
  5
3B9
100
AcDbEntity
  8
03__ASM_ALL_CURVES
100
AcDbLine
 62
40
  6
CONTINUOUS
 10
6.6738794197
 20
5.1475728076
 11
6.6738794197
 21
5.2395103076
  0
LINE
  5
3BA
100
AcDbEntity
  8
0
100
AcDbLine
 62
7
  6
CONTINUOUS
 10
6.6871928248
 20
3.9970532133
 11
6.6871928248
 21
3.8973463087
  0
LINE
  5
3BB
100
AcDbEntity
  8
0
100
AcDbLine
 62
7
  6
CONTINUOUS
 10
6.6871928248
 20
4.159798903
 11
6.6871928248
 21
4.3592127122
  0
LINE
  5
3BC
100
AcDbEntity
  8
0
100
AcDbLine
 62
7
  6
CONTINUOUS
 10
6.6871928248
 20
4.5219584019
 11
6.6871928248
 21
4.6216653065
  0
LINE
  5
3BD
100
AcDbEntity
  8
03__ASM_ALL_CURVES
100
AcDbLine
 62
40
  6
CONTINUOUS
 10
6.6968638876
 20
3.4037776826
 11
6.6968638876
 21
3.3348245576
  0
LINE
  5
3BE
100
AcDbEntity
  8
03__ASM_ALL_CURVES
100
AcDbLine
 62
40
  6
CONTINUOUS
 10
6.7119473761
 20
3.4405526826
 11
6.7119473761
 21
3.5095058076
  0
LINE
  5
3BF
100
AcDbEntity
  8
03__ASM_ALL_CURVES
100
AcDbLine
 62
40
  6
CONTINUOUS
 10
6.7464239386
 20
3.4980136187
 11
6.7464239386
 21
3.486521434
  0
LINE
  5
3C0
100
AcDbEntity
  8
03__ASM_ALL_CURVES
100
AcDbLine
 62
40
  6
CONTINUOUS
 10
6.7485787314
 20
3.4037776826
 11
6.7485787314
 21
3.3348245576
  0
LINE
  5
3C1
100
AcDbEntity
  8
03__ASM_ALL_CURVES
100
AcDbLine
 62
40
  6
CONTINUOUS
 10
6.7658169197
 20
5.1935415576
 11
6.7658169197
 21
5.1628957247
  0
LINE
  5
3C2
100
AcDbEntity
  8
03__ASM_ALL_CURVES
100
AcDbLine
 62
40
  6
CONTINUOUS
 10
6.5331002158
 20
3.3693011201
 11
6.5374097861
 21
3.3865394013
  0
LINE
  5
3C3
100
AcDbEntity
  8
03__ASM_ALL_CURVES
100
AcDbLine
 62
40
  6
CONTINUOUS
 10
7.5932544197
 20
5.2088644761
 11
7.5875083259
 21
5.2012030141
  0
LINE
  5
3C4
100
AcDbEntity
  8
0
100
AcDbLine
 62
7
  6
CONTINUOUS
 10
6.554185669
 20
3.8235058076
 11
6.538185669
 21
3.8075058076
  0
LINE
  5
3C5
100
AcDbEntity
  8
03__ASM_ALL_CURVES
100
AcDbLine
 62
40
  6
CONTINUOUS
 10
5.818860669
 20
5.1046686409
 11
6.039510669
 21
5.1169269743
  0
LINE
  5
3C6
100
AcDbEntity
  8
03__ASM_ALL_CURVES
100
AcDbLine
 62
40
  6
CONTINUOUS
 10
3.736510669
 20
5.1169269743
 11
3.626185669
 21
5.1107978076
  0
LINE
  5
3C7
100
AcDbEntity
  8
03__ASM_ALL_CURVES
100
AcDbLine
 62
40
  6
CONTINUOUS
 10
5.818860669
 20
5.1077332243
 11
6.039510669
 21
5.1138623909
  0
LINE
  5
3C8
100
AcDbEntity
  8
03__ASM_ALL_CURVES
100
AcDbLine
 62
40
  6
CONTINUOUS
 10
3.736510669
 20
5.1138623909
 11
3.626185669
 21
5.1107978076
  0
LINE
  5
3C9
100
AcDbEntity
  8
03__ASM_ALL_CURVES
100
AcDbLine
 62
40
  6
CONTINUOUS
 10
3.626185669
 20
5.1107978076
 11
7.694385669
 21
5.1107978076
  0
LINE
  5
3CA
100
AcDbEntity
  8
03__ASM_ALL_CURVES
100
AcDbLine
 62
40
  6
CONTINUOUS
 10
7.5013169197
 20
5.1475728076
 11
7.4553481697
 21
5.1475728076
  0
LINE
  5
3CB
100
AcDbEntity
  8
03__ASM_ALL_CURVES
100
AcDbLine
 62
40
  6
CONTINUOUS
 10
7.3863950447
 20
5.1475728076
 11
7.3634106697
 21
5.1475728076
  0
LINE
  5
3CC
100
AcDbEntity
  8
03__ASM_ALL_CURVES
100
AcDbLine
 62
40
  6
CONTINUOUS
 10
7.2082661384
 20
5.1475728076
 11
7.1967739509
 21
5.1475728076
  0
LINE
  5
3CD
100
AcDbEntity
  8
03__ASM_ALL_CURVES
100
AcDbLine
 62
40
  6
CONTINUOUS
 10
7.1163286384
 20
5.1475728076
 11
7.1048364509
 21
5.1475728076
  0
LINE
  5
3CE
100
AcDbEntity
  8
03__ASM_ALL_CURVES
100
AcDbLine
 62
40
  6
CONTINUOUS
 10
6.9324536384
 20
5.1475728076
 11
6.9209614509
 21
5.1475728076
  0
LINE
  5
3CF
100
AcDbEntity
  8
03__ASM_ALL_CURVES
100
AcDbLine
 62
40
  6
CONTINUOUS
 10
6.7485786384
 20
5.1475728076
 11
6.7370864509
 21
5.1475728076
  0
LINE
  5
3D0
100
AcDbEntity
  8
03__ASM_ALL_CURVES
100
AcDbLine
 62
40
  6
CONTINUOUS
 10
6.2888911384
 20
5.1475728076
 11
6.2773989509
 21
5.1475728076
  0
LINE
  5
3D1
100
AcDbEntity
  8
03__ASM_ALL_CURVES
100
AcDbLine
 62
40
  6
CONTINUOUS
 10
6.1969536384
 20
5.1475728076
 11
6.1854614509
 21
5.1475728076
  0
LINE
  5
3D2
100
AcDbEntity
  8
03__ASM_ALL_CURVES
100
AcDbLine
 62
40
  6
CONTINUOUS
 10
4.915591919
 20
5.1475728076
 11
4.9098458253
 21
5.1475728076
  0
LINE
  5
3D3
100
AcDbEntity
  8
03__ASM_ALL_CURVES
100
AcDbLine
 62
40
  6
CONTINUOUS
 10
4.8294005128
 20
5.1475728076
 11
4.8179083253
 21
5.1475728076
  0
LINE
  5
3D4
100
AcDbEntity
  8
03__ASM_ALL_CURVES
100
AcDbLine
 62
40
  6
CONTINUOUS
 10
4.7374630128
 20
5.1475728076
 11
4.7259708253
 21
5.1475728076
  0
LINE
  5
3D5
100
AcDbEntity
  8
03__ASM_ALL_CURVES
100
AcDbLine
 62
40
  6
CONTINUOUS
 10
4.5535880128
 20
5.1475728076
 11
4.5420958253
 21
5.1475728076
  0
LINE
  5
3D6
100
AcDbEntity
  8
03__ASM_ALL_CURVES
100
AcDbLine
 62
40
  6
CONTINUOUS
 10
4.455904419
 20
5.1475728076
 11
4.4501583253
 21
5.1475728076
  0
LINE
  5
3D7
100
AcDbEntity
  8
03__ASM_ALL_CURVES
100
AcDbLine
 62
40
  6
CONTINUOUS
 10
4.340982544
 20
5.1475728076
 11
4.386951294
 21
5.1475728076
  0
LINE
  5
3D8
100
AcDbEntity
  8
03__ASM_ALL_CURVES
100
AcDbLine
 62
40
  6
CONTINUOUS
 10
6.0762856697
 20
5.1475728076
 11
6.1222544197
 21
5.1475728076
  0
LINE
  5
3D9
100
AcDbEntity
  8
03__ASM_ALL_CURVES
100
AcDbLine
 62
40
  6
CONTINUOUS
 10
7.2714731697
 20
5.1475728076
 11
7.3174419197
 21
5.1475728076
  0
LINE
  5
3DA
100
AcDbEntity
  8
03__ASM_ALL_CURVES
100
AcDbLine
 62
40
  6
CONTINUOUS
 10
4.984545044
 20
5.1705571826
 11
5.0362598878
 21
5.1705571826
  0
LINE
  5
3DB
100
AcDbEntity
  8
03__ASM_ALL_CURVES
100
AcDbLine
 62
40
  6
CONTINUOUS
 10
6.3578442634
 20
5.1782186418
 11
6.3923208259
 21
5.1782186418
  0
LINE
  5
3DC
100
AcDbEntity
  8
03__ASM_ALL_CURVES
100
AcDbLine
 62
40
  6
CONTINUOUS
 10
7.5760161384
 20
5.1935415576
 11
7.5472856697
 21
5.1935415576
  0
LINE
  5
3DD
100
AcDbEntity
  8
03__ASM_ALL_CURVES
100
AcDbLine
 62
40
  6
CONTINUOUS
 10
6.7428325447
 20
5.1935415576
 11
6.7658169197
 21
5.1935415576
  0
LINE
  5
3DE
100
AcDbEntity
  8
03__ASM_ALL_CURVES
100
AcDbLine
 62
40
  6
CONTINUOUS
 10
6.9956606697
 20
5.1935415576
 11
7.0416294197
 21
5.1935415576
  0
LINE
  5
3DF
100
AcDbEntity
  8
03__ASM_ALL_CURVES
100
AcDbLine
 62
40
  6
CONTINUOUS
 10
7.4553481697
 20
5.1935415576
 11
7.4840786384
 21
5.1935415576
  0
LINE
  5
3E0
100
AcDbEntity
  8
03__ASM_ALL_CURVES
100
AcDbLine
 62
40
  6
CONTINUOUS
 10
4.5420958253
 20
5.2012030141
 11
4.5535880128
 21
5.2012030141
  0
LINE
  5
3E1
100
AcDbEntity
  8
03__ASM_ALL_CURVES
100
AcDbLine
 62
40
  6
CONTINUOUS
 10
4.8179083253
 20
5.2012030141
 11
4.8294005128
 21
5.2012030141
  0
LINE
  5
3E2
100
AcDbEntity
  8
03__ASM_ALL_CURVES
100
AcDbLine
 62
40
  6
CONTINUOUS
 10
4.7259708253
 20
5.2088644761
 11
4.7374630128
 21
5.2088644761
  0
LINE
  5
3E3
100
AcDbEntity
  8
03__ASM_ALL_CURVES
100
AcDbLine
 62
40
  6
CONTINUOUS
 10
6.9324536384
 20
5.2395103076
 11
6.9209614509
 21
5.2395103076
  0
LINE
  5
3E4
100
AcDbEntity
  8
03__ASM_ALL_CURVES
100
AcDbLine
 62
40
  6
CONTINUOUS
 10
4.754701294
 20
5.2395103076
 11
4.7202247315
 21
5.2395103076
  0
LINE
  5
3E5
100
AcDbEntity
  8
03__ASM_ALL_CURVES
100
AcDbLine
 62
40
  6
CONTINUOUS
 10
4.3582208253
 20
5.2395103076
 11
4.3697130128
 21
5.2395103076
  0
LINE
  5
3E6
100
AcDbEntity
  8
03__ASM_ALL_CURVES
100
AcDbLine
 62
40
  6
CONTINUOUS
 10
4.5420958253
 20
5.2395103076
 11
4.5535880128
 21
5.2395103076
  0
LINE
  5
3E7
100
AcDbEntity
  8
03__ASM_ALL_CURVES
100
AcDbLine
 62
40
  6
CONTINUOUS
 10
4.8179083253
 20
5.2395103076
 11
4.8294005128
 21
5.2395103076
  0
LINE
  5
3E8
100
AcDbEntity
  8
03__ASM_ALL_CURVES
100
AcDbLine
 62
40
  6
CONTINUOUS
 10
6.1854614509
 20
5.2395103076
 11
6.1969536384
 21
5.2395103076
  0
LINE
  5
3E9
100
AcDbEntity
  8
03__ASM_ALL_CURVES
100
AcDbLine
 62
40
  6
CONTINUOUS
 10
6.2773989509
 20
5.2395103076
 11
6.2888911384
 21
5.2395103076
  0
LINE
  5
3EA
100
AcDbEntity
  8
03__ASM_ALL_CURVES
100
AcDbLine
 62
40
  6
CONTINUOUS
 10
6.4382895759
 20
5.2395103076
 11
6.4957505134
 21
5.2395103076
  0
LINE
  5
3EB
100
AcDbEntity
  8
03__ASM_ALL_CURVES
100
AcDbLine
 62
40
  6
CONTINUOUS
 10
6.7370864509
 20
5.2395103076
 11
6.7485786384
 21
5.2395103076
  0
LINE
  5
3EC
100
AcDbEntity
  8
03__ASM_ALL_CURVES
100
AcDbLine
 62
40
  6
CONTINUOUS
 10
7.1048364509
 20
5.2395103076
 11
7.1163286384
 21
5.2395103076
  0
LINE
  5
3ED
100
AcDbEntity
  8
03__ASM_ALL_CURVES
100
AcDbLine
 62
40
  6
CONTINUOUS
 10
7.3634106697
 20
5.2395103076
 11
7.3863950447
 21
5.2395103076
  0
LINE
  5
3EE
100
AcDbEntity
  8
03__ASM_ALL_CURVES
100
AcDbLine
 62
40
  6
CONTINUOUS
 10
7.4553481697
 20
5.2395103076
 11
7.5013169197
 21
5.2395103076
  0
LINE
  5
3EF
100
AcDbEntity
  8
03__ASM_ALL_CURVES
100
AcDbLine
 62
40
  6
CONTINUOUS
 10
7.5472856697
 20
5.2395103076
 11
7.5760161384
 21
5.2395103076
  0
LINE
  5
3F0
100
AcDbEntity
  8
03__ASM_ALL_CURVES
100
AcDbLine
 62
40
  6
CONTINUOUS
 10
5.818860669
 20
5.1138623909
 11
6.039510669
 21
5.1077332243
  0
LINE
  5
3F1
100
AcDbEntity
  8
03__ASM_ALL_CURVES
100
AcDbLine
 62
40
  6
CONTINUOUS
 10
5.818860669
 20
5.1169269743
 11
6.039510669
 21
5.1046686409
  0
LINE
  5
3F2
100
AcDbEntity
  8
03__ASM_ALL_CURVES
100
AcDbLine
 62
40
  6
CONTINUOUS
 10
5.818860669
 20
5.1199915576
 11
6.039510669
 21
5.1016040576
  0
LINE
  5
3F3
100
AcDbEntity
  8
03__ASM_ALL_CURVES
100
AcDbLine
 62
40
  6
CONTINUOUS
 10
5.818860669
 20
5.1230561409
 11
6.039510669
 21
5.0985394743
  0
LINE
  5
3F4
100
AcDbEntity
  8
03__ASM_ALL_CURVES
100
AcDbLine
 62
40
  6
CONTINUOUS
 10
5.818860669
 20
5.1261207243
 11
6.039510669
 21
5.0954748909
  0
LINE
  5
3F5
100
AcDbEntity
  8
03__ASM_ALL_CURVES
100
AcDbLine
 62
40
  6
CONTINUOUS
 10
6.039510669
 20
5.0924103076
 11
5.818860669
 21
5.1291853076
  0
LINE
  5
3F6
100
AcDbEntity
  8
03__ASM_ALL_CURVES
100
AcDbLine
 62
40
  6
CONTINUOUS
 10
6.1854614509
 20
5.1475728076
 11
6.1739692634
 21
5.1552342662
  0
LINE
  5
3F7
100
AcDbEntity
  8
0
100
AcDbLine
 62
7
  6
CONTINUOUS
 10
6.554185669
 20
4.6955058076
 11
6.538185669
 21
4.7115058076
  0
LINE
  5
3F8
100
AcDbEntity
  8
03__ASM_ALL_CURVES
100
AcDbLine
 62
40
  6
CONTINUOUS
 10
6.1739692634
 20
5.1552342662
 11
6.1624770759
 21
5.1705571826
  0
LINE
  5
3F9
100
AcDbEntity
  8
03__ASM_ALL_CURVES
100
AcDbLine
 62
40
  6
CONTINUOUS
 10
6.2659067634
 20
5.1552342662
 11
6.2544145759
 21
5.1705571826
  0
LINE
  5
3FA
100
AcDbEntity
  8
03__ASM_ALL_CURVES
100
AcDbLine
 62
40
  6
CONTINUOUS
 10
6.2084458259
 20
5.2318488511
 11
6.2199380134
 21
5.2165259326
  0
LINE
  5
3FB
100
AcDbEntity
  8
03__ASM_ALL_CURVES
100
AcDbLine
 62
40
  6
CONTINUOUS
 10
6.3003833259
 20
5.2318488511
 11
6.3061294197
 21
5.2241873891
  0
LINE
  5
3FC
100
AcDbEntity
  8
03__ASM_ALL_CURVES
100
AcDbLine
 62
40
  6
CONTINUOUS
 10
6.3750825447
 20
5.2395103076
 11
6.4038130134
 21
5.1475728076
  0
LINE
  5
3FD
100
AcDbEntity
  8
03__ASM_ALL_CURVES
100
AcDbLine
 62
40
  6
CONTINUOUS
 10
6.7981387824
 20
3.5095058076
 11
6.7981387824
 21
3.4405526826
  0
LINE
  5
3FE
100
AcDbEntity
  8
03__ASM_ALL_CURVES
100
AcDbLine
 62
40
  6
CONTINUOUS
 10
6.8175318564
 20
3.3348245576
 11
6.8175318564
 21
3.4037776826
  0
LINE
  5
3FF
100
AcDbEntity
  8
03__ASM_ALL_CURVES
100
AcDbLine
 62
40
  6
CONTINUOUS
 10
6.8843301886
 20
3.4980136187
 11
6.8843301886
 21
3.486521434
  0
LINE
  5
400
100
AcDbEntity
  8
03__ASM_ALL_CURVES
100
AcDbLine
 62
40
  6
CONTINUOUS
 10
6.9037231697
 20
5.2241873891
 11
6.9037231697
 21
5.2165259326
  0
LINE
  5
401
100
AcDbEntity
  8
03__ASM_ALL_CURVES
100
AcDbLine
 62
40
  6
CONTINUOUS
 10
6.9037232626
 20
3.4037776826
 11
6.9037232626
 21
3.3348245576
  0
LINE
  5
402
100
AcDbEntity
  8
03__ASM_ALL_CURVES
100
AcDbLine
 62
40
  6
CONTINUOUS
 10
6.5848150595
 20
3.3693011201
 11
6.5805054892
 21
3.3520628388
  0
LINE
  5
403
100
AcDbEntity
  8
03__ASM_ALL_CURVES
100
AcDbLine
 62
40
  6
CONTINUOUS
 10
6.6343751105
 20
3.4750292451
 11
6.6386846808
 21
3.4922675263
  0
LINE
  5
404
100
AcDbEntity
  8
03__ASM_ALL_CURVES
100
AcDbLine
 62
40
  6
CONTINUOUS
 10
7.0761059822
 20
5.1935415576
 11
7.0818520759
 21
5.2165259326
  0
LINE
  5
405
100
AcDbEntity
  8
03__ASM_ALL_CURVES
100
AcDbLine
 62
40
  6
CONTINUOUS
 10
6.6860899543
 20
3.4750292451
 11
6.6817803839
 21
3.4577909638
  0
LINE
  5
406
100
AcDbEntity
  8
03__ASM_ALL_CURVES
100
AcDbLine
 62
40
  6
CONTINUOUS
 10
7.1450591072
 20
5.1935415576
 11
7.1393130134
 21
5.1705571826
  0
LINE
  5
407
100
AcDbEntity
  8
03__ASM_ALL_CURVES
100
AcDbLine
 62
40
  6
CONTINUOUS
 10
6.6085176886
 20
3.486521434
 11
6.6042081183
 21
3.4807753375
  0
LINE
  5
408
100
AcDbEntity
  8
03__ASM_ALL_CURVES
100
AcDbLine
 62
40
  6
CONTINUOUS
 10
6.5374097861
 20
3.3865394013
 11
6.5460289267
 21
3.3980315902
  0
LINE
  5
409
100
AcDbEntity
  8
03__ASM_ALL_CURVES
100
AcDbLine
 62
40
  6
CONTINUOUS
 10
7.7093526608
 20
4.3181159625
 11
7.7007335201
 21
4.3123698701
  0
LINE
  5
40A
100
AcDbEntity
  8
03__ASM_ALL_CURVES
100
AcDbLine
 62
40
  6
CONTINUOUS
 10
7.7524483639
 20
4.3411003402
 11
7.7610675045
 21
4.3468464326
  0
LINE
  5
40B
100
AcDbEntity
  8
03__ASM_ALL_CURVES
100
AcDbLine
 62
40
  6
CONTINUOUS
 10
7.7783057858
 20
4.2836394015
 11
7.7696866451
 21
4.2778933076
  0
LINE
  5
40C
100
AcDbEntity
  8
03__ASM_ALL_CURVES
100
AcDbLine
 62
40
  6
CONTINUOUS
 10
7.8472589108
 20
4.3181159625
 11
7.8386397701
 21
4.3123698701
  0
LINE
  5
40D
100
AcDbEntity
  8
03__ASM_ALL_CURVES
100
AcDbLine
 62
40
  6
CONTINUOUS
 10
6.6042081183
 20
3.4807753375
 11
6.5955889777
 21
3.4750292451
  0
LINE
  5
40E
100
AcDbEntity
  8
03__ASM_ALL_CURVES
100
AcDbLine
 62
40
  6
CONTINUOUS
 10
6.6473038214
 20
3.5037597152
 11
6.6559229621
 21
3.5095058076
  0
LINE
  5
40F
100
AcDbEntity
  8
03__ASM_ALL_CURVES
100
AcDbLine
 62
40
  6
CONTINUOUS
 10
3.736510669
 20
5.1261207243
 11
3.626185669
 21
5.1107978076
  0
LINE
  5
410
100
AcDbEntity
  8
03__ASM_ALL_CURVES
100
AcDbLine
 62
40
  6
CONTINUOUS
 10
3.736510669
 20
5.1230561409
 11
3.626185669
 21
5.1107978076
  0
LINE
  5
411
100
AcDbEntity
  8
03__ASM_ALL_CURVES
100
AcDbLine
 62
40
  6
CONTINUOUS
 10
3.736510669
 20
5.1199915576
 11
3.626185669
 21
5.1107978076
  0
LINE
  5
412
100
AcDbEntity
  8
03__ASM_ALL_CURVES
100
AcDbLine
 62
40
  6
CONTINUOUS
 10
6.2773989509
 20
5.1475728076
 11
6.2659067634
 21
5.1552342662
  0
LINE
  5
413
100
AcDbEntity
  8
03__ASM_ALL_CURVES
100
AcDbLine
 62
40
  6
CONTINUOUS
 10
6.1969536384
 20
5.2395103076
 11
6.2084458259
 21
5.2318488511
  0
LINE
  5
414
100
AcDbEntity
  8
03__ASM_ALL_CURVES
100
AcDbLine
 62
40
  6
CONTINUOUS
 10
6.2888911384
 20
5.2395103076
 11
6.3003833259
 21
5.2318488511
  0
LINE
  5
415
100
AcDbEntity
  8
03__ASM_ALL_CURVES
100
AcDbLine
 62
40
  6
CONTINUOUS
 10
7.7610675045
 20
4.2778933076
 11
7.7524483639
 21
4.2836394015
  0
LINE
  5
416
100
AcDbEntity
  8
03__ASM_ALL_CURVES
100
AcDbLine
 62
40
  6
CONTINUOUS
 10
7.7007335201
 20
4.3468464326
 11
7.7093526608
 21
4.3411003402
  0
LINE
  5
417
100
AcDbEntity
  8
03__ASM_ALL_CURVES
100
AcDbLine
 62
40
  6
CONTINUOUS
 10
6.7141020759
 20
5.1705571826
 11
6.7083559822
 21
5.1935415576
  0
LINE
  5
418
100
AcDbEntity
  8
03__ASM_ALL_CURVES
100
AcDbLine
 62
40
  6
CONTINUOUS
 10
6.9496919197
 20
5.1782186418
 11
6.9496919197
 21
5.1628957247
  0
LINE
  5
419
100
AcDbEntity
  8
0
100
AcDbLine
 62
7
  6
CONTINUOUS
 10
6.976685669
 20
3.8853558076
 11
6.976685669
 21
4.6336558076
  0
LINE
  5
41A
100
AcDbEntity
  8
0
100
AcDbLine
 62
7
  6
CONTINUOUS
 10
6.992685669
 20
3.8230058076
 11
6.992685669
 21
4.6960058076
  0
LINE
  5
41B
100
AcDbEntity
  8
03__ASM_ALL_CURVES
100
AcDbLine
 62
40
  6
CONTINUOUS
 10
6.9956606697
 20
5.2395103076
 11
6.9956606697
 21
5.1475728076
  0
LINE
  5
41C
100
AcDbEntity
  8
03__ASM_ALL_CURVES
100
AcDbLine
 62
40
  6
CONTINUOUS
 10
7.0416294197
 20
5.2395103076
 11
7.0416294197
 21
5.1475728076
  0
LINE
  5
41D
100
AcDbEntity
  8
0
100
AcDbLine
 62
7
  6
CONTINUOUS
 10
7.048685669
 20
3.8230058076
 11
7.048685669
 21
4.6960058076
  0
LINE
  5
41E
100
AcDbEntity
  8
03__ASM_ALL_CURVES
100
AcDbLine
 62
40
  6
CONTINUOUS
 10
6.8541631964
 20
3.4577909638
 11
6.8498536261
 21
3.4405526826
  0
LINE
  5
41F
100
AcDbEntity
  8
03__ASM_ALL_CURVES
100
AcDbLine
 62
40
  6
CONTINUOUS
 10
6.6386846808
 20
3.4922675263
 11
6.6473038214
 21
3.5037597152
  0
LINE
  5
420
100
AcDbEntity
  8
03__ASM_ALL_CURVES
100
AcDbLine
 62
40
  6
CONTINUOUS
 10
6.5805054892
 20
3.3520628388
 11
6.5718863486
 21
3.3405706515
  0
LINE
  5
421
100
AcDbEntity
  8
03__ASM_ALL_CURVES
100
AcDbLine
 62
40
  6
CONTINUOUS
 10
6.6817803839
 20
3.4577909638
 11
6.6731612433
 21
3.4462987765
  0
LINE
  5
422
100
AcDbEntity
  8
03__ASM_ALL_CURVES
100
AcDbLine
 62
40
  6
CONTINUOUS
 10
6.7464239386
 20
3.486521434
 11
6.7421143683
 21
3.4807753375
  0
LINE
  5
423
100
AcDbEntity
  8
03__ASM_ALL_CURVES
100
AcDbLine
 62
40
  6
CONTINUOUS
 10
6.6451490439
 20
3.3463167454
 11
6.6408394736
 21
3.3405706515
  0
LINE
  5
424
100
AcDbEntity
  8
03__ASM_ALL_CURVES
100
AcDbLine
 62
40
  6
CONTINUOUS
 10
6.5460289267
 20
3.3980315902
 11
6.5546480673
 21
3.4037776826
  0
LINE
  5
425
100
AcDbEntity
  8
03__ASM_ALL_CURVES
100
AcDbLine
 62
40
  6
CONTINUOUS
 10
6.6731612433
 20
3.4462987765
 11
6.6645421027
 21
3.4405526826
  0
LINE
  5
426
100
AcDbEntity
  8
03__ASM_ALL_CURVES
100
AcDbLine
 62
40
  6
CONTINUOUS
 10
6.7421143683
 20
3.4807753375
 11
6.7334952277
 21
3.4750292451
  0
LINE
  5
427
100
AcDbEntity
  8
03__ASM_ALL_CURVES
100
AcDbLine
 62
40
  6
CONTINUOUS
 10
6.5718863486
 20
3.3405706515
 11
6.5632672079
 21
3.3348245576
  0
LINE
  5
428
100
AcDbEntity
  8
03__ASM_ALL_CURVES
100
AcDbLine
 62
40
  6
CONTINUOUS
 10
6.8541631964
 20
3.5037597152
 11
6.8627823371
 21
3.5095058076
  0
LINE
  5
429
100
AcDbEntity
  8
03__ASM_ALL_CURVES
100
AcDbLine
 62
40
  6
CONTINUOUS
 10
6.6408394736
 20
3.3405706515
 11
6.6322203329
 21
3.3348245576
  0
LINE
  5
42A
100
AcDbEntity
  8
03__ASM_ALL_CURVES
100
AcDbLine
 62
40
  6
CONTINUOUS
 10
6.8800206183
 20
3.4807753375
 11
6.8627823371
 21
3.4692831507
  0
LINE
  5
42B
100
AcDbEntity
  8
03__ASM_ALL_CURVES
100
AcDbLine
 62
40
  6
CONTINUOUS
 10
3.626185669
 20
5.1107978076
 11
3.736510669
 21
5.1291853076
  0
LINE
  5
42C
100
AcDbEntity
  8
03__ASM_ALL_CURVES
100
AcDbLine
 62
40
  6
CONTINUOUS
 10
7.7696866451
 20
4.3468464326
 11
7.7783057858
 21
4.3411003402
  0
LINE
  5
42D
100
AcDbEntity
  8
03__ASM_ALL_CURVES
100
AcDbLine
 62
40
  6
CONTINUOUS
 10
7.8386397701
 20
4.3468464326
 11
7.8472589108
 21
4.3411003402
  0
LINE
  5
42E
100
AcDbEntity
  8
03__ASM_ALL_CURVES
100
AcDbLine
 62
40
  6
CONTINUOUS
 10
6.7370864509
 20
5.1475728076
 11
6.7255942634
 21
5.1552342662
  0
LINE
  5
42F
100
AcDbEntity
  8
03__ASM_ALL_CURVES
100
AcDbLine
 62
40
  6
CONTINUOUS
 10
6.7255942634
 20
5.1552342662
 11
6.7141020759
 21
5.1705571826
  0
LINE
  5
430
100
AcDbEntity
  8
03__ASM_ALL_CURVES
100
AcDbLine
 62
40
  6
CONTINUOUS
 10
6.6279106697
 20
5.2395103076
 11
6.6738794197
 21
5.1475728076
  0
LINE
  5
431
100
AcDbEntity
  8
0
100
AcDbLine
 62
7
  6
CONTINUOUS
 10
7.098685669
 20
3.8235064705
 11
7.098685669
 21
4.6955051447
  0
LINE
  5
432
100
AcDbEntity
  8
0
100
AcDbLine
 62
7
  6
CONTINUOUS
 10
7.168685669
 20
3.8235064705
 11
7.168685669
 21
4.6955051447
  0
LINE
  5
433
100
AcDbEntity
  8
03__ASM_ALL_CURVES
100
AcDbLine
 62
40
  6
CONTINUOUS
 10
7.1795356697
 20
5.1628957247
 11
7.1795356697
 21
5.2395103076
  0
LINE
  5
434
100
AcDbEntity
  8
0
100
AcDbLine
 62
7
  6
CONTINUOUS
 10
7.218685669
 20
3.8235064705
 11
7.218685669
 21
4.6955051447
  0
LINE
  5
435
100
AcDbEntity
  8
03__ASM_ALL_CURVES
100
AcDbLine
 62
40
  6
CONTINUOUS
 10
7.2255044197
 20
5.2395103076
 11
7.2255044197
 21
5.1628957247
  0
LINE
  5
436
100
AcDbEntity
  8
0
100
AcDbLine
 62
7
  6
CONTINUOUS
 10
7.246685669
 20
3.8230058076
 11
7.246685669
 21
4.6960058076
  0
LINE
  5
437
100
AcDbEntity
  8
03__ASM_ALL_CURVES
100
AcDbLine
 62
40
  6
CONTINUOUS
 10
7.4151255134
 20
5.1935415576
 11
7.4093794197
 21
5.1705571826
  0
LINE
  5
438
100
AcDbEntity
  8
03__ASM_ALL_CURVES
100
AcDbLine
 62
40
  6
CONTINUOUS
 10
6.8498536261
 20
3.4980136187
 11
6.8541631964
 21
3.5037597152
  0
LINE
  5
439
100
AcDbEntity
  8
03__ASM_ALL_CURVES
100
AcDbLine
 62
40
  6
CONTINUOUS
 10
6.8627823371
 20
3.4692831507
 11
6.8541631964
 21
3.4577909638
  0
LINE
  5
43A
100
AcDbEntity
  8
03__ASM_ALL_CURVES
100
AcDbLine
 62
40
  6
CONTINUOUS
 10
6.8843301886
 20
3.486521434
 11
6.8800206183
 21
3.4807753375
  0
LINE
  5
43B
100
AcDbEntity
  8
0
100
AcDbLine
 62
7
  6
CONTINUOUS
 10
7.303685669
 20
3.8390058076
 11
7.287685669
 21
3.8230058076
  0
LINE
  5
43C
100
AcDbEntity
  8
03__ASM_ALL_CURVES
100
AcDbLine
 62
40
  6
CONTINUOUS
 10
6.7485786384
 20
5.2395103076
 11
6.7600708259
 21
5.2318488511
  0
LINE
  5
43D
100
AcDbEntity
  8
03__ASM_ALL_CURVES
100
AcDbLine
 62
40
  6
CONTINUOUS
 10
6.9209614509
 20
5.1475728076
 11
6.9094692634
 21
5.1552342662
  0
LINE
  5
43E
100
AcDbEntity
  8
03__ASM_ALL_CURVES
100
AcDbLine
 62
40
  6
CONTINUOUS
 10
6.9094692634
 20
5.2088644761
 11
6.9439458259
 21
5.1858800983
  0
LINE
  5
43F
100
AcDbEntity
  8
03__ASM_ALL_CURVES
100
AcDbLine
 62
40
  6
CONTINUOUS
 10
6.9439458259
 20
5.2318488511
 11
6.9324536384
 21
5.2395103076
  0
LINE
  5
440
100
AcDbEntity
  8
03__ASM_ALL_CURVES
100
AcDbLine
 62
40
  6
CONTINUOUS
 10
7.1048364509
 20
5.1475728076
 11
7.0933442634
 21
5.1552342662
  0
LINE
  5
441
100
AcDbEntity
  8
0
100
AcDbLine
 62
7
  6
CONTINUOUS
 10
7.303685669
 20
4.6800058076
 11
7.287685669
 21
4.6960058076
  0
LINE
  5
442
100
AcDbEntity
  8
03__ASM_ALL_CURVES
100
AcDbLine
 62
40
  6
CONTINUOUS
 10
6.7600708259
 20
5.2318488511
 11
6.7658169197
 21
5.2241873891
  0
LINE
  5
443
100
AcDbEntity
  8
03__ASM_ALL_CURVES
100
AcDbLine
 62
40
  6
CONTINUOUS
 10
6.9094692634
 20
5.1552342662
 11
6.8979770759
 21
5.1705571826
  0
LINE
  5
444
100
AcDbEntity
  8
03__ASM_ALL_CURVES
100
AcDbLine
 62
40
  6
CONTINUOUS
 10
6.9037231697
 20
5.2165259326
 11
6.9094692634
 21
5.2088644761
  0
LINE
  5
445
100
AcDbEntity
  8
03__ASM_ALL_CURVES
100
AcDbLine
 62
40
  6
CONTINUOUS
 10
7.2714731697
 20
5.2395103076
 11
7.2714731697
 21
5.1475728076
  0
LINE
  5
446
100
AcDbEntity
  8
0
100
AcDbLine
 62
7
  6
CONTINUOUS
 10
7.287685669
 20
3.8230058076
 11
7.287685669
 21
4.6960058076
  0
LINE
  5
447
100
AcDbEntity
  8
0
100
AcDbLine
 62
7
  6
CONTINUOUS
 10
7.303685669
 20
3.8390058076
 11
7.303685669
 21
4.6800058076
  0
LINE
  5
448
100
AcDbEntity
  8
03__ASM_ALL_CURVES
100
AcDbLine
 62
40
  6
CONTINUOUS
 10
7.3634106697
 20
5.1475728076
 11
7.3634106697
 21
5.2395103076
  0
LINE
  5
449
100
AcDbEntity
  8
03__ASM_ALL_CURVES
100
AcDbLine
 62
40
  6
CONTINUOUS
 10
7.7136622311
 20
4.323862059
 11
7.7093526608
 21
4.3181159625
  0
LINE
  5
44A
100
AcDbEntity
  8
03__ASM_ALL_CURVES
100
AcDbLine
 62
40
  6
CONTINUOUS
 10
7.7438292233
 20
4.3296081513
 11
7.7524483639
 21
4.3411003402
  0
LINE
  5
44B
100
AcDbEntity
  8
03__ASM_ALL_CURVES
100
AcDbLine
 62
40
  6
CONTINUOUS
 10
7.7869249264
 20
4.2951315888
 11
7.7783057858
 21
4.2836394015
  0
LINE
  5
44C
100
AcDbEntity
  8
03__ASM_ALL_CURVES
100
AcDbLine
 62
40
  6
CONTINUOUS
 10
7.1967739509
 20
5.1475728076
 11
7.1852817634
 21
5.1552342662
  0
LINE
  5
44D
100
AcDbEntity
  8
03__ASM_ALL_CURVES
100
AcDbLine
 62
40
  6
CONTINUOUS
 10
7.1163286384
 20
5.2395103076
 11
7.1278208259
 21
5.2318488511
  0
LINE
  5
44E
100
AcDbEntity
  8
03__ASM_ALL_CURVES
100
AcDbLine
 62
40
  6
CONTINUOUS
 10
6.9439458259
 20
5.1858800983
 11
6.9496919197
 21
5.1782186418
  0
LINE
  5
44F
100
AcDbEntity
  8
03__ASM_ALL_CURVES
100
AcDbLine
 62
40
  6
CONTINUOUS
 10
6.9496919197
 20
5.2241873891
 11
6.9439458259
 21
5.2318488511
  0
LINE
  5
450
100
AcDbEntity
  8
03__ASM_ALL_CURVES
100
AcDbLine
 62
40
  6
CONTINUOUS
 10
7.0933442634
 20
5.1552342662
 11
7.0818520759
 21
5.1705571826
  0
LINE
  5
451
100
AcDbEntity
  8
03__ASM_ALL_CURVES
100
AcDbLine
 62
40
  6
CONTINUOUS
 10
7.7524483639
 20
4.2836394015
 11
7.7438292233
 21
4.2951315888
  0
LINE
  5
452
100
AcDbEntity
  8
03__ASM_ALL_CURVES
100
AcDbLine
 62
40
  6
CONTINUOUS
 10
7.7093526608
 20
4.3411003402
 11
7.7136622311
 21
4.3353542437
  0
LINE
  5
453
100
AcDbEntity
  8
03__ASM_ALL_CURVES
100
AcDbLine
 62
40
  6
CONTINUOUS
 10
7.0818520759
 20
5.1705571826
 11
7.0761059822
 21
5.1935415576
  0
LINE
  5
454
100
AcDbEntity
  8
03__ASM_ALL_CURVES
100
AcDbLine
 62
40
  6
CONTINUOUS
 10
7.1393130134
 20
5.2165259326
 11
7.1450591072
 21
5.1935415576
  0
LINE
  5
455
100
AcDbEntity
  8
03__ASM_ALL_CURVES
100
AcDbLine
 62
40
  6
CONTINUOUS
 10
7.4553481697
 20
5.1475728076
 11
7.4553481697
 21
5.2395103076
  0
LINE
  5
456
100
AcDbEntity
  8
03__ASM_ALL_CURVES
100
AcDbLine
 62
40
  6
CONTINUOUS
 10
7.5472856697
 20
5.1475728076
 11
7.5472856697
 21
5.2395103076
  0
LINE
  5
457
100
AcDbEntity
  8
03__ASM_ALL_CURVES
100
AcDbLine
 62
40
  6
CONTINUOUS
 10
7.8515684811
 20
4.323862059
 11
7.8472589108
 21
4.3181159625
  0
LINE
  5
458
100
AcDbEntity
  8
03__ASM_ALL_CURVES
100
AcDbLine
 62
40
  6
CONTINUOUS
 10
7.3863950447
 20
5.2395103076
 11
7.3978872322
 21
5.2318488511
  0
LINE
  5
459
100
AcDbEntity
  8
03__ASM_ALL_CURVES
100
AcDbLine
 62
40
  6
CONTINUOUS
 10
7.7783057858
 20
4.3411003402
 11
7.7869249264
 21
4.3296081513
  0
LINE
  5
45A
100
AcDbEntity
  8
03__ASM_ALL_CURVES
100
AcDbLine
 62
40
  6
CONTINUOUS
 10
7.1278208259
 20
5.2318488511
 11
7.1393130134
 21
5.2165259326
  0
LINE
  5
45B
100
AcDbEntity
  8
03__ASM_ALL_CURVES
100
AcDbLine
 62
40
  6
CONTINUOUS
 10
7.1852817634
 20
5.1552342662
 11
7.1795356697
 21
5.1628957247
  0
LINE
  5
45C
100
AcDbEntity
  8
03__ASM_ALL_CURVES
100
AcDbLine
 62
40
  6
CONTINUOUS
 10
7.8472589108
 20
4.3411003402
 11
7.8515684811
 21
4.3353542437
  0
LINE
  5
45D
100
AcDbEntity
  8
03__ASM_ALL_CURVES
100
AcDbLine
 62
40
  6
CONTINUOUS
 10
7.7309005119
 20
4.2411183076
 11
7.7653770744
 21
4.1721651826
  0
LINE
  5
45E
100
AcDbEntity
  8
03__ASM_ALL_CURVES
100
AcDbLine
 62
40
  6
CONTINUOUS
 10
7.5932544197
 20
5.2241873891
 11
7.5932544197
 21
5.2088644761
  0
LINE
  5
45F
100
AcDbEntity
  8
03__ASM_ALL_CURVES
100
AcDbLine
 62
40
  6
CONTINUOUS
 10
7.6791856682
 20
4.2411183076
 11
7.6791856682
 21
4.1721651826
  0
LINE
  5
460
100
AcDbEntity
  8
03__ASM_ALL_CURVES
100
AcDbLine
 62
40
  6
CONTINUOUS
 10
7.6791856686
 20
4.2778933076
 11
7.6791856686
 21
4.3468464326
  0
LINE
  5
461
100
AcDbEntity
  8
03__ASM_ALL_CURVES
100
AcDbLine
 62
40
  6
CONTINUOUS
 10
7.7136622311
 20
4.3353542437
 11
7.7136622311
 21
4.323862059
  0
LINE
  5
462
100
AcDbEntity
  8
03__ASM_ALL_CURVES
100
AcDbLine
 62
40
  6
CONTINUOUS
 10
7.739519653
 20
4.3123698701
 11
7.7438292233
 21
4.3296081513
  0
LINE
  5
463
100
AcDbEntity
  8
03__ASM_ALL_CURVES
100
AcDbLine
 62
40
  6
CONTINUOUS
 10
7.5760161384
 20
5.2395103076
 11
7.5875083259
 21
5.2318488511
  0
LINE
  5
464
100
AcDbEntity
  8
03__ASM_ALL_CURVES
100
AcDbLine
 62
40
  6
CONTINUOUS
 10
7.3978872322
 20
5.2318488511
 11
7.4093794197
 21
5.2165259326
  0
LINE
  5
465
100
AcDbEntity
  8
03__ASM_ALL_CURVES
100
AcDbLine
 62
40
  6
CONTINUOUS
 10
7.8386397701
 20
4.3123698701
 11
7.8515684811
 21
4.2778933076
  0
LINE
  5
466
100
AcDbEntity
  8
03__ASM_ALL_CURVES
100
AcDbLine
 62
40
  6
CONTINUOUS
 10
7.4093794197
 20
5.2165259326
 11
7.4151255134
 21
5.1935415576
  0
LINE
  5
467
100
AcDbEntity
  8
03__ASM_ALL_CURVES
100
AcDbLine
 62
40
  6
CONTINUOUS
 10
7.7438292233
 20
4.2951315888
 11
7.739519653
 21
4.3123698701
  0
LINE
  5
468
100
AcDbEntity
  8
03__ASM_ALL_CURVES
100
AcDbLine
 62
40
  6
CONTINUOUS
 10
7.7309005119
 20
4.1721651826
 11
7.7309005119
 21
4.2411183076
  0
LINE
  5
469
100
AcDbEntity
  8
03__ASM_ALL_CURVES
100
AcDbLine
 62
40
  6
CONTINUOUS
 10
7.7653770744
 20
4.1721651826
 11
7.7653770744
 21
4.2411183076
  0
LINE
  5
46A
100
AcDbEntity
  8
03__ASM_ALL_CURVES
100
AcDbLine
 62
40
  6
CONTINUOUS
 10
7.7998536369
 20
4.2411183076
 11
7.7998536369
 21
4.1721651826
  0
LINE
  5
46B
100
AcDbEntity
  8
03__ASM_ALL_CURVES
100
AcDbLine
 62
40
  6
CONTINUOUS
 10
7.8170919186
 20
4.2778933076
 11
7.8170919186
 21
4.3468464326
  0
LINE
  5
46C
100
AcDbEntity
  8
03__ASM_ALL_CURVES
100
AcDbLine
 62
40
  6
CONTINUOUS
 10
7.8515684811
 20
4.3353542437
 11
7.8515684811
 21
4.323862059
  0
LINE
  5
46D
100
AcDbEntity
  8
03__ASM_ALL_CURVES
100
AcDbLine
 62
40
  6
CONTINUOUS
 10
7.8688067619
 20
4.1721651826
 11
7.8688067619
 21
4.2411183076
  0
LINE
  5
46E
100
AcDbEntity
  8
03__ASM_ALL_CURVES
100
AcDbLine
 62
40
  6
CONTINUOUS
 10
7.7912344967
 20
4.3123698701
 11
7.7869249264
 21
4.2951315888
  0
LINE
  5
46F
100
AcDbEntity
  8
03__ASM_ALL_CURVES
100
AcDbLine
 62
40
  6
CONTINUOUS
 10
7.5875083259
 20
5.2318488511
 11
7.5932544197
 21
5.2241873891
  0
LINE
  5
470
100
AcDbEntity
  8
03__ASM_ALL_CURVES
100
AcDbLine
 62
40
  6
CONTINUOUS
 10
7.5760161384
 20
5.1935415576
 11
7.5932544197
 21
5.1475728076
  0
LINE
  5
471
100
AcDbEntity
  8
03__ASM_ALL_CURVES
100
AcDbLine
 62
40
  6
CONTINUOUS
 10
7.7869249264
 20
4.3296081513
 11
7.7912344967
 21
4.3123698701
  0
LINE
  5
472
100
AcDbEntity
  8
03__ASM_ALL_CURVES
100
AcDbLine
 62
40
  6
CONTINUOUS
 10
7.9032833248
 20
4.3468464326
 11
7.9032833248
 21
4.2778933076
  0
LINE
  5
473
100
AcDbEntity
  8
03__ASM_ALL_CURVES
100
AcDbLine
 62
40
  6
CONTINUOUS
 10
7.9549981682
 20
4.2411183076
 11
7.9549981682
 21
4.1721651826
  0
LINE
  5
474
100
AcDbEntity
  8
03__ASM_ALL_CURVES
100
AcDbLine
 62
40
  6
CONTINUOUS
 10
7.9722364498
 20
4.3468464326
 11
7.9722364498
 21
4.2778933076
  0
ARC
  5
475
100
AcDbEntity
  8
0
100
AcDbCircle
 62
7
  6
CONTINUOUS
 10
6.6708356097
 20
4.2595058076
 40
0.1015
100
AcDbArc
 50
277.2279570848
 51
279.3002241234
  0
ARC
  5
476
100
AcDbEntity
  8
0
100
AcDbCircle
 62
7
  6
CONTINUOUS
 10
6.6708356097
 20
4.2595058076
 40
0.1015
100
AcDbArc
 50
80.6984532768
 51
84.0425233045
  0
ARC
  5
477
100
AcDbEntity
  8
0
100
AcDbCircle
 62
7
  6
CONTINUOUS
 10
6.976685669
 20
4.6496558076
 40
0.016
100
AcDbArc
 50
270.0
 51
360.0
  0
ARC
  5
478
100
AcDbEntity
  8
0
100
AcDbCircle
 62
7
  6
CONTINUOUS
 10
6.976685669
 20
3.8693558076
 40
0.016
100
AcDbArc
 50
0.0
 51
90.0
  0
ARC
  5
479
100
AcDbEntity
  8
THREAD
100
AcDbCircle
 62
7
  6
CONTINUOUS
 10
6.1096801155
 20
3.7885058076
 40
0.013
100
AcDbArc
 50
29.9999999933
 51
90.0
  0
ARC
  5
47A
100
AcDbEntity
  8
THREAD
100
AcDbCircle
 62
7
  6
CONTINUOUS
 10
6.1096801155
 20
4.7305058076
 40
0.013
100
AcDbArc
 50
270.0
 51
330.0000000082
  0
ARC
  5
47B
100
AcDbEntity
  8
0
100
AcDbCircle
 62
7
  6
CONTINUOUS
 10
5.934185669
 20
3.7291190562
 40
0.005
100
AcDbArc
 50
120.0000000209
 51
179.9999999996
  0
ARC
  5
47C
100
AcDbEntity
  8
0
100
AcDbCircle
 62
7
  6
CONTINUOUS
 10
5.934185669
 20
4.7898925589
 40
0.005
100
AcDbArc
 50
180.0000000003
 51
239.9999999837
  0
ARC
  5
47D
100
AcDbEntity
  8
0
100
AcDbCircle
 62
7
  6
CONTINUOUS
 10
5.926185669
 20
3.7245058076
 40
0.003
100
AcDbArc
 50
270.0
 51
360.0
  0
ARC
  5
47E
100
AcDbEntity
  8
0
100
AcDbCircle
 62
7
  6
CONTINUOUS
 10
5.926185669
 20
4.7945058076
 40
0.003
100
AcDbArc
 50
0.0
 51
90.0
  0
SPLINE
  5
47F
100
AcDbEntity
  8
0
100
AcDbSpline
 62
7
  6
CONTINUOUS
 70
0
 71
3
 72
15
 73
11
 74
9
 42
0.0000001
 43
0.0000001
 44
0.0000000001
 12
0.0
 22
0.1099409465
 32
0.0
 13
0.0
 23
-0.1099409465
 33
0.0
 40
0.0
 40
0.0
 40
0.0
 40
0.0
 40
0.125
 40
0.25
 40
0.375
 40
0.5
 40
0.625
 40
0.75
 40
0.875
 40
1.0
 40
1.0
 40
1.0
 40
1.0
 10
7.168685669
 20
4.6765058076
 30
0.0
 10
7.168685669
 20
4.6810866804
 30
0.0
 10
7.1668632845
 20
4.6902484259
 30
0.0
 10
7.1590787166
 20
4.7018988552
 30
0.0
 10
7.1474282873
 20
4.7096834231
 30
0.0
 10
7.133685669
 20
4.7124169998
 30
0.0
 10
7.1199430507
 20
4.7096834231
 30
0.0
 10
7.1082926214
 20
4.7018988552
 30
0.0
 10
7.1005080535
 20
4.6902484259
 30
0.0
 10
7.098685669
 20
4.6810866804
 30
0.0
 10
7.098685669
 20
4.6765058076
 30
0.0
 11
7.168685669
 21
4.6765058076
 31
0.0
 11
7.1660214526
 21
4.6898997277
 31
0.0
 11
7.1584344063
 21
4.7012545449
 31
0.0
 11
7.1470795891
 21
4.7088415912
 31
0.0
 11
7.133685669
 21
4.7115058076
 31
0.0
 11
7.1202917489
 21
4.7088415912
 31
0.0
 11
7.1089369317
 21
4.7012545449
 31
0.0
 11
7.1013498854
 21
4.6898997277
 31
0.0
 11
7.098685669
 21
4.6765058076
 31
0.0
  0
SPLINE
  5
480
100
AcDbEntity
  8
0
100
AcDbSpline
 62
7
  6
CONTINUOUS
 70
0
 71
3
 72
15
 73
11
 74
9
 42
0.0000001
 43
0.0000001
 44
0.0000000001
 12
0.0
 22
-0.1099409465
 32
0.0
 13
0.0
 23
0.1099409465
 33
0.0
 40
0.0
 40
0.0
 40
0.0
 40
0.0
 40
0.125
 40
0.25
 40
0.375
 40
0.5
 40
0.625
 40
0.75
 40
0.875
 40
1.0
 40
1.0
 40
1.0
 40
1.0
 10
7.168685669
 20
3.8425058076
 30
0.0
 10
7.168685669
 20
3.8379249348
 30
0.0
 10
7.1668632845
 20
3.8287631893
 30
0.0
 10
7.1590787166
 20
3.81711276
 30
0.0
 10
7.1474282873
 20
3.8093281921
 30
0.0
 10
7.133685669
 20
3.8065946153
 30
0.0
 10
7.1199430507
 20
3.8093281921
 30
0.0
 10
7.1082926214
 20
3.81711276
 30
0.0
 10
7.1005080535
 20
3.8287631893
 30
0.0
 10
7.098685669
 20
3.8379249348
 30
0.0
 10
7.098685669
 20
3.8425058076
 30
0.0
 11
7.168685669
 21
3.8425058076
 31
0.0
 11
7.1660214526
 21
3.8291118875
 31
0.0
 11
7.1584344063
 21
3.8177570703
 31
0.0
 11
7.1470795891
 21
3.810170024
 31
0.0
 11
7.133685669
 21
3.8075058076
 31
0.0
 11
7.1202917489
 21
3.810170024
 31
0.0
 11
7.1089369317
 21
3.8177570703
 31
0.0
 11
7.1013498854
 21
3.8291118875
 31
0.0
 11
7.098685669
 21
3.8425058076
 31
0.0
  0
SPLINE
  5
481
100
AcDbEntity
  8
0
100
AcDbSpline
 62
7
  6
CONTINUOUS
 70
0
 71
3
 72
14
 73
10
 74
8
 42
0.0000001
 43
0.0000001
 44
0.0000000001
 12
0.0
 22
0.0916172274
 32
0.0
 13
-0.045846371
 23
-0.079336773
 33
0.0
 40
0.0
 40
0.0
 40
0.0
 40
0.0
 40
0.1500003733
 40
0.3000007465
 40
0.4500011198
 40
0.6000014931
 40
0.7500018663
 40
0.9000022396
 40
1.0
 40
1.0
 40
1.0
 40
1.0
 10
6.046185669
 20
4.7525058076
 30
0.0
 10
6.046185669
 20
4.7570866804
 30
0.0
 10
6.0443632845
 20
4.7662484259
 30
0.0
 10
6.0365787166
 20
4.7778988552
 30
0.0
 10
6.0249282873
 20
4.7856834231
 30
0.0
 10
6.011185669
 20
4.7884169998
 30
0.0
 10
5.9974430507
 20
4.7856834231
 30
0.0
 10
5.987087178
 20
4.7787638502
 30
0.0
 10
5.9824044967
 20
4.7726494183
 30
0.0
 10
5.9808763186
 20
4.7700049184
 30
0.0
 11
6.046185669
 21
4.7525058076
 31
0.0
 11
6.0435214526
 21
4.7658997277
 31
0.0
 11
6.0359344063
 21
4.7772545449
 31
0.0
 11
6.0245795891
 21
4.7848415912
 31
0.0
 11
6.011185669
 21
4.7875058076
 31
0.0
 11
5.9977917489
 21
4.7848415912
 31
0.0
 11
5.9864369317
 21
4.7772545449
 31
0.0
 11
5.9808763186
 21
4.7700049184
 31
0.0
  0
SPLINE
  5
482
100
AcDbEntity
  8
0
100
AcDbSpline
 62
7
  6
CONTINUOUS
 70
0
 71
3
 72
9
 73
5
 74
3
 42
0.0000001
 43
0.0000001
 44
0.0000000001
 12
-0.0091694111
 22
-0.0158675915
 32
0.0
 13
0.0
 23
-0.0183237191
 33
0.0
 40
0.0
 40
0.0
 40
0.0
 40
0.0
 40
0.2500093315
 40
1.0
 40
1.0
 40
1.0
 40
1.0
 10
5.9808763186
 20
4.7700049184
 30
0.0
 10
5.9801121725
 20
4.7686825698
 30
0.0
 10
5.9774006071
 20
4.7631945867
 30
0.0
 10
5.976185669
 20
4.7570866804
 30
0.0
 10
5.976185669
 20
4.7525058076
 30
0.0
 11
5.9808763186
 21
4.7700049184
 31
0.0
 11
5.9788498854
 21
4.7658997277
 31
0.0
 11
5.976185669
 21
4.7525058076
 31
0.0
  0
SPLINE
  5
483
100
AcDbEntity
  8
0
100
AcDbSpline
 62
7
  6
CONTINUOUS
 70
0
 71
3
 72
14
 73
10
 74
8
 42
0.0000001
 43
0.0000001
 44
0.0000000001
 12
0.0
 22
-0.0916172274
 32
0.0
 13
-0.045846371
 23
0.079336773
 33
0.0
 40
0.0
 40
0.0
 40
0.0
 40
0.0
 40
0.1500003733
 40
0.3000007465
 40
0.4500011198
 40
0.6000014931
 40
0.7500018663
 40
0.9000022396
 40
1.0
 40
1.0
 40
1.0
 40
1.0
 10
6.046185669
 20
3.7665058076
 30
0.0
 10
6.046185669
 20
3.7619249348
 30
0.0
 10
6.0443632845
 20
3.7527631893
 30
0.0
 10
6.0365787166
 20
3.74111276
 30
0.0
 10
6.0249282873
 20
3.7333281921
 30
0.0
 10
6.011185669
 20
3.7305946153
 30
0.0
 10
5.9974430507
 20
3.7333281921
 30
0.0
 10
5.987087178
 20
3.740247765
 30
0.0
 10
5.9824044967
 20
3.7463621969
 30
0.0
 10
5.9808763186
 20
3.7490066968
 30
0.0
 11
6.046185669
 21
3.7665058076
 31
0.0
 11
6.0435214526
 21
3.7531118875
 31
0.0
 11
6.0359344063
 21
3.7417570703
 31
0.0
 11
6.0245795891
 21
3.734170024
 31
0.0
 11
6.011185669
 21
3.7315058076
 31
0.0
 11
5.9977917489
 21
3.734170024
 31
0.0
 11
5.9864369317
 21
3.7417570703
 31
0.0
 11
5.9808763186
 21
3.7490066968
 31
0.0
  0
SPLINE
  5
484
100
AcDbEntity
  8
0
100
AcDbSpline
 62
7
  6
CONTINUOUS
 70
0
 71
3
 72
9
 73
5
 74
3
 42
0.0000001
 43
0.0000001
 44
0.0000000001
 12
-0.0091694111
 22
0.0158675915
 32
0.0
 13
0.0
 23
0.0183237191
 33
0.0
 40
0.0
 40
0.0
 40
0.0
 40
0.0
 40
0.2500093315
 40
1.0
 40
1.0
 40
1.0
 40
1.0
 10
5.9808763186
 20
3.7490066968
 30
0.0
 10
5.9801121725
 20
3.7503290454
 30
0.0
 10
5.9774006071
 20
3.7558170285
 30
0.0
 10
5.976185669
 20
3.7619249348
 30
0.0
 10
5.976185669
 20
3.7665058076
 30
0.0
 11
5.9808763186
 21
3.7490066968
 31
0.0
 11
5.9788498854
 21
3.7531118875
 31
0.0
 11
5.976185669
 21
3.7665058076
 31
0.0
  0
SPLINE
  5
485
100
AcDbEntity
  8
0
100
AcDbSpline
 62
7
  6
CONTINUOUS
 70
0
 71
3
 72
15
 73
11
 74
9
 42
0.0000001
 43
0.0000001
 44
0.0000000001
 12
0.0
 22
0.1099409465
 32
0.0
 13
-0.0
 23
-0.1099409465
 33
0.0
 40
0.0
 40
0.0
 40
0.0
 40
0.0
 40
0.125
 40
0.25
 40
0.375
 40
0.5
 40
0.625
 40
0.75
 40
0.875
 40
1.0
 40
1.0
 40
1.0
 40
1.0
 10
5.424185669
 20
4.7770058076
 30
0.0
 10
5.424185669
 20
4.7815866804
 30
0.0
 10
5.4223632845
 20
4.7907484259
 30
0.0
 10
5.4145787166
 20
4.8023988552
 30
0.0
 10
5.4029282873
 20
4.8101834231
 30
0.0
 10
5.389185669
 20
4.8129169998
 30
0.0
 10
5.3754430507
 20
4.8101834231
 30
0.0
 10
5.3637926214
 20
4.8023988552
 30
0.0
 10
5.3560080535
 20
4.7907484259
 30
0.0
 10
5.354185669
 20
4.7815866804
 30
0.0
 10
5.354185669
 20
4.7770058076
 30
0.0
 11
5.424185669
 21
4.7770058076
 31
0.0
 11
5.4215214526
 21
4.7903997277
 31
0.0
 11
5.4139344063
 21
4.8017545449
 31
0.0
 11
5.4025795891
 21
4.8093415912
 31
0.0
 11
5.389185669
 21
4.8120058076
 31
0.0
 11
5.3757917489
 21
4.8093415912
 31
0.0
 11
5.3644369317
 21
4.8017545449
 31
0.0
 11
5.3568498854
 21
4.7903997277
 31
0.0
 11
5.354185669
 21
4.7770058076
 31
0.0
  0
SPLINE
  5
486
100
AcDbEntity
  8
0
100
AcDbSpline
 62
7
  6
CONTINUOUS
 70
0
 71
3
 72
15
 73
11
 74
9
 42
0.0000001
 43
0.0000001
 44
0.0000000001
 12
0.0
 22
-0.1099409465
 32
0.0
 13
-0.0
 23
0.1099409465
 33
0.0
 40
0.0
 40
0.0
 40
0.0
 40
0.0
 40
0.125
 40
0.25
 40
0.375
 40
0.5
 40
0.625
 40
0.75
 40
0.875
 40
1.0
 40
1.0
 40
1.0
 40
1.0
 10
5.424185669
 20
3.7420058076
 30
0.0
 10
5.424185669
 20
3.7374249348
 30
0.0
 10
5.4223632845
 20
3.7282631893
 30
0.0
 10
5.4145787166
 20
3.71661276
 30
0.0
 10
5.4029282873
 20
3.7088281921
 30
0.0
 10
5.389185669
 20
3.7060946153
 30
0.0
 10
5.3754430507
 20
3.7088281921
 30
0.0
 10
5.3637926214
 20
3.71661276
 30
0.0
 10
5.3560080535
 20
3.7282631893
 30
0.0
 10
5.354185669
 20
3.7374249348
 30
0.0
 10
5.354185669
 20
3.7420058076
 30
0.0
 11
5.424185669
 21
3.7420058076
 31
0.0
 11
5.4215214526
 21
3.7286118875
 31
0.0
 11
5.4139344063
 21
3.7172570703
 31
0.0
 11
5.4025795891
 21
3.709670024
 31
0.0
 11
5.389185669
 21
3.7070058076
 31
0.0
 11
5.3757917489
 21
3.709670024
 31
0.0
 11
5.3644369317
 21
3.7172570703
 31
0.0
 11
5.3568498854
 21
3.7286118875
 31
0.0
 11
5.354185669
 21
3.7420058076
 31
0.0
  0
SPLINE
  5
487
100
AcDbEntity
  8
0
100
AcDbSpline
 62
7
  6
CONTINUOUS
 70
0
 71
3
 72
12
 73
8
 74
6
 42
0.0000001
 43
0.0000001
 44
0.0000000001
 12
-0.0008542445
 22
0.1412302776
 32
0.0
 13
-0.0446617522
 23
0.1339852565
 33
0.0
 40
0.0
 40
0.0
 40
0.0
 40
0.0
 40
0.1928502432
 40
0.386496632
 40
0.5833126522
 40
0.7863661665
 40
1.0
 40
1.0
 40
1.0
 40
1.0
 10
3.9291812475
 20
4.4021333605
 30
0.0
 10
3.9291263337
 20
4.411212125
 30
0.0
 10
3.9283181326
 20
4.4294092154
 30
0.0
 10
3.9251442858
 20
4.4567072318
 30
0.0
 10
3.9200336769
 20
4.4841976004
 30
0.0
 10
3.9130305793
 20
4.5122335483
 30
0.0
 10
3.9072513527
 20
4.5309897898
 30
0.0
 10
3.9040709323
 20
4.5405310511
 30
0.0
 11
3.9291812475
 21
4.4021333605
 31
0.0
 11
3.9279974407
 21
4.4293444138
 31
0.0
 11
3.9248571264
 21
4.4565127593
 31
0.0
 11
3.9198157358
 21
4.4838486598
 31
0.0
 11
3.9129084804
 21
4.511682231
 31
0.0
 11
3.9040709323
 21
4.5405310511
 31
0.0
  0
SPLINE
  5
488
100
AcDbEntity
  8
0
100
AcDbSpline
 62
7
  6
CONTINUOUS
 70
0
 71
3
 72
12
 73
8
 74
6
 42
0.0000001
 43
0.0000001
 44
0.0000000001
 12
-0.0005971608
 22
0.1418021338
 32
0.0
 13
-0.0448421696
 23
0.1345265089
 33
0.0
 40
0.0
 40
0.0
 40
0.0
 40
0.0
 40
0.1924730046
 40
0.3862198908
 40
0.583116988
 40
0.7862455639
 40
1.0
 40
1.0
 40
1.0
 40
1.0
 10
3.9291829865
 20
4.1205371976
 30
0.0
 10
3.9291446741
 20
4.1296348918
 30
0.0
 10
3.9283588942
 20
4.147893743
 30
0.0
 10
3.9252058217
 20
4.1752967673
 30
0.0
 10
3.9200927976
 20
4.2029142005
 30
0.0
 10
3.9130693687
 20
4.2310790391
 30
0.0
 10
3.9072660032
 20
4.2499205949
 30
0.0
 10
3.9040709323
 20
4.2595058076
 30
0.0
 11
3.9291829865
 21
4.1205371976
 31
0.0
 11
3.9280379766
 21
4.147806494
 31
0.0
 11
3.9249149946
 21
4.1751023868
 31
0.0
 11
3.9198720112
 21
4.2025638594
 31
0.0
 11
3.9129457038
 21
4.2305230291
 31
0.0
 11
3.9040709323
 21
4.2595058076
 31
0.0
  0
SPLINE
  5
489
100
AcDbEntity
  8
0
100
AcDbSpline
 62
7
  6
CONTINUOUS
 70
0
 71
3
 72
16
 73
12
 74
10
 42
0.0000001
 43
0.0000001
 44
0.0000000001
 12
-0.0906561768
 22
-0.2719685305
 32
0.0
 13
0.0906561768
 23
-0.2719685305
 33
0.0
 40
0.0
 40
0.0
 40
0.0
 40
0.0
 40
0.1184536949
 40
0.2305643358
 40
0.3393084417
 40
0.4465957431
 40
0.5535016267
 40
0.6607807045
 40
0.7695058147
 40
0.8815670806
 40
1.0
 40
1.0
 40
1.0
 40
1.0
 10
3.7367435885
 20
4.2595058076
 30
0.0
 10
3.7331640688
 20
4.2487672485
 30
0.0
 10
3.726732427
 20
4.2276794005
 30
0.0
 10
3.7192123125
 20
4.1961155622
 30
0.0
 10
3.714123596
 20
4.1651438704
 30
0.0
 10
3.7115364845
 20
4.1343579324
 30
0.0
 10
3.7115376718
 20
4.1036012844
 30
0.0
 10
3.7141267584
 20
4.0728181355
 30
0.0
 10
3.7192159775
 20
4.0418539668
 30
0.0
 10
3.7267349184
 20
4.0102986394
 30
0.0
 10
3.7331646966
 20
3.9892172398
 30
0.0
 10
3.7367435885
 20
3.9784805641
 30
0.0
 11
3.7367435885
 21
4.2595058076
 31
0.0
 11
3.7269043233
 21
4.2270041864
 31
0.0
 11
3.7195164572
 21
4.1957249402
 31
0.0
 11
3.7145113518
 21
4.1649545873
 31
0.0
 11
3.7119641421
 21
4.1343031209
 31
0.0
 11
3.7119653113
 21
4.1036553419
 31
0.0
 11
3.7145144924
 21
4.0730064051
 31
0.0
 11
3.7195204126
 21
4.0422417021
 31
0.0
 11
3.7269058789
 21
4.0109764333
 31
0.0
 11
3.7367435885
 21
3.9784805641
 31
0.0
  0
SPLINE
  5
48A
100
AcDbEntity
  8
0
100
AcDbSpline
 62
7
  6
CONTINUOUS
 70
0
 71
3
 72
12
 73
8
 74
6
 42
0.0000001
 43
0.0000001
 44
0.0000000001
 12
0.0446970127
 22
0.1340910382
 32
0.0
 13
0.0007756416
 23
0.1413422367
 33
0.0
 40
0.0
 40
0.0
 40
0.0
 40
0.0
 40
0.2137320188
 40
0.4169249561
 40
0.6138415602
 40
0.8075641977
 40
1.0
 40
1.0
 40
1.0
 40
1.0
 10
3.9040709323
 20
3.9784805641
 30
0.0
 10
3.9072553265
 20
3.9880337468
 30
0.0
 10
3.9130418962
 20
4.0068156895
 30
0.0
 10
3.9200511522
 20
4.0348900944
 30
0.0
 10
3.9251624786
 20
4.0624180483
 30
0.0
 10
3.9283277858
 20
4.0897276212
 30
0.0
 10
3.9291305727
 20
4.1079234504
 30
0.0
 10
3.9291803265
 20
4.116989886
 30
0.0
 11
3.9040709323
 21
3.9784805641
 31
0.0
 11
3.9129185803
 21
4.0073657183
 31
0.0
 11
3.9198327196
 21
4.0352412134
 31
0.0
 11
3.9248744405
 21
4.0626138247
 31
0.0
 11
3.9280092302
 21
4.0898153924
 31
0.0
 11
3.9291803265
 21
4.116989886
 31
0.0
  0
SPLINE
  5
48B
100
AcDbEntity
  8
0
100
AcDbSpline
 62
7
  6
CONTINUOUS
 70
0
 71
3
 72
12
 73
8
 74
6
 42
0.0000001
 43
0.0000001
 44
0.0000000001
 12
0.0448794702
 22
0.1346384107
 32
0.0
 13
0.0005711002
 23
0.141920197
 33
0.0
 40
0.0
 40
0.0
 40
0.0
 40
0.0
 40
0.2136409517
 40
0.4167160065
 40
0.6135242662
 40
0.8071571603
 40
1.0
 40
1.0
 40
1.0
 40
1.0
 10
3.9040709323
 20
4.2595058076
 30
0.0
 10
3.9072669632
 20
4.2690939003
 30
0.0
 10
3.9130727023
 20
4.2879436194
 30
0.0
 10
3.9200981069
 20
4.3161203925
 30
0.0
 10
3.9252112394
 20
4.3437492442
 30
0.0
 10
3.928365009
 20
4.3711832651
 30
0.0
 10
3.9291481464
 20
4.3894696279
 30
0.0
 10
3.9291848573
 20
4.3985923925
 30
0.0
 11
3.9040709323
 21
4.2595058076
 31
0.0
 11
3.9129481418
 21
4.2884973645
 31
0.0
 11
3.9198774028
 21
4.3164726614
 31
0.0
 11
3.924920341
 21
4.3439449367
 31
0.0
 11
3.9280413176
 21
4.3712477778
 31
0.0
 11
3.9291848573
 21
4.3985923925
 31
0.0
  0
SPLINE
  5
48C
100
AcDbEntity
  8
0
100
AcDbSpline
 62
7
  6
CONTINUOUS
 70
0
 71
3
 72
16
 73
12
 74
10
 42
0.0000001
 43
0.0000001
 44
0.0000000001
 12
-0.0906561768
 22
-0.2719685305
 32
0.0
 13
0.0906561768
 23
-0.2719685305
 33
0.0
 40
0.0
 40
0.0
 40
0.0
 40
0.0
 40
0.1184536949
 40
0.2305643358
 40
0.3393084417
 40
0.4465957431
 40
0.5535016267
 40
0.6607807045
 40
0.7695058147
 40
0.8815670806
 40
1.0
 40
1.0
 40
1.0
 40
1.0
 10
3.7367435885
 20
4.5405310511
 30
0.0
 10
3.7331640688
 20
4.529792492
 30
0.0
 10
3.726732427
 20
4.508704644
 30
0.0
 10
3.7192123125
 20
4.4771408057
 30
0.0
 10
3.714123596
 20
4.4461691139
 30
0.0
 10
3.7115364845
 20
4.4153831759
 30
0.0
 10
3.7115376718
 20
4.384626528
 30
0.0
 10
3.7141267584
 20
4.3538433791
 30
0.0
 10
3.7192159775
 20
4.3228792103
 30
0.0
 10
3.7267349184
 20
4.2913238829
 30
0.0
 10
3.7331646966
 20
4.2702424833
 30
0.0
 10
3.7367435885
 20
4.2595058076
 30
0.0
 11
3.7367435885
 21
4.5405310511
 31
0.0
 11
3.7269043233
 21
4.5080294299
 31
0.0
 11
3.7195164572
 21
4.4767501837
 31
0.0
 11
3.7145113518
 21
4.4459798308
 31
0.0
 11
3.7119641421
 21
4.4153283644
 31
0.0
 11
3.7119653113
 21
4.3846805854
 31
0.0
 11
3.7145144924
 21
4.3540316486
 31
0.0
 11
3.7195204126
 21
4.3232669456
 31
0.0
 11
3.7269058789
 21
4.2920016768
 31
0.0
 11
3.7367435885
 21
4.2595058076
 31
0.0
  0
SPLINE
  5
48D
100
AcDbEntity
  8
0
100
AcDbSpline
 62
7
  6
CONTINUOUS
 70
0
 71
3
 72
9
 73
5
 74
3
 42
0.0000001
 43
0.0000001
 44
0.0000000001
 12
-0.0248083387
 22
-0.0003172758
 32
0.0
 13
-0.0246776889
 23
0.0025593781
 33
0.0
 40
0.0
 40
0.0
 40
0.0
 40
0.0
 40
0.5163935948
 40
1.0
 40
1.0
 40
1.0
 40
1.0
 10
6.6735477016
 20
4.4710297871
 30
0.0
 10
6.6692774125
 20
4.470975174
 30
0.0
 10
6.6610047213
 20
4.4711191935
 30
0.0
 10
6.6527554583
 20
4.4717469626
 30
0.0
 10
6.6487773622
 20
4.4721595398
 30
0.0
 11
6.6735477016
 21
4.4710297871
 31
0.0
 11
6.6607397304
 21
4.4712529133
 31
0.0
 11
6.6487773622
 21
4.4721595398
 31
0.0
  0
SPLINE
  5
48E
100
AcDbEntity
  8
0
100
AcDbSpline
 62
7
  6
CONTINUOUS
 70
0
 71
3
 72
8
 73
4
 74
2
 42
0.0000001
 43
0.0000001
 44
0.0000000001
 12
-0.0054375906
 22
0.0005639446
 32
0.0
 13
-0.0054218635
 23
0.0006985144
 33
0.0
 40
0.0
 40
0.0
 40
0.0
 40
0.0
 40
1.0
 40
1.0
 40
1.0
 40
1.0
 10
6.6487773622
 20
4.4721595398
 30
0.0
 10
6.646964832
 20
4.4723475213
 30
0.0
 10
6.6451546477
 20
4.4725581276
 30
0.0
 10
6.6433473599
 20
4.4727909657
 30
0.0
 11
6.6487773622
 21
4.4721595398
 31
0.0
 11
6.6433473599
 21
4.4727909657
 31
0.0
  0
SPLINE
  5
48F
100
AcDbEntity
  8
0
100
AcDbSpline
 62
7
  6
CONTINUOUS
 70
0
 71
3
 72
8
 73
4
 74
2
 42
0.0000001
 43
0.0000001
 44
0.0000000001
 12
0.0053875377
 22
0.0006932467
 32
0.0
 13
0.0054030497
 23
0.0005603842
 33
0.0
 40
0.0
 40
0.0
 40
0.0
 40
0.0
 40
1.0
 40
1.0
 40
1.0
 40
1.0
 10
6.6433812347
 20
4.0462250034
 30
0.0
 10
6.6451770806
 20
4.0464560856
 30
0.0
 10
6.6469757816
 20
4.0466652178
 30
0.0
 10
6.6487767982
 20
4.0468520125
 30
0.0
 11
6.6433812347
 21
4.0462250034
 31
0.0
 11
6.6487767982
 21
4.0468520125
 31
0.0
  0
SPLINE
  5
490
100
AcDbEntity
  8
0
100
AcDbSpline
 62
7
  6
CONTINUOUS
 70
0
 71
3
 72
9
 73
5
 74
3
 42
0.0000001
 43
0.0000001
 44
0.0000000001
 12
0.0246890741
 22
0.0025606586
 32
0.0
 13
0.0248197389
 23
-0.0003186665
 33
0.0
 40
0.0
 40
0.0
 40
0.0
 40
0.0
 40
0.4788579812
 40
1.0
 40
1.0
 40
1.0
 40
1.0
 10
6.6487767982
 20
4.0468520125
 30
0.0
 10
6.6527176516
 20
4.0472607431
 30
0.0
 10
6.6609704955
 20
4.0478909527
 30
0.0
 10
6.6692470388
 20
4.0480370496
 30
0.0
 10
6.6735585751
 20
4.0479816927
 30
0.0
 11
6.6487767982
 21
4.0468520125
 31
0.0
 11
6.6606269663
 21
4.0477532955
 31
0.0
 11
6.6735585751
 21
4.0479816927
 31
0.0
  0
SPLINE
  5
491
100
AcDbEntity
  8
0
100
AcDbSpline
 62
7
  6
CONTINUOUS
 70
0
 71
3
 72
14
 73
10
 74
8
 42
0.0000001
 43
0.0000001
 44
0.0000000001
 12
0.1024054151
 22
-0.0007151123
 32
0.0
 13
0.1000702368
 23
-0.0217556235
 33
0.0
 40
0.0
 40
0.0
 40
0.0
 40
0.0
 40
0.2261132359
 40
0.4395567578
 40
0.6268183572
 40
0.7810437801
 40
0.9014878559
 40
0.9760351176
 40
1.0
 40
1.0
 40
1.0
 40
1.0
 10
6.6871928248
 20
3.8973463087
 30
0.0
 10
6.6949112314
 20
3.8972924099
 30
0.0
 10
6.7099155606
 20
3.896766688
 30
0.0
 10
6.7312414312
 20
3.8949338094
 30
0.0
 10
6.7500334167
 20
3.8925088311
 30
0.0
 10
6.7655979329
 20
3.8899672988
 30
0.0
 10
6.7773118483
 20
3.8877508181
 30
0.0
 10
6.7846315265
 20
3.8862375013
 30
0.0
 10
6.7879189891
 20
3.8855295979
 30
0.0
 10
6.7887183796
 20
3.8853558076
 30
0.0
 11
6.6871928248
 21
3.8973463087
 31
0.0
 11
6.7103349313
 21
3.8965505335
 31
0.0
 11
6.7321141556
 21
3.8946928732
 31
0.0
 11
6.7511347663
 21
3.8922482135
 31
0.0
 11
6.7667230957
 21
3.8897082577
 31
0.0
 11
6.7788429374
 21
3.8874175138
 31
0.0
 11
6.7863191758
 21
3.8858724188
 31
0.0
 11
6.7887183796
 21
3.8853558076
 31
0.0
  0
SPLINE
  5
492
100
AcDbEntity
  8
0
100
AcDbSpline
 62
7
  6
CONTINUOUS
 70
0
 71
3
 72
12
 73
8
 74
6
 42
0.0000001
 43
0.0000001
 44
0.0000000001
 12
0.1002336106
 22
-0.0026863686
 32
0.0
 13
0.0591606595
 23
-0.0812176471
 33
0.0
 40
0.0
 40
0.0
 40
0.0
 40
0.0
 40
0.2349000451
 40
0.467133292
 40
0.6892319756
 40
0.900871332
 40
1.0
 40
1.0
 40
1.0
 40
1.0
 10
6.6871928248
 20
4.159798903
 30
0.0
 10
6.695041118
 20
4.1595885603
 30
0.0
 10
6.7106486854
 20
4.1574518794
 30
0.0
 10
6.7324906691
 20
4.1496818899
 30
0.0
 10
6.7517363624
 20
4.138221599
 30
0.0
 10
6.7650765652
 20
4.1262478111
 30
0.0
 10
6.7716612241
 20
4.1181650285
 30
0.0
 10
6.7736160632
 20
4.1154813628
 30
0.0
 11
6.6871928248
 21
4.159798903
 31
0.0
 11
6.7105344948
 21
4.1566483478
 31
0.0
 11
6.7324804502
 21
4.1488631161
 31
0.0
 11
6.7515991926
 21
4.1374431638
 31
0.0
 11
6.7673388554
 21
4.1232096257
 31
0.0
 11
6.7736160632
 21
4.1154813628
 31
0.0
  0
SPLINE
  5
493
100
AcDbEntity
  8
0
100
AcDbSpline
 62
7
  6
CONTINUOUS
 70
0
 71
3
 72
9
 73
5
 74
3
 42
0.0000001
 43
0.0000001
 44
0.0000000001
 12
0.0025222587
 22
0.0004741456
 32
0.0
 13
0.0025351701
 23
0.0003993939
 33
0.0
 40
0.0
 40
0.0
 40
0.0
 40
0.0
 40
0.5004592939
 40
1.0
 40
1.0
 40
1.0
 40
1.0
 10
6.6846639138
 20
4.1593620364
 30
0.0
 10
6.6850846764
 20
4.1594411332
 30
0.0
 10
6.6859266041
 20
4.1595929958
 30
0.0
 10
6.6867706846
 20
4.1597323985
 30
0.0
 10
6.6871928248
 20
4.159798903
 30
0.0
 11
6.6846639138
 21
4.1593620364
 31
0.0
 11
6.6859279167
 21
4.1595900146
 31
0.0
 11
6.6871928248
 21
4.159798903
 31
0.0
  0
SPLINE
  5
494
100
AcDbEntity
  8
0
100
AcDbSpline
 62
7
  6
CONTINUOUS
 70
0
 71
3
 72
8
 73
4
 74
2
 42
0.0000001
 43
0.0000001
 44
0.0000000001
 12
0.001597812
 22
0.0010092952
 32
0.0
 13
0.0016011202
 23
0.0010040465
 33
0.0
 40
0.0
 40
0.0
 40
0.0
 40
0.0
 40
1.0
 40
1.0
 40
1.0
 40
1.0
 10
6.6001799331
 20
3.853685705
 30
0.0
 10
6.6007125371
 20
3.8540221367
 30
0.0
 10
6.6012456914
 20
3.8543576987
 30
0.0
 10
6.6017793981
 20
3.8546923808
 30
0.0
 11
6.6001799331
 21
3.853685705
 31
0.0
 11
6.6017793981
 21
3.8546923808
 31
0.0
  0
SPLINE
  5
495
100
AcDbEntity
  8
0
100
AcDbSpline
 62
7
  6
CONTINUOUS
 70
0
 71
3
 72
14
 73
10
 74
8
 42
0.0000001
 43
0.0000001
 44
0.0000000001
 12
0.0810252261
 22
0.0508101078
 32
0.0
 13
0.0897516241
 23
0.0330359412
 33
0.0
 40
0.0
 40
0.0
 40
0.0
 40
0.0
 40
0.0601976768
 40
0.1576612955
 40
0.2848631299
 40
0.4402666162
 40
0.6188426927
 40
0.8092605731
 40
1.0
 40
1.0
 40
1.0
 40
1.0
 10
6.6017793981
 20
3.8546923808
 30
0.0
 10
6.6034052416
 20
3.855711931
 30
0.0
 10
6.6076768491
 20
3.8583608099
 30
0.0
 10
6.6154590909
 20
3.8630421206
 30
0.0
 10
6.6259664766
 20
3.8690777637
 30
0.0
 10
6.6389088922
 20
3.8760574202
 30
0.0
 10
6.6538868597
 20
3.8834918063
 30
0.0
 10
6.6701804711
 20
3.8907796266
 30
0.0
 10
6.6814864337
 20
3.8952458898
 30
0.0
 10
6.6871928248
 20
3.8973463087
 30
0.0
 11
6.6017793981
 21
3.8546923808
 31
0.0
 11
6.6066723683
 21
3.8577262546
 31
0.0
 11
6.6146604819
 21
3.8625300283
 31
0.0
 11
6.6252107238
 21
3.8685871936
 31
0.0
 11
6.638294642
 21
3.8756374971
 31
0.0
 11
6.6535959346
 21
3.8832239476
 31
0.0
 11
6.6702236792
 21
3.8906515325
 31
0.0
 11
6.6871928248
 21
3.8973463087
 31
0.0
  0
SPLINE
  5
496
100
AcDbEntity
  8
0
100
AcDbSpline
 62
7
  6
CONTINUOUS
 70
0
 71
3
 72
14
 73
10
 74
8
 42
0.0000001
 43
0.0000001
 44
0.0000000001
 12
-0.1000703519
 22
-0.0217556508
 32
0.0
 13
-0.1024055241
 23
-0.0007151131
 33
0.0
 40
0.0
 40
0.0
 40
0.0
 40
0.0
 40
0.0225503523
 40
0.0959861502
 40
0.2180610616
 40
0.3762182762
 40
0.5676788891
 40
0.7812959417
 40
1.0
 40
1.0
 40
1.0
 40
1.0
 10
6.7887183796
 20
4.6336558076
 30
0.0
 10
6.7879661724
 20
4.6334922751
 30
0.0
 10
6.7847630832
 20
4.6328021491
 30
0.0
 10
6.7774738314
 20
4.6312925918
 30
0.0
 10
6.765611267
 20
4.6290441935
 30
0.0
 10
6.7497172086
 20
4.6264519508
 30
0.0
 10
6.7306412173
 20
4.6240103788
 30
0.0
 10
6.7094155633
 20
4.6222208979
 30
0.0
 10
6.694658326
 20
4.6217174392
 30
0.0
 10
6.6871928248
 20
4.6216653065
 30
0.0
 11
6.7887183796
 21
4.6336558076
 31
0.0
 11
6.7864608439
 21
4.6331694234
 31
0.0
 11
6.7790965755
 21
4.6316448945
 31
0.0
 11
6.7668133198
 21
4.6293194087
 31
0.0
 11
6.750827027
 21
4.6267180173
 31
0.0
 11
6.7313772597
 21
4.6242391028
 31
0.0
 11
6.7095773113
 21
4.622415374
 31
0.0
 11
6.6871928248
 21
4.6216653065
 31
0.0
  0
SPLINE
  5
497
100
AcDbEntity
  8
0
100
AcDbSpline
 62
7
  6
CONTINUOUS
 70
0
 71
3
 72
14
 73
10
 74
8
 42
0.0000001
 43
0.0000001
 44
0.0000000001
 12
-0.0897276109
 22
0.0330271023
 32
0.0
 13
-0.0810058276
 23
0.0507928854
 33
0.0
 40
0.0
 40
0.0
 40
0.0
 40
0.0
 40
0.1869147369
 40
0.3755721035
 40
0.5540340702
 40
0.7105399504
 40
0.8395325844
 40
0.9387697624
 40
1.0
 40
1.0
 40
1.0
 40
1.0
 10
6.6871928248
 20
4.6216653065
 30
0.0
 10
6.6816023539
 20
4.6237230572
 30
0.0
 10
6.6704631267
 20
4.6281172914
 30
0.0
 10
6.6543319768
 20
4.6353114454
 30
0.0
 10
6.6393710582
 20
4.6427147418
 30
0.0
 10
6.6263467935
 20
4.6497210407
 30
0.0
 10
6.6157088253
 20
4.6558215444
 30
0.0
 10
6.6078013151
 20
4.6605741665
 30
0.0
 10
6.6034544894
 20
4.6632689053
 30
0.0
 10
6.6018011541
 20
4.6643055921
 30
0.0
 11
6.6871928248
 21
4.6216653065
 31
0.0
 11
6.6705653749
 21
4.6282164315
 31
0.0
 11
6.6540878695
 21
4.6355556631
 31
0.0
 11
6.6387912616
 21
4.6431166857
 31
0.0
 11
6.6256106366
 21
4.6502013188
 31
0.0
 11
6.6149102842
 21
4.6563343717
 31
0.0
 11
6.6067771278
 21
4.6612211606
 31
0.0
 11
6.6018011541
 21
4.6643055921
 31
0.0
  0
SPLINE
  5
498
100
AcDbEntity
  8
0
100
AcDbSpline
 62
7
  6
CONTINUOUS
 70
0
 71
3
 72
8
 73
4
 74
2
 42
0.0000001
 43
0.0000001
 44
0.0000000001
 12
-0.0016229216
 22
0.0010176165
 32
0.0
 13
-0.0016195227
 23
0.0010230093
 33
0.0
 40
0.0
 40
0.0
 40
0.0
 40
0.0
 40
1.0
 40
1.0
 40
1.0
 40
1.0
 10
6.6018011541
 20
4.6643055921
 30
0.0
 10
6.6012601802
 20
4.6646447976
 30
0.0
 10
6.600719774
 20
4.6649849071
 30
0.0
 10
6.6001799331
 20
4.6653259102
 30
0.0
 11
6.6018011541
 21
4.6643055921
 31
0.0
 11
6.6001799331
 21
4.6653259102
 31
0.0
  0
SPLINE
  5
499
100
AcDbEntity
  8
0
100
AcDbSpline
 62
7
  6
CONTINUOUS
 70
0
 71
3
 72
17
 73
13
 74
11
 42
0.0000001
 43
0.0000001
 44
0.0000000001
 12
-0.1800617487
 22
0.0338488216
 32
0.0
 13
0.1082888008
 23
0.1486695347
 33
0.0
 40
0.0
 40
0.0
 40
0.0
 40
0.0
 40
0.1071439523
 40
0.2207109355
 40
0.3365642285
 40
0.4514482338
 40
0.5677050723
 40
0.6803655597
 40
0.783930178
 40
0.8791387205
 40
0.9685131363
 40
1.0
 40
1.0
 40
1.0
 40
1.0
 10
6.6846639138
 20
4.3596495788
 30
0.0
 10
6.6782330713
 20
4.3608584777
 30
0.0
 10
6.6652306427
 20
4.3648596512
 30
0.0
 10
6.6471835309
 20
4.3749902732
 30
0.0
 10
6.6311485601
 20
4.3887959754
 30
0.0
 10
6.6178353763
 20
4.4054286341
 30
0.0
 10
6.6078003735
 20
4.4240052808
 30
0.0
 10
6.6015823331
 20
4.4434682965
 30
0.0
 10
6.5994958294
 20
4.4625139061
 30
0.0
 10
6.6015298699
 20
4.4801631724
 30
0.0
 10
6.606410777
 20
4.4926060783
 30
0.0
 10
6.6104543406
 20
4.4988272948
 30
0.0
 10
6.6115908988
 20
4.5003876739
 30
0.0
 11
6.6846639138
 21
4.3596495788
 31
0.0
 11
6.6658841808
 21
4.3653658862
 31
0.0
 11
6.6477024328
 21
4.3754834778
 31
0.0
 11
6.6315806985
 21
4.3892906704
 31
0.0
 11
6.6184121649
 21
4.4057111182
 31
0.0
 11
6.6083145412
 21
4.4244656136
 31
0.0
 11
6.6021167516
 21
4.4441543183
 31
0.0
 11
6.6001822539
 21
4.4630301075
 31
0.0
 11
6.6023337373
 21
4.4803406138
 31
0.0
 11
6.6084366163
 21
4.4955356355
 31
0.0
 11
6.6115908988
 21
4.5003876739
 31
0.0
  0
SPLINE
  5
49A
100
AcDbEntity
  8
0
100
AcDbSpline
 62
7
  6
CONTINUOUS
 70
0
 71
3
 72
9
 73
5
 74
3
 42
0.0000001
 43
0.0000001
 44
0.0000000001
 12
-0.0025351701
 22
0.0003993939
 32
0.0
 13
-0.0025222587
 23
0.0004741456
 33
0.0
 40
0.0
 40
0.0
 40
0.0
 40
0.0
 40
0.499558278
 40
1.0
 40
1.0
 40
1.0
 40
1.0
 10
6.6871928248
 20
4.3592127122
 30
0.0
 10
6.6867706697
 20
4.3592792191
 30
0.0
 10
6.6859265893
 20
4.359418622
 30
0.0
 10
6.6850846616
 20
4.3595704848
 30
0.0
 10
6.6846639138
 20
4.3596495788
 30
0.0
 11
6.6871928248
 21
4.3592127122
 31
0.0
 11
6.6859278722
 21
4.3594216083
 31
0.0
 11
6.6846639138
 21
4.3596495788
 31
0.0
  0
SPLINE
  5
49B
100
AcDbEntity
  8
0
100
AcDbSpline
 62
7
  6
CONTINUOUS
 70
0
 71
3
 72
12
 73
8
 74
6
 42
0.0000001
 43
0.0000001
 44
0.0000000001
 12
-0.0591616544
 22
-0.0812093477
 32
0.0
 13
-0.1002285354
 23
-0.0026862326
 33
0.0
 40
0.0
 40
0.0
 40
0.0
 40
0.0
 40
0.09981916
 40
0.310899573
 40
0.5331670445
 40
0.7653694374
 40
1.0
 40
1.0
 40
1.0
 40
1.0
 10
6.773612849
 20
4.403525839
 30
0.0
 10
6.7716443601
 20
4.400823756
 30
0.0
 10
6.7650537502
 20
4.3927407413
 30
0.0
 10
6.7517023834
 20
4.3807667595
 30
0.0
 10
6.7324671044
 20
4.3693182604
 30
0.0
 10
6.7106284
 20
4.3615559197
 30
0.0
 10
6.6950317174
 20
4.359422803
 30
0.0
 10
6.6871928248
 20
4.3592127122
 30
0.0
 11
6.773612849
 21
4.403525839
 31
0.0
 11
6.767289158
 21
4.3957468702
 31
0.0
 11
6.7515856884
 21
4.3815584682
 31
0.0
 11
6.7324509194
 21
4.3701345447
 31
0.0
 11
6.7105069347
 21
4.3623565399
 31
0.0
 11
6.6871928248
 21
4.3592127122
 31
0.0
  0
SPLINE
  5
49C
100
AcDbEntity
  8
0
100
AcDbSpline
 62
7
  6
CONTINUOUS
 70
0
 71
3
 72
16
 73
12
 74
10
 42
0.0000001
 43
0.0000001
 44
0.0000000001
 12
0.0456320568
 22
0.1546565677
 32
0.0
 13
-0.1608228673
 23
0.0
 33
0.0
 40
0.0
 40
0.0
 40
0.0
 40
0.0
 40
0.012815267
 40
0.1219437264
 40
0.2220045428
 40
0.3264105834
 40
0.4428771294
 40
0.569712627
 40
0.7087802324
 40
0.8556622504
 40
1.0
 40
1.0
 40
1.0
 40
1.0
 10
6.7520920171
 20
4.3817324357
 30
0.0
 10
6.7522869461
 20
4.3823930908
 30
0.0
 10
6.7540504297
 20
4.3887073558
 30
0.0
 10
6.7556289219
 20
4.4006616044
 30
0.0
 10
6.7529577326
 20
4.4174958343
 30
0.0
 10
6.7453212046
 20
4.4331869702
 30
0.0
 10
6.7326233435
 20
4.4471426393
 30
0.0
 10
6.7154350548
 20
4.4586077186
 30
0.0
 10
6.6948475491
 20
4.4670495949
 30
0.0
 10
6.6722607158
 20
4.4721560851
 30
0.0
 10
6.6566272234
 20
4.4733178223
 30
0.0
 10
6.6488896198
 20
4.4733178223
 30
0.0
 11
6.7520920171
 21
4.3817324357
 31
0.0
 11
6.7526477003
 21
4.3837230272
 31
0.0
 11
6.7548036943
 21
4.4011404477
 31
0.0
 11
6.7522466834
 21
4.4170280633
 31
0.0
 11
6.7449802198
 21
4.4321651739
 31
0.0
 11
6.7325318364
 21
4.4461604865
 31
0.0
 11
6.7156870929
 21
4.4576641814
 31
0.0
 11
6.6950602383
 21
4.4663092566
 31
0.0
 11
6.6720389758
 21
4.4716026257
 31
0.0
 11
6.6488896198
 21
4.4733178223
 31
0.0
  0
SPLINE
  5
49D
100
AcDbEntity
  8
0
100
AcDbSpline
 62
7
  6
CONTINUOUS
 70
0
 71
3
 72
17
 73
13
 74
11
 42
0.0000001
 43
0.0000001
 44
0.0000000001
 12
-0.1082861838
 22
0.1486731667
 32
0.0
 13
0.1800599262
 23
0.033848479
 33
0.0
 40
0.0
 40
0.0
 40
0.0
 40
0.0
 40
0.0314288417
 40
0.1207818759
 40
0.2160797942
 40
0.3199098129
 40
0.432826444
 40
0.5490809563
 40
0.6639196837
 40
0.7799281107
 40
0.8933097459
 40
1.0
 40
1.0
 40
1.0
 40
1.0
 10
6.6115898923
 20
4.0186254057
 30
0.0
 10
6.6104554559
 20
4.0201829475
 30
0.0
 10
6.6064140768
 20
4.026399756
 30
0.0
 10
6.6015307923
 20
4.0388420965
 30
0.0
 10
6.5994933778
 20
4.0565118793
 30
0.0
 10
6.6015903628
 20
4.07559463
 30
0.0
 10
6.6078321541
 20
4.0950838106
 30
0.0
 10
6.6178887574
 20
4.1136629926
 30
0.0
 10
6.6312191775
 20
4.1302898814
 30
0.0
 10
6.6472637674
 20
4.1440777989
 30
0.0
 10
6.665294813
 20
4.1541752667
 30
0.0
 10
6.6782603674
 20
4.1581582687
 30
0.0
 10
6.6846639138
 20
4.1593620364
 30
0.0
 11
6.6115898923
 21
4.0186254057
 31
0.0
 11
6.6084410491
 21
4.0234682935
 31
0.0
 11
6.6023369297
 21
4.0386584165
 31
0.0
 11
6.6001822287
 21
4.0559848458
 31
0.0
 11
6.6021273516
 21
4.0749082318
 31
0.0
 11
6.608353178
 21
4.0946370857
 31
0.0
 11
6.6184665243
 21
4.1133823781
 31
0.0
 11
6.6316430114
 21
4.1297855319
 31
0.0
 11
6.6477992727
 21
4.1435957598
 31
0.0
 11
6.6659613113
 21
4.1536784784
 31
0.0
 11
6.6846639138
 21
4.1593620364
 31
0.0
  0
SPLINE
  5
49E
100
AcDbEntity
  8
0
100
AcDbSpline
 62
7
  6
CONTINUOUS
 70
0
 71
3
 72
10
 73
6
 74
4
 42
0.0000001
 43
0.0000001
 44
0.0000000001
 12
0.046105136
 22
-0.0191593078
 32
0.0
 13
0.0498300332
 23
0.0
 33
0.0
 40
0.0
 40
0.0
 40
0.0
 40
0.0
 40
0.1293688429
 40
0.5570788274
 40
1.0
 40
1.0
 40
1.0
 40
1.0
 10
6.600126854
 20
4.0546355024
 30
0.0
 10
6.6021150434
 20
4.0538092966
 30
0.0
 10
6.6107945149
 20
4.0505339876
 30
0.0
 10
6.6270447029
 20
4.0467171129
 30
0.0
 10
6.6415326943
 20
4.0456937929
 30
0.0
 10
6.6488896198
 20
4.0456937929
 30
0.0
 11
6.600126854
 21
4.0546355024
 31
0.0
 11
6.6061663862
 21
4.0523500305
 31
0.0
 11
6.6268795913
 21
4.0473302
 31
0.0
 11
6.6488896198
 21
4.0456937929
 31
0.0
  0
SPLINE
  5
49F
100
AcDbEntity
  8
0
100
AcDbSpline
 62
7
  6
CONTINUOUS
 70
0
 71
3
 72
16
 73
12
 74
10
 42
0.0000001
 43
0.0000001
 44
0.0000000001
 12
0.160824059
 22
0.0
 32
0.0
 13
-0.0456348998
 23
0.1546538618
 33
0.0
 40
0.0
 40
0.0
 40
0.0
 40
0.0
 40
0.1444202949
 40
0.2913023498
 40
0.430474705
 40
0.5572747052
 40
0.6737887567
 40
0.7782624896
 40
0.8784084746
 40
0.9872055367
 40
1.0
 40
1.0
 40
1.0
 40
1.0
 10
6.6488896198
 20
4.0456937929
 30
0.0
 10
6.6566317058
 20
4.0456937929
 30
0.0
 10
6.6722697931
 20
4.0468565299
 30
0.0
 10
6.6948661284
 20
4.0519672934
 30
0.0
 10
6.7154560972
 20
4.0604142793
 30
0.0
 10
6.7326462873
 20
4.0718881262
 30
0.0
 10
6.7453417157
 20
4.0858525654
 30
0.0
 10
6.7529728275
 20
4.1015590952
 30
0.0
 10
6.7556269862
 20
4.1183867515
 30
0.0
 10
6.7540449751
 20
4.1303247989
 30
0.0
 10
6.7522863141
 20
4.1366206609
 30
0.0
 10
6.7520916894
 20
4.1372802319
 30
0.0
 11
6.6488896198
 21
4.0456937929
 31
0.0
 11
6.6720523129
 21
4.0474109738
 31
0.0
 11
6.6950732641
 21
4.0527065041
 31
0.0
 11
6.715714192
 21
4.0613620108
 31
0.0
 11
6.7325508616
 21
4.0728676717
 31
0.0
 11
6.7449985745
 21
4.0868739893
 31
0.0
 11
6.7522598299
 21
4.10202581
 31
0.0
 11
6.7548047808
 21
4.1179293542
 31
0.0
 11
6.752646557
 21
4.1352929241
 31
0.0
 11
6.7520916894
 21
4.1372802319
 31
0.0
  0
SPLINE
  5
4A0
100
AcDbEntity
  8
0
100
AcDbSpline
 62
7
  6
CONTINUOUS
 70
0
 71
3
 72
10
 73
6
 74
4
 42
0.0000001
 43
0.0000001
 44
0.0000000001
 12
-0.0498323224
 22
0.0
 32
0.0
 13
-0.046107286
 23
-0.0191614203
 33
0.0
 40
0.0
 40
0.0
 40
0.0
 40
0.0
 40
0.4419905803
 40
0.8697776441
 40
1.0
 40
1.0
 40
1.0
 40
1.0
 10
6.6488896198
 20
4.4733178223
 30
0.0
 10
6.6415478141
 20
4.4733178223
 30
0.0
 10
6.6270735178
 20
4.4722975064
 30
0.0
 10
6.6108213281
 20
4.4684862562
 30
0.0
 10
6.6021261365
 20
4.4652069854
 30
0.0
 10
6.6001247367
 20
4.464375237
 30
0.0
 11
6.6488896198
 21
4.4733178223
 31
0.0
 11
6.6269245645
 21
4.4716882999
 31
0.0
 11
6.6062048721
 21
4.4666747789
 31
0.0
 11
6.6001247367
 21
4.464375237
 31
0.0
  0
SPLINE
  5
4A1
100
AcDbEntity
  8
0
100
AcDbSpline
 62
7
  6
CONTINUOUS
 70
0
 71
3
 72
12
 73
8
 74
6
 42
0.0000001
 43
0.0000001
 44
0.0000000001
 12
-0.0790342543
 22
-0.0148572164
 32
0.0
 13
-0.0475303859
 23
0.0652575679
 33
0.0
 40
0.0
 40
0.0
 40
0.0
 40
0.0
 40
0.2307623799
 40
0.458507636
 40
0.6729260417
 40
0.8732895861
 40
1.0
 40
1.0
 40
1.0
 40
1.0
 10
6.6846639138
 20
3.9965492604
 30
0.0
 10
6.6785845363
 20
3.9954064316
 30
0.0
 10
6.6662968106
 20
3.994077252
 30
0.0
 10
6.6481867536
 20
3.9955490216
 30
0.0
 10
6.6316308483
 20
4.0009659382
 30
0.0
 10
6.6194489042
 20
4.009240621
 30
0.0
 10
6.613597424
 20
4.0158691346
 30
0.0
 10
6.6115898923
 20
4.0186254057
 30
0.0
 11
6.6846639138
 21
3.9965492604
 31
0.0
 11
6.6662028283
 21
3.9946592011
 31
0.0
 11
6.6479624743
 21
3.9963105639
 31
0.0
 11
6.6316311379
 21
4.0018437652
 31
0.0
 11
6.6183573513
 21
4.0109779806
 31
0.0
 11
6.6115898923
 21
4.0186254057
 31
0.0
  0
SPLINE
  5
4A2
100
AcDbEntity
  8
0
100
AcDbSpline
 62
7
  6
CONTINUOUS
 70
0
 71
3
 72
9
 73
5
 74
3
 42
0.0000001
 43
0.0000001
 44
0.0000000001
 12
-0.0025233528
 22
-0.0005312681
 32
0.0
 13
-0.0025342834
 23
-0.000476406
 33
0.0
 40
0.0
 40
0.0
 40
0.0
 40
0.0
 40
0.5007369032
 40
1.0
 40
1.0
 40
1.0
 40
1.0
 10
6.6871928248
 20
3.9970532133
 30
0.0
 10
6.6867716462
 20
3.9969645381
 30
0.0
 10
6.6859295702
 20
3.9967919699
 30
0.0
 10
6.6850856719
 20
3.9966285444
 30
0.0
 10
6.6846639138
 20
3.9965492604
 30
0.0
 11
6.6871928248
 21
3.9970532133
 31
0.0
 11
6.6859278722
 21
3.996794008
 31
0.0
 11
6.6846639138
 21
3.9965492604
 31
0.0
  0
SPLINE
  5
4A3
100
AcDbEntity
  8
0
100
AcDbSpline
 62
7
  6
CONTINUOUS
 70
0
 71
3
 72
12
 73
8
 74
6
 42
0.0000001
 43
0.0000001
 44
0.0000000001
 12
0.0475300006
 22
0.0652538676
 32
0.0
 13
0.0790325034
 23
-0.0148568873
 33
0.0
 40
0.0
 40
0.0
 40
0.0
 40
0.0
 40
0.1261544158
 40
0.3264105065
 40
0.5411288772
 40
0.7690266902
 40
1.0
 40
1.0
 40
1.0
 40
1.0
 10
6.6115908988
 20
4.5003876739
 30
0.0
 10
6.6135896053
 20
4.5031316951
 30
0.0
 10
6.6194261782
 20
4.5097484366
 30
0.0
 10
6.6315922644
 20
4.5180281739
 30
0.0
 10
6.6481543521
 20
4.5234578675
 30
0.0
 10
6.666281679
 20
4.5249355756
 30
0.0
 10
6.6785791142
 20
4.5236062029
 30
0.0
 10
6.6846639138
 20
4.5224623547
 30
0.0
 11
6.6115908988
 21
4.5003876739
 31
0.0
 11
6.6183255275
 21
4.5080039624
 31
0.0
 11
6.631584072
 21
4.5171444444
 31
0.0
 11
6.6479344864
 21
4.5226953086
 31
0.0
 11
6.6661862119
 21
4.5243526219
 31
0.0
 11
6.6846639138
 21
4.5224623547
 31
0.0
  0
SPLINE
  5
4A4
100
AcDbEntity
  8
0
100
AcDbSpline
 62
7
  6
CONTINUOUS
 70
0
 71
3
 72
17
 73
13
 74
11
 42
0.0000001
 43
0.0000001
 44
0.0000000001
 12
0.1095715358
 22
-0.1504233118
 32
0.0
 13
-0.1856730065
 23
-0.003679654
 33
0.0
 40
0.0
 40
0.0
 40
0.0
 40
0.0
 40
0.0577569773
 40
0.1610912565
 40
0.2542553736
 40
0.3422469943
 40
0.4321535021
 40
0.5304037285
 40
0.6375963511
 40
0.7546972706
 40
0.8781151556
 40
1.0
 40
1.0
 40
1.0
 40
1.0
 10
6.7736160632
 20
4.1154813628
 30
0.0
 10
6.7757255701
 20
4.1125853642
 30
0.0
 10
6.7811365608
 20
4.1041656645
 30
0.0
 10
6.7872271933
 20
4.0894690274
 30
0.0
 10
6.7895087231
 20
4.0717854521
 30
0.0
 10
6.7869337878
 20
4.054980071
 30
0.0
 10
6.7796445732
 20
4.0392770961
 30
0.0
 10
6.7676881757
 20
4.0251814233
 30
0.0
 10
6.7514274787
 20
4.0133239276
 30
0.0
 10
6.7317303404
 20
4.0043341384
 30
0.0
 10
6.7099198726
 20
3.9986778083
 30
0.0
 10
6.6947364
 20
3.9972027113
 30
0.0
 10
6.6871928248
 20
3.9970532133
 30
0.0
 11
6.7736160632
 21
4.1154813628
 31
0.0
 11
6.7794061203
 21
4.1064331977
 31
0.0
 11
6.7866048856
 21
4.0886444435
 31
0.0
 11
6.7887108261
 21
4.0714716315
 31
0.0
 11
6.7862166009
 21
4.0553222323
 31
0.0
 11
6.779259673
 21
4.0401441589
 31
0.0
 11
6.7675835245
 21
4.0261233187
 31
0.0
 11
6.7516076342
 21
4.014246997
 31
0.0
 11
6.7318866518
 21
4.0050816302
 31
0.0
 11
6.7097211753
 21
3.999249644
 31
0.0
 11
6.6871928248
 21
3.9970532133
 31
0.0
  0
SPLINE
  5
4A5
100
AcDbEntity
  8
0
100
AcDbSpline
 62
7
  6
CONTINUOUS
 70
0
 71
3
 72
17
 73
13
 74
11
 42
0.0000001
 43
0.0000001
 44
0.0000000001
 12
0.1856780079
 22
-0.0036797531
 32
0.0
 13
-0.1095818786
 23
-0.1504196084
 33
0.0
 40
0.0
 40
0.0
 40
0.0
 40
0.0
 40
0.1220056399
 40
0.2454318758
 40
0.3624194896
 40
0.4696777776
 40
0.5678777498
 40
0.6576293432
 40
0.7455152722
 40
0.8390870273
 40
0.9427069095
 40
1.0
 40
1.0
 40
1.0
 40
1.0
 10
6.6871928248
 20
4.5219584019
 30
0.0
 10
6.6947440795
 20
4.5218087517
 30
0.0
 10
6.7099359888
 20
4.5203316611
 30
0.0
 10
6.731747094
 20
4.5146711244
 30
0.0
 10
6.7514410334
 20
4.505679518
 30
0.0
 10
6.7676961536
 20
4.4938232779
 30
0.0
 10
6.7796444626
 20
4.4797316726
 30
0.0
 10
6.7869265503
 20
4.4640472315
 30
0.0
 10
6.7895115854
 20
4.4472342434
 30
0.0
 10
6.7872246071
 20
4.429511506
 30
0.0
 10
6.781115008
 20
4.4148060221
 30
0.0
 10
6.7757056105
 20
4.4063985071
 30
0.0
 10
6.773612849
 20
4.403525839
 30
0.0
 11
6.6871928248
 21
4.5219584019
 31
0.0
 11
6.7097439355
 21
4.5197579485
 31
0.0
 11
6.7319104712
 21
4.5139214682
 31
0.0
 11
6.7516117291
 21
4.5047621988
 31
0.0
 11
6.7675963377
 21
4.4928762654
 31
0.0
 11
6.7792643053
 21
4.4788601186
 31
0.0
 11
6.7862108703
 21
4.4637084486
 31
0.0
 11
6.7887101943
 21
4.4475792548
 31
0.0
 11
6.7865954339
 21
4.4303307834
 31
0.0
 11
6.7793616243
 21
4.4124984415
 31
0.0
 11
6.773612849
 21
4.403525839
 31
0.0
  0
SPLINE
  5
4A6
100
AcDbEntity
  8
0
100
AcDbSpline
 62
7
  6
CONTINUOUS
 70
0
 71
3
 72
9
 73
5
 74
3
 42
0.0000001
 43
0.0000001
 44
0.0000000001
 12
0.0025342834
 22
-0.000476406
 32
0.0
 13
0.0025233528
 23
-0.0005312681
 33
0.0
 40
0.0
 40
0.0
 40
0.0
 40
0.0
 40
0.4992806692
 40
1.0
 40
1.0
 40
1.0
 40
1.0
 10
6.6846639138
 20
4.5224623547
 30
0.0
 10
6.6850856867
 20
4.522383068
 30
0.0
 10
6.6859295851
 20
4.5222196424
 30
0.0
 10
6.686771661
 20
4.522047074
 30
0.0
 10
6.6871928248
 20
4.5219584019
 30
0.0
 11
6.6846639138
 21
4.5224623547
 31
0.0
 11
6.6859279167
 21
4.5222175984
 31
0.0
 11
6.6871928248
 21
4.5219584019
 31
0.0
  0
SPLINE
  5
4A7
100
AcDbEntity
  8
127-416_FEATURES
100
AcDbSpline
 62
7
  6
CONTINUOUS
 70
0
 71
3
 72
11
 73
7
 74
5
 42
0.0000001
 43
0.0000001
 44
0.0000000001
 12
0.0156541099
 22
0.0
 32
0.0
 13
0.0156449827
 23
-0.0005346667
 33
0.0
 40
0.0
 40
0.0
 40
0.0
 40
0.0
 40
0.3220410074
 40
0.6151493978
 40
0.8482337465
 40
1.0
 40
1.0
 40
1.0
 40
1.0
 10
5.814185669
 20
3.8018031203
 30
0.0
 10
5.8158660908
 20
3.8018031203
 30
0.0
 10
5.819075992
 20
3.8017854416
 30
0.0
 10
5.8235016089
 20
3.80171452
 30
0.0
 10
5.8270381558
 20
3.8016260504
 30
0.0
 10
5.8290453283
 20
3.8015626519
 30
0.0
 10
5.8298367884
 20
3.8015356038
 30
0.0
 11
5.814185669
 21
3.8018031203
 31
0.0
 11
5.8192268579
 21
3.801775359
 31
0.0
 11
5.8238146199
 21
3.8017018466
 31
0.0
 11
5.827462207
 21
3.8016106051
 31
0.0
 11
5.8298367884
 21
3.8015356038
 31
0.0
  0
SPLINE
  5
4A8
100
AcDbEntity
  8
127-416_FEATURES
100
AcDbSpline
 62
7
  6
CONTINUOUS
 70
0
 71
3
 72
8
 73
4
 74
2
 42
0.0000001
 43
0.0000001
 44
0.0000000001
 12
0.0008489081
 22
-0.0000290114
 32
0.0
 13
0.0008488526
 23
-0.000030581
 33
0.0
 40
0.0
 40
0.0
 40
0.0
 40
0.0
 40
1.0
 40
1.0
 40
1.0
 40
1.0
 10
5.8298367884
 20
3.8015356038
 30
0.0
 10
5.8301197578
 20
3.8015259334
 30
0.0
 10
5.8304027181
 20
3.8015160012
 30
0.0
 10
5.830685669
 20
3.8015058076
 30
0.0
 11
5.8298367884
 21
3.8015356038
 31
0.0
 11
5.830685669
 21
3.8015058076
 31
0.0
  0
SPLINE
  5
4A9
100
AcDbEntity
  8
127-416_FEATURES
100
AcDbSpline
 62
7
  6
CONTINUOUS
 70
0
 71
3
 72
8
 73
4
 74
2
 42
0.0000001
 43
0.0000001
 44
0.0000000001
 12
0.0008093703
 22
0.0000291586
 32
0.0
 13
0.0008094208
 23
0.0000277316
 33
0.0
 40
0.0
 40
0.0
 40
0.0
 40
0.0
 40
1.0
 40
1.0
 40
1.0
 40
1.0
 10
5.797685669
 20
3.8015058076
 30
0.0
 10
5.7979554591
 20
3.8015155271
 30
0.0
 10
5.7982252578
 20
3.8015250089
 30
0.0
 10
5.7984950647
 20
3.8015342527
 30
0.0
 11
5.797685669
 21
3.8015058076
 31
0.0
 11
5.7984950647
 21
3.8015342527
 31
0.0
  0
SPLINE
  5
4AA
100
AcDbEntity
  8
127-416_FEATURES
100
AcDbSpline
 62
7
  6
CONTINUOUS
 70
0
 71
3
 72
8
 73
4
 74
2
 42
0.0000001
 43
0.0000001
 44
0.0000000001
 12
0.0007029494
 22
0.0000240838
 32
0.0
 13
0.0007029858
 23
0.0000230072
 33
0.0
 40
0.0
 40
0.0
 40
0.0
 40
0.0
 40
1.0
 40
1.0
 40
1.0
 40
1.0
 10
5.7984950647
 20
3.8015342527
 30
0.0
 10
5.7987293812
 20
3.8015422807
 30
0.0
 10
5.7989637039
 20
3.8015501292
 30
0.0
 10
5.7991980324
 20
3.8015577983
 30
0.0
 11
5.7984950647
 21
3.8015342527
 31
0.0
 11
5.7991980324
 21
3.8015577983
 31
0.0
  0
SPLINE
  5
4AB
100
AcDbEntity
  8
127-416_FEATURES
100
AcDbSpline
 62
7
  6
CONTINUOUS
 70
0
 71
3
 72
11
 73
7
 74
5
 42
0.0000001
 43
0.0000001
 44
0.0000000001
 12
0.014982245
 22
0.0004903361
 32
0.0
 13
0.0149902548
 23
0.0
 33
0.0
 40
0.0
 40
0.0
 40
0.0
 40
0.0
 40
0.1067735616
 40
0.3489854016
 40
0.6588176577
 40
1.0
 40
1.0
 40
1.0
 40
1.0
 10
5.7991980324
 20
3.8015577983
 30
0.0
 10
5.7997312683
 20
3.8015752499
 30
0.0
 10
5.8014742302
 20
3.8016292524
 30
0.0
 10
5.8047651625
 20
3.8017124417
 30
0.0
 10
5.8092278769
 20
3.8017849443
 30
0.0
 10
5.8124808656
 20
3.8018031203
 30
0.0
 10
5.814185669
 20
3.8018031203
 30
0.0
 11
5.7991980324
 21
3.8015577983
 31
0.0
 11
5.8007978289
 21
3.8016073644
 31
0.0
 11
5.8044274868
 21
3.8016991103
 31
0.0
 11
5.8090713386
 21
3.8017745476
 31
0.0
 11
5.814185669
 21
3.8018031203
 31
0.0
  0
SPLINE
  5
4AC
100
AcDbEntity
  8
0
100
AcDbSpline
 62
7
  6
CONTINUOUS
 70
0
 71
3
 72
14
 73
10
 74
8
 42
0.0000001
 43
0.0000001
 44
0.0000000001
 12
-0.1442757118
 22
0.2708049707
 32
0.0
 13
0.1442757118
 23
0.2708049707
 33
0.0
 40
0.0
 40
0.0
 40
0.0
 40
0.0
 40
0.1539652166
 40
0.2964780264
 40
0.4328366592
 40
0.567267274
 40
0.7036195666
 40
0.846074992
 40
1.0
 40
1.0
 40
1.0
 40
1.0
 10
4.4747963403
 20
3.6261204981
 30
0.0
 10
4.4673918599
 20
3.6400186801
 30
0.0
 10
4.4543527307
 20
3.66747302
 30
0.0
 10
4.440383779
 20
3.7096228031
 30
0.0
 10
4.4332196944
 20
3.7514720064
 30
0.0
 10
4.433222497
 20
3.7933209699
 30
0.0
 10
4.4403904704
 20
3.8351628074
 30
0.0
 10
4.4543586499
 20
3.8773014442
 30
0.0
 10
4.4673937936
 20
3.9047465646
 30
0.0
 10
4.4747963403
 20
3.9186411171
 30
0.0
 11
4.4747963403
 21
3.6261204981
 31
0.0
 11
4.4547851056
 21
3.6689156219
 31
0.0
 11
4.4412731748
 21
3.7105043394
 31
0.0
 11
4.4343769665
 21
3.7517723911
 31
0.0
 11
4.4343796574
 21
3.7930210869
 31
0.0
 11
4.4412804044
 21
3.8342864076
 31
0.0
 11
4.4547896825
 21
3.8758574729
 31
0.0
 11
4.4747963403
 21
3.9186411171
 31
0.0
  0
SPLINE
  5
4AD
100
AcDbEntity
  8
0
100
AcDbSpline
 62
7
  6
CONTINUOUS
 70
0
 71
3
 72
14
 73
10
 74
8
 42
0.0000001
 43
0.0000001
 44
0.0000000001
 12
0.1442757118
 22
0.2708049707
 32
0.0
 13
-0.1442757118
 23
0.2708049707
 33
0.0
 40
0.0
 40
0.0
 40
0.0
 40
0.0
 40
0.1539652166
 40
0.2964780264
 40
0.4328366592
 40
0.567267274
 40
0.7036195666
 40
0.846074992
 40
1.0
 40
1.0
 40
1.0
 40
1.0
 10
5.0617600432
 20
3.6261204981
 30
0.0
 10
5.0691645236
 20
3.6400186801
 30
0.0
 10
5.0822036527
 20
3.66747302
 30
0.0
 10
5.0961726044
 20
3.7096228031
 30
0.0
 10
5.1033366891
 20
3.7514720064
 30
0.0
 10
5.1033338864
 20
3.7933209699
 30
0.0
 10
5.096165913
 20
3.8351628074
 30
0.0
 10
5.0821977335
 20
3.8773014442
 30
0.0
 10
5.0691625899
 20
3.9047465646
 30
0.0
 10
5.0617600432
 20
3.9186411171
 30
0.0
 11
5.0617600432
 21
3.6261204981
 31
0.0
 11
5.0817712778
 21
3.6689156219
 31
0.0
 11
5.0952832086
 21
3.7105043394
 31
0.0
 11
5.1021794169
 21
3.7517723911
 31
0.0
 11
5.102176726
 21
3.7930210869
 31
0.0
 11
5.095275979
 21
3.8342864076
 31
0.0
 11
5.0817667009
 21
3.8758574729
 31
0.0
 11
5.0617600432
 21
3.9186411171
 31
0.0
  0
SPLINE
  5
4AE
100
AcDbEntity
  8
0
100
AcDbSpline
 62
7
  6
CONTINUOUS
 70
0
 71
3
 72
14
 73
10
 74
8
 42
0.0000001
 43
0.0000001
 44
0.0000000001
 12
-0.1524912644
 22
0.5724510643
 32
0.0
 13
0.1524912644
 23
0.5724510643
 33
0.0
 40
0.0
 40
0.0
 40
0.0
 40
0.0
 40
0.1483734886
 40
0.2906183378
 40
0.4304255817
 40
0.5696820058
 40
0.7094806994
 40
0.8516660081
 40
1.0
 40
1.0
 40
1.0
 40
1.0
 10
4.4747963403
 20
3.9669851887
 30
0.0
 10
4.4672544533
 20
3.9952973758
 30
0.0
 10
4.454051334
 20
4.0511927187
 30
0.0
 10
4.4402480448
 20
4.135136575
 30
0.0
 10
4.4332167666
 20
4.2181298815
 30
0.0
 10
4.4332195076
 20
4.3009438445
 30
0.0
 10
4.4402546864
 20
4.3839232894
 30
0.0
 10
4.454057427
 20
4.4678456019
 30
0.0
 10
4.4672564609
 20
4.523721776
 30
0.0
 10
4.4747963403
 20
4.5520264265
 30
0.0
 11
4.4747963403
 21
3.9669851887
 31
0.0
 11
4.4547851056
 21
4.0525754363
 31
0.0
 11
4.4412731748
 21
4.1357528711
 31
0.0
 11
4.4343769665
 21
4.2182889747
 31
0.0
 11
4.4343796574
 21
4.3007863663
 31
0.0
 11
4.4412804044
 21
4.3833170075
 31
0.0
 11
4.4547896825
 21
4.4664591382
 31
0.0
 11
4.4747963403
 21
4.5520264265
 31
0.0
  0
SPLINE
  5
4AF
100
AcDbEntity
  8
0
100
AcDbSpline
 62
7
  6
CONTINUOUS
 70
0
 71
3
 72
14
 73
10
 74
8
 42
0.0000001
 43
0.0000001
 44
0.0000000001
 12
0.1524912644
 22
0.5724510643
 32
0.0
 13
-0.1524912644
 23
0.5724510643
 33
0.0
 40
0.0
 40
0.0
 40
0.0
 40
0.0
 40
0.1483734886
 40
0.2906183378
 40
0.4304255817
 40
0.5696820058
 40
0.7094806994
 40
0.8516660081
 40
1.0
 40
1.0
 40
1.0
 40
1.0
 10
5.0617600432
 20
3.9669851887
 30
0.0
 10
5.0693019301
 20
3.9952973758
 30
0.0
 10
5.0825050494
 20
4.0511927187
 30
0.0
 10
5.0963083386
 20
4.135136575
 30
0.0
 10
5.1033396168
 20
4.2181298815
 30
0.0
 10
5.1033368758
 20
4.3009438445
 30
0.0
 10
5.096301697
 20
4.3839232894
 30
0.0
 10
5.0824989564
 20
4.4678456019
 30
0.0
 10
5.0692999225
 20
4.523721776
 30
0.0
 10
5.0617600432
 20
4.5520264265
 30
0.0
 11
5.0617600432
 21
3.9669851887
 31
0.0
 11
5.0817712778
 21
4.0525754363
 31
0.0
 11
5.0952832086
 21
4.1357528711
 31
0.0
 11
5.1021794169
 21
4.2182889747
 31
0.0
 11
5.102176726
 21
4.3007863663
 31
0.0
 11
5.095275979
 21
4.3833170075
 31
0.0
 11
5.0817667009
 21
4.4664591382
 31
0.0
 11
5.0617600432
 21
4.5520264265
 31
0.0
  0
SPLINE
  5
4B0
100
AcDbEntity
  8
0
100
AcDbSpline
 62
7
  6
CONTINUOUS
 70
0
 71
3
 72
14
 73
10
 74
8
 42
0.0000001
 43
0.0000001
 44
0.0000000001
 12
-0.1442757118
 22
0.2708049707
 32
0.0
 13
0.1442757118
 23
0.2708049707
 33
0.0
 40
0.0
 40
0.0
 40
0.0
 40
0.0
 40
0.1539652166
 40
0.2964780264
 40
0.4328366592
 40
0.567267274
 40
0.7036195666
 40
0.846074992
 40
1.0
 40
1.0
 40
1.0
 40
1.0
 10
4.4747963403
 20
4.6003704981
 30
0.0
 10
4.4673918599
 20
4.6142686801
 30
0.0
 10
4.4543527307
 20
4.64172302
 30
0.0
 10
4.440383779
 20
4.6838728031
 30
0.0
 10
4.4332196944
 20
4.7257220064
 30
0.0
 10
4.433222497
 20
4.7675709699
 30
0.0
 10
4.4403904704
 20
4.8094128074
 30
0.0
 10
4.4543586499
 20
4.8515514442
 30
0.0
 10
4.4673937936
 20
4.8789965646
 30
0.0
 10
4.4747963403
 20
4.8928911171
 30
0.0
 11
4.4747963403
 21
4.6003704981
 31
0.0
 11
4.4547851056
 21
4.6431656219
 31
0.0
 11
4.4412731748
 21
4.6847543394
 31
0.0
 11
4.4343769665
 21
4.7260223911
 31
0.0
 11
4.4343796574
 21
4.7672710869
 31
0.0
 11
4.4412804044
 21
4.8085364076
 31
0.0
 11
4.4547896825
 21
4.8501074729
 31
0.0
 11
4.4747963403
 21
4.8928911171
 31
0.0
  0
SPLINE
  5
4B1
100
AcDbEntity
  8
0
100
AcDbSpline
 62
7
  6
CONTINUOUS
 70
0
 71
3
 72
14
 73
10
 74
8
 42
0.0000001
 43
0.0000001
 44
0.0000000001
 12
0.1442757118
 22
0.2708049707
 32
0.0
 13
-0.1442757118
 23
0.2708049707
 33
0.0
 40
0.0
 40
0.0
 40
0.0
 40
0.0
 40
0.1539652166
 40
0.2964780264
 40
0.4328366592
 40
0.567267274
 40
0.7036195666
 40
0.846074992
 40
1.0
 40
1.0
 40
1.0
 40
1.0
 10
5.0617600432
 20
4.6003704981
 30
0.0
 10
5.0691645236
 20
4.6142686801
 30
0.0
 10
5.0822036527
 20
4.64172302
 30
0.0
 10
5.0961726044
 20
4.6838728031
 30
0.0
 10
5.1033366891
 20
4.7257220064
 30
0.0
 10
5.1033338864
 20
4.7675709699
 30
0.0
 10
5.096165913
 20
4.8094128074
 30
0.0
 10
5.0821977335
 20
4.8515514442
 30
0.0
 10
5.0691625899
 20
4.8789965646
 30
0.0
 10
5.0617600432
 20
4.8928911171
 30
0.0
 11
5.0617600432
 21
4.6003704981
 31
0.0
 11
5.0817712778
 21
4.6431656219
 31
0.0
 11
5.0952832086
 21
4.6847543394
 31
0.0
 11
5.1021794169
 21
4.7260223911
 31
0.0
 11
5.102176726
 21
4.7672710869
 31
0.0
 11
5.095275979
 21
4.8085364076
 31
0.0
 11
5.0817667009
 21
4.8501074729
 31
0.0
 11
5.0617600432
 21
4.8928911171
 31
0.0
  0
ENDSEC
  0
SECTION
  2
OBJECTS
  0
DICTIONARY
  5
C
100
AcDbDictionary
280
0
281
1
  3
ACAD_GROUP
350
D
  3
ACAD_MLINESTYLE
350
17
  3
ACAD_LAYOUT
350
1A
  3
ACAD_PLOTSETTINGS
350
19
  3
ACAD_PLOTSTYLENAME
350
E
  0
DICTIONARY
  5
D
102
{ACAD_REACTORS
330
C
102
}
100
AcDbDictionary
280
0
281
1
  0
ACDBDICTIONARYWDFLT
  5
E
102
{ACAD_REACTORS
330
C
102
}
100
AcDbDictionary
281
1
  3
Normal
350
F
100
AcDbDictionaryWithDefault
340
F
  0
DICTIONARY
  5
17
102
{ACAD_REACTORS
330
C
102
}
100
AcDbDictionary
280
0
281
1
  3
Standard
350
18
  0
DICTIONARY
  5
19
102
{ACAD_REACTORS
330
C
102
}
100
AcDbDictionary
281
1
  0
DICTIONARY
  5
1A
102
{ACAD_REACTORS
330
C
102
}
100
AcDbDictionary
281
1
  3
Layout1
350
1E
  3
Model
350
22
  0
ACDBPLACEHOLDER
  5
F
102
{ACAD_REACTORS
330
E
102
}
  0
MLINESTYLE
  5
18
102
{ACAD_REACTORS
330
17
102
}
100
AcDbMlineStyle
  2
STANDARD
 70
0
  3

 62
256
 51
90.0
 52
90.0
 71
2
 49
0.5
 62
256
  6
BYLAYER
 49
-0.5
 62
256
  6
BYLAYER
  0
LAYOUT
  5
1E
102
{ACAD_REACTORS
330
1A
102
}
100
AcDbPlotSettings
  1

  2

  4

  6

 40
0.0
 41
0.0
 42
0.0
 43
0.0
 44
0.0
 45
0.0
 46
0.0
 47
0.0
 48
0.0
 49
0.0
140
0.0
141
0.0
142
1.0
143
1.0
 70
0
 72
0
 73
0
 74
0
  7

 75
0
147
1.0
148
0.0
149
0.0
100
AcDbLayout
  1
Layout1
 70
0
 71
0
 10
0.0
 20
0.0
 11
0.0
 21
0.0
 12
0.0
 22
0.0
 32
0.0
 14
0.0
 24
0.0
 34
0.0
 15
0.0
 25
0.0
 35
0.0
146
0.0
 13
0.0
 23
0.0
 33
0.0
 16
0.0
 26
0.0
 36
0.0
 17
0.0
 27
0.0
 37
0.0
 76
0
330
1B
331
0
345
0
346
0
  0
LAYOUT
  5
22
102
{ACAD_REACTORS
330
1A
102
}
100
AcDbPlotSettings
  1

  2

  4

  6

 40
0.0
 41
0.0
 42
0.0
 43
0.0
 44
0.0
 45
0.0
 46
0.0
 47
0.0
 48
0.0
 49
0.0
140
0.0
141
0.0
142
1.0
143
1.0
 70
0
 72
0
 73
0
 74
0
  7

 75
0
147
1.0
148
0.0
149
0.0
100
AcDbLayout
  1
Model
 70
0
 71
0
 10
0.0
 20
0.0
 11
0.0
 21
0.0
 12
0.0
 22
0.0
 32
0.0
 14
0.0
 24
0.0
 34
0.0
 15
0.0
 25
0.0
 35
0.0
146
0.0
 13
0.0
 23
0.0
 33
0.0
 16
0.0
 26
0.0
 36
0.0
 17
0.0
 27
0.0
 37
0.0
 76
0
330
1F
331
0
345
0
346
0
  0
ENDSEC
  0
EOF
