999
DXF file: CBCY-LIN.dxf
999
Pro/ENGINEER 2006240 by Parametric Technology Corporation
  0
SECTION
  2
HEADER
  9
$ACADVER
  1
AC1015
  9
$DWGCODEPAGE
  3
ANSI_1252
  9
$EXTMAX
 10
11.6929133858
 20
8.2677165354
 30
0.0
  9
$EXTMIN
 10
0.0
 20
0.0
 30
0.0
  9
$LIMMIN
 10
0.0
 20
0.0
  9
$LIMMAX
 10
11.6929133858
 20
8.2677165354
  9
$VIEWCTR
 10
5.8464566929
 20
4.1338582677
  9
$VIEWSIZE
 40
8.2677165354
  9
$CLAYER
  8
0
  9
$LTSCALE
 40
0.6431102362
  9
$CELTYPE
  6
BYLAYER
  9
$DIMSCALE
 40
1.0
  9
$DIMASZ
 40
0.1875
  9
$DIMEXO
 40
0.0730807087
  9
$DIMDLI
 40
0.4443307087
  9
$DIMEXE
 40
0.2104724409
  9
$DIMCEN
 40
0.1052362205
  9
$DIMLFAC
 40
1.0
  9
$DIMBLK
  1
_CLOSED
  9
$DIMTXT
 40
0.15625
  9
$DIMTOL
 70
0
  9
$DIMLIM
 70
0
  9
$DIMTFAC
 40
1.0
  9
$PDMODE
 70
3
  9
$PDSIZE
 40
0.3125
  9
$HANDSEED
  5
4B7
  9
$MEASUREMENT
 70
0
  9
$INSUNITS
 70
1
  0
ENDSEC
  0
SECTION
  2
CLASSES
  0
CLASS
  1
ACDBDICTIONARYWDFLT
  2
AcDbDictionaryWithDefault
  3
AutoCAD 2000
 90
0
280
0
281
0
  0
CLASS
  1
ACDBPLACEHOLDER
  2
AcDbPlaceHolder
  3
AutoCAD 2000
 90
0
280
0
281
0
  0
CLASS
  1
LAYOUT
  2
AcDbLayout
  3
AutoCAD 2000
 90
0
280
0
281
0
  0
ENDSEC
  0
SECTION
  2
TABLES
  0
TABLE
  2
VPORT
  5
8
100
AcDbSymbolTable
 70
2
  0
VPORT
  5
1F4
100
AcDbSymbolTableRecord
100
AcDbViewportTableRecord
  2
*ACTIVE
 70
0
 10
0.0
 20
0.0
 11
1.0
 21
1.0
 12
5.8464566929
 22
4.1338582677
 13
0.0
 23
0.0
 14
1.0
 24
1.0
 15
0.0
 25
0.0
 16
0.0
 26
0.0
 36
1.0
 17
0.0
 27
0.0
 37
0.0
 40
8.2677165354
 41
1.4142857143
 42
50.0
 43
0.0
 44
0.0
 50
0.0
 51
0.0
 71
0
 72
100
 73
1
 74
1
 75
0
 76
0
 77
0
 78
0
  0
ENDTAB
  0
TABLE
  2
LTYPE
  5
5
100
AcDbSymbolTable
 70
6
  0
LTYPE
  5
14
100
AcDbSymbolTableRecord
100
AcDbLinetypeTableRecord
  2
BYBLOCK
 70
0
  3

 72
65
 73
0
 40
0.0
  0
LTYPE
  5
15
100
AcDbSymbolTableRecord
100
AcDbLinetypeTableRecord
  2
BYLAYER
 70
0
  3

 72
65
 73
0
 40
0.0
  0
LTYPE
  5
16
100
AcDbSymbolTableRecord
100
AcDbLinetypeTableRecord
  2
CONTINUOUS
 70
64
  3
Solid line
 72
65
 73
0
 40
0.0
  0
LTYPE
  5
1F5
100
AcDbSymbolTableRecord
100
AcDbLinetypeTableRecord
  2
CENTER
 70
64
  3
____ _ ____ _ ____ _ ____ _ ____ _ ____ _ ____
 72
65
 73
4
 40
0.6
 49
0.375
 74
0
 49
-0.075
 74
0
 49
0.075
 74
0
 49
-0.075
 74
0
  0
LTYPE
  5
1F6
100
AcDbSymbolTableRecord
100
AcDbLinetypeTableRecord
  2
HIDDEN
 70
64
  3
- - - - - - - - - - - - - - - - - - - -
 72
65
 73
2
 40
0.2
 49
0.1
 74
0
 49
-0.1
 74
0
  0
LTYPE
  5
1F7
100
AcDbSymbolTableRecord
100
AcDbLinetypeTableRecord
  2
PHANTOM
 70
64
  3
_____ _ _ _____ _ _ _____ _ _ _____
 72
65
 73
6
 40
0.8
 49
0.45
 74
0
 49
-0.05
 74
0
 49
0.1
 74
0
 49
-0.05
 74
0
 49
0.1
 74
0
 49
-0.05
 74
0
  0
LTYPE
  5
1F8
100
AcDbSymbolTableRecord
100
AcDbLinetypeTableRecord
  2
DOT
 70
64
  3
. . . . . . . . . . . . . . . . . . . .
 72
65
 73
2
 40
0.2
 49
0.1
 74
0
 49
-0.1
 74
0
  0
LTYPE
  5
1F9
100
AcDbSymbolTableRecord
100
AcDbLinetypeTableRecord
  2
DASHED
 70
64
  3
- - - - - - - - - - - - - - - - - - - -
 72
65
 73
2
 40
0.2
 49
0.1
 74
0
 49
-0.1
 74
0
  0
ENDTAB
  0
TABLE
  2
LAYER
  5
2
100
AcDbSymbolTable
 70
36
  0
LAYER
  5
10
100
AcDbSymbolTableRecord
100
AcDbLayerTableRecord
  2
0
 70
0
 62
7
  6
CONTINUOUS
370
-3
390
F
  0
LAYER
  5
1FA
100
AcDbSymbolTableRecord
100
AcDbLayerTableRecord
  2
DEFAULT_1
 70
0
 62
7
  6
CENTER
370
-3
390
F
  0
LAYER
  5
1FB
100
AcDbSymbolTableRecord
100
AcDbLayerTableRecord
  2
DEFAULT_2
 70
0
 62
8
  6
HIDDEN
370
-3
390
F
  0
LAYER
  5
1FC
100
AcDbSymbolTableRecord
100
AcDbLayerTableRecord
  2
DEFAULT_3
 70
0
 62
7
  6
PHANTOM
370
-3
390
F
  0
LAYER
  5
1FD
100
AcDbSymbolTableRecord
100
AcDbLayerTableRecord
  2
_BLACK_HOLE
 70
0
 62
7
  6
CONTINUOUS
370
-3
390
F
  0
LAYER
  5
1FE
100
AcDbSymbolTableRecord
100
AcDbLayerTableRecord
  2
01_ALL_DTM_PLN
 70
0
 62
7
  6
CONTINUOUS
370
-3
390
F
  0
LAYER
  5
1FF
100
AcDbSymbolTableRecord
100
AcDbLayerTableRecord
  2
01__ASM_ALL_DTM_PLN
 70
0
 62
7
  6
CONTINUOUS
370
-3
390
F
  0
LAYER
  5
200
100
AcDbSymbolTableRecord
100
AcDbLayerTableRecord
  2
01__ASM_DEF_DTM_PLN
 70
0
 62
7
  6
CONTINUOUS
370
-3
390
F
  0
LAYER
  5
201
100
AcDbSymbolTableRecord
100
AcDbLayerTableRecord
  2
01___PRT_ALL_DTM_PLN
 70
0
 62
7
  6
CONTINUOUS
370
-3
390
F
  0
LAYER
  5
202
100
AcDbSymbolTableRecord
100
AcDbLayerTableRecord
  2
01___PRT_DEF_DTM_PLN
 70
0
 62
7
  6
CONTINUOUS
370
-3
390
F
  0
LAYER
  5
203
100
AcDbSymbolTableRecord
100
AcDbLayerTableRecord
  2
02_ALL_AXES
 70
0
 62
7
  6
CONTINUOUS
370
-3
390
F
  0
LAYER
  5
204
100
AcDbSymbolTableRecord
100
AcDbLayerTableRecord
  2
02__ASM_ALL_AXES
 70
0
 62
7
  6
CONTINUOUS
370
-3
390
F
  0
LAYER
  5
205
100
AcDbSymbolTableRecord
100
AcDbLayerTableRecord
  2
02___PRT_ALL_AXES
 70
0
 62
7
  6
CONTINUOUS
370
-3
390
F
  0
LAYER
  5
206
100
AcDbSymbolTableRecord
100
AcDbLayerTableRecord
  2
03_ALL_CURVES
 70
0
 62
7
  6
CONTINUOUS
370
-3
390
F
  0
LAYER
  5
207
100
AcDbSymbolTableRecord
100
AcDbLayerTableRecord
  2
03__ASM_ALL_CURVES
 70
0
 62
7
  6
CONTINUOUS
370
-3
390
F
  0
LAYER
  5
208
100
AcDbSymbolTableRecord
100
AcDbLayerTableRecord
  2
03___PRT_ALL_CURVES
 70
0
 62
7
  6
CONTINUOUS
370
-3
390
F
  0
LAYER
  5
209
100
AcDbSymbolTableRecord
100
AcDbLayerTableRecord
  2
04_ALL_DTM_PNT
 70
0
 62
7
  6
CONTINUOUS
370
-3
390
F
  0
LAYER
  5
20A
100
AcDbSymbolTableRecord
100
AcDbLayerTableRecord
  2
04__ASM_ALL_DTM_PNT
 70
0
 62
7
  6
CONTINUOUS
370
-3
390
F
  0
LAYER
  5
20B
100
AcDbSymbolTableRecord
100
AcDbLayerTableRecord
  2
04___PRT_ALL_DTM_PNT
 70
0
 62
7
  6
CONTINUOUS
370
-3
390
F
  0
LAYER
  5
20C
100
AcDbSymbolTableRecord
100
AcDbLayerTableRecord
  2
05_ALL_DTM_CSYS
 70
0
 62
7
  6
CONTINUOUS
370
-3
390
F
  0
LAYER
  5
20D
100
AcDbSymbolTableRecord
100
AcDbLayerTableRecord
  2
05__ASM_ALL_DTM_CSYS
 70
0
 62
7
  6
CONTINUOUS
370
-3
390
F
  0
LAYER
  5
20E
100
AcDbSymbolTableRecord
100
AcDbLayerTableRecord
  2
05__ASM_DEF_DTM_CSYS
 70
0
 62
7
  6
CONTINUOUS
370
-3
390
F
  0
LAYER
  5
20F
100
AcDbSymbolTableRecord
100
AcDbLayerTableRecord
  2
05___PRT_ALL_DTM_CSYS
 70
0
 62
7
  6
CONTINUOUS
370
-3
390
F
  0
LAYER
  5
210
100
AcDbSymbolTableRecord
100
AcDbLayerTableRecord
  2
05___PRT_DEF_DTM_CSYS
 70
0
 62
7
  6
CONTINUOUS
370
-3
390
F
  0
LAYER
  5
211
100
AcDbSymbolTableRecord
100
AcDbLayerTableRecord
  2
06_ALL_SURFS
 70
0
 62
7
  6
CONTINUOUS
370
-3
390
F
  0
LAYER
  5
212
100
AcDbSymbolTableRecord
100
AcDbLayerTableRecord
  2
06__ASM_ALL_SURFS
 70
0
 62
7
  6
CONTINUOUS
370
-3
390
F
  0
LAYER
  5
213
100
AcDbSymbolTableRecord
100
AcDbLayerTableRecord
  2
06___PRT_ALL_SURFS
 70
0
 62
7
  6
CONTINUOUS
370
-3
390
F
  0
LAYER
  5
214
100
AcDbSymbolTableRecord
100
AcDbLayerTableRecord
  2
07__ASM_ALL_SKELETONS
 70
0
 62
7
  6
CONTINUOUS
370
-3
390
F
  0
LAYER
  5
215
100
AcDbSymbolTableRecord
100
AcDbLayerTableRecord
  2
126-001_HEX_FEATURES
 70
0
 62
7
  6
CONTINUOUS
370
-3
390
F
  0
LAYER
  5
216
100
AcDbSymbolTableRecord
100
AcDbLayerTableRecord
  2
126-001_REF_GEOMETRY
 70
0
 62
7
  6
CONTINUOUS
370
-3
390
F
  0
LAYER
  5
217
100
AcDbSymbolTableRecord
100
AcDbLayerTableRecord
  2
126-004_HEX_FEATURES
 70
0
 62
7
  6
CONTINUOUS
370
-3
390
F
  0
LAYER
  5
218
100
AcDbSymbolTableRecord
100
AcDbLayerTableRecord
  2
126-004_REF_GEOMETRY
 70
0
 62
7
  6
CONTINUOUS
370
-3
390
F
  0
LAYER
  5
219
100
AcDbSymbolTableRecord
100
AcDbLayerTableRecord
  2
126-400_HEX_FEATURES
 70
0
 62
7
  6
CONTINUOUS
370
-3
390
F
  0
LAYER
  5
21A
100
AcDbSymbolTableRecord
100
AcDbLayerTableRecord
  2
126-400_REF_GEOMETRY
 70
0
 62
7
  6
CONTINUOUS
370
-3
390
F
  0
LAYER
  5
21B
100
AcDbSymbolTableRecord
100
AcDbLayerTableRecord
  2
126-401_HEX_FEATURES
 70
0
 62
7
  6
CONTINUOUS
370
-3
390
F
  0
LAYER
  5
21C
100
AcDbSymbolTableRecord
100
AcDbLayerTableRecord
  2
126-401_REF_GEOMETRY
 70
0
 62
7
  6
CONTINUOUS
370
-3
390
F
  0
LAYER
  5
21D
100
AcDbSymbolTableRecord
100
AcDbLayerTableRecord
  2
126-402_HEX_FEATURES
 70
0
 62
7
  6
CONTINUOUS
370
-3
390
F
  0
LAYER
  5
21E
100
AcDbSymbolTableRecord
100
AcDbLayerTableRecord
  2
126-402_REF_GEOMETRY
 70
0
 62
7
  6
CONTINUOUS
370
-3
390
F
  0
LAYER
  5
21F
100
AcDbSymbolTableRecord
100
AcDbLayerTableRecord
  2
126-403_HEX_FEATURES
 70
0
 62
7
  6
CONTINUOUS
370
-3
390
F
  0
LAYER
  5
220
100
AcDbSymbolTableRecord
100
AcDbLayerTableRecord
  2
126-403_REF_GEOMETRY
 70
0
 62
7
  6
CONTINUOUS
370
-3
390
F
  0
LAYER
  5
221
100
AcDbSymbolTableRecord
100
AcDbLayerTableRecord
  2
126-404_HEX_FEATURES
 70
0
 62
7
  6
CONTINUOUS
370
-3
390
F
  0
LAYER
  5
222
100
AcDbSymbolTableRecord
100
AcDbLayerTableRecord
  2
126-404_REF_GEOMETRY
 70
0
 62
7
  6
CONTINUOUS
370
-3
390
F
  0
LAYER
  5
223
100
AcDbSymbolTableRecord
100
AcDbLayerTableRecord
  2
126-405_HEX_FEATURES
 70
0
 62
7
  6
CONTINUOUS
370
-3
390
F
  0
LAYER
  5
224
100
AcDbSymbolTableRecord
100
AcDbLayerTableRecord
  2
126-405_REF_GEOMETRY
 70
0
 62
7
  6
CONTINUOUS
370
-3
390
F
  0
LAYER
  5
225
100
AcDbSymbolTableRecord
100
AcDbLayerTableRecord
  2
126-406_HEX_FEATURES
 70
0
 62
7
  6
CONTINUOUS
370
-3
390
F
  0
LAYER
  5
226
100
AcDbSymbolTableRecord
100
AcDbLayerTableRecord
  2
126-406_REF_GEOMETRY
 70
0
 62
7
  6
CONTINUOUS
370
-3
390
F
  0
LAYER
  5
227
100
AcDbSymbolTableRecord
100
AcDbLayerTableRecord
  2
A00_SLOT
 70
0
 62
7
  6
CONTINUOUS
370
-3
390
F
  0
LAYER
  5
228
100
AcDbSymbolTableRecord
100
AcDbLayerTableRecord
  2
ANGLE_HOLE_DTM
 70
0
 62
7
  6
CONTINUOUS
370
-3
390
F
  0
LAYER
  5
229
100
AcDbSymbolTableRecord
100
AcDbLayerTableRecord
  2
AXIS
 70
0
 62
7
  6
CONTINUOUS
370
-3
390
F
  0
LAYER
  5
22A
100
AcDbSymbolTableRecord
100
AcDbLayerTableRecord
  2
COPY_GEO_FET
 70
0
 62
7
  6
CONTINUOUS
370
-3
390
F
  0
LAYER
  5
22B
100
AcDbSymbolTableRecord
100
AcDbLayerTableRecord
  2
COSMETIC
 70
0
 62
7
  6
CONTINUOUS
370
-3
390
F
  0
LAYER
  5
22C
100
AcDbSymbolTableRecord
100
AcDbLayerTableRecord
  2
CURVES
 70
0
 62
7
  6
CONTINUOUS
370
-3
390
F
  0
LAYER
  5
22D
100
AcDbSymbolTableRecord
100
AcDbLayerTableRecord
  2
CUT_REF_SURF
 70
0
 62
7
  6
CONTINUOUS
370
-3
390
F
  0
LAYER
  5
22E
100
AcDbSymbolTableRecord
100
AcDbLayerTableRecord
  2
DATUM
 70
0
 62
7
  6
CONTINUOUS
370
-3
390
F
  0
LAYER
  5
22F
100
AcDbSymbolTableRecord
100
AcDbLayerTableRecord
  2
DATUMCURVES
 70
0
 62
7
  6
CONTINUOUS
370
-3
390
F
  0
LAYER
  5
230
100
AcDbSymbolTableRecord
100
AcDbLayerTableRecord
  2
DATUM_B
 70
0
 62
7
  6
CONTINUOUS
370
-3
390
F
  0
LAYER
  5
231
100
AcDbSymbolTableRecord
100
AcDbLayerTableRecord
  2
DIMENSIONS
 70
0
 62
7
  6
CONTINUOUS
370
-3
390
F
  0
LAYER
  5
232
100
AcDbSymbolTableRecord
100
AcDbLayerTableRecord
  2
DRAWINGNOTES
 70
0
 62
7
  6
CONTINUOUS
370
-3
390
F
  0
LAYER
  5
233
100
AcDbSymbolTableRecord
100
AcDbLayerTableRecord
  2
DTM
 70
0
 62
7
  6
CONTINUOUS
370
-3
390
F
  0
LAYER
  5
234
100
AcDbSymbolTableRecord
100
AcDbLayerTableRecord
  2
DTM230
 70
0
 62
7
  6
CONTINUOUS
370
-3
390
F
  0
LAYER
  5
235
100
AcDbSymbolTableRecord
100
AcDbLayerTableRecord
  2
DTM_300-001-___
 70
0
 62
7
  6
CONTINUOUS
370
-3
390
F
  0
LAYER
  5
236
100
AcDbSymbolTableRecord
100
AcDbLayerTableRecord
  2
DTM_350-012
 70
0
 62
7
  6
CONTINUOUS
370
-3
390
F
  0
LAYER
  5
237
100
AcDbSymbolTableRecord
100
AcDbLayerTableRecord
  2
DTM_500001
 70
0
 62
7
  6
CONTINUOUS
370
-3
390
F
  0
LAYER
  5
238
100
AcDbSymbolTableRecord
100
AcDbLayerTableRecord
  2
DTM_500002
 70
0
 62
7
  6
CONTINUOUS
370
-3
390
F
  0
LAYER
  5
239
100
AcDbSymbolTableRecord
100
AcDbLayerTableRecord
  2
DTM_515002
 70
0
 62
7
  6
CONTINUOUS
370
-3
390
F
  0
LAYER
  5
23A
100
AcDbSymbolTableRecord
100
AcDbLayerTableRecord
  2
DTM_LAYOUT
 70
0
 62
7
  6
CONTINUOUS
370
-3
390
F
  0
LAYER
  5
23B
100
AcDbSymbolTableRecord
100
AcDbLayerTableRecord
  2
DTM_SPRING_RH
 70
0
 62
7
  6
CONTINUOUS
370
-3
390
F
  0
LAYER
  5
23C
100
AcDbSymbolTableRecord
100
AcDbLayerTableRecord
  2
DTM_SP_RH_CONSTR
 70
0
 62
7
  6
CONTINUOUS
370
-3
390
F
  0
LAYER
  5
23D
100
AcDbSymbolTableRecord
100
AcDbLayerTableRecord
  2
DTP325-083
 70
0
 62
7
  6
CONTINUOUS
370
-3
390
F
  0
LAYER
  5
23E
100
AcDbSymbolTableRecord
100
AcDbLayerTableRecord
  2
GEOMETRICTOLERANCES
 70
0
 62
7
  6
CONTINUOUS
370
-3
390
F
  0
LAYER
  5
23F
100
AcDbSymbolTableRecord
100
AcDbLayerTableRecord
  2
NPTF_PORT_PER_S-164
 70
0
 62
7
  6
CONTINUOUS
370
-3
390
F
  0
LAYER
  5
240
100
AcDbSymbolTableRecord
100
AcDbLayerTableRecord
  2
PARAMETERDIMENSIONS
 70
0
 62
7
  6
CONTINUOUS
370
-3
390
F
  0
LAYER
  5
241
100
AcDbSymbolTableRecord
100
AcDbLayerTableRecord
  2
PLANE
 70
0
 62
7
  6
CONTINUOUS
370
-3
390
F
  0
LAYER
  5
242
100
AcDbSymbolTableRecord
100
AcDbLayerTableRecord
  2
REF
 70
0
 62
7
  6
CONTINUOUS
370
-3
390
F
  0
LAYER
  5
243
100
AcDbSymbolTableRecord
100
AcDbLayerTableRecord
  2
SPEC_SAE-4_PORT
 70
0
 62
7
  6
CONTINUOUS
370
-3
390
F
  0
LAYER
  5
244
100
AcDbSymbolTableRecord
100
AcDbLayerTableRecord
  2
STD_SAE-4_PORT
 70
0
 62
7
  6
CONTINUOUS
370
-3
390
F
  0
LAYER
  5
245
100
AcDbSymbolTableRecord
100
AcDbLayerTableRecord
  2
TEXT
 70
0
 62
7
  6
CONTINUOUS
370
-3
390
F
  0
LAYER
  5
246
100
AcDbSymbolTableRecord
100
AcDbLayerTableRecord
  2
THREAD
 70
0
 62
7
  6
CONTINUOUS
370
-3
390
F
  0
LAYER
  5
247
100
AcDbSymbolTableRecord
100
AcDbLayerTableRecord
  2
WIRE_GRV-SLOT_DRW_REF
 70
0
 62
7
  6
CONTINUOUS
370
-3
390
F
  0
LAYER
  5
248
100
AcDbSymbolTableRecord
100
AcDbLayerTableRecord
  2
XSEC_DATUMS
 70
0
 62
7
  6
CONTINUOUS
370
-3
390
F
  0
ENDTAB
  0
TABLE
  2
STYLE
  5
3
100
AcDbSymbolTable
 70
1
  0
STYLE
  5
11
100
AcDbSymbolTableRecord
100
AcDbTextStyleTableRecord
  2
STANDARD
 70
0
 40
0.0
 41
0.8
 50
0.0
 71
0
 42
0.2
  3
txt
  4

  0
ENDTAB
  0
TABLE
  2
VIEW
  5
6
100
AcDbSymbolTable
 70
0
  0
ENDTAB
  0
TABLE
  2
UCS
  5
7
100
AcDbSymbolTable
 70
0
  0
ENDTAB
  0
TABLE
  2
APPID
  5
9
100
AcDbSymbolTable
 70
1
  0
APPID
  5
249
100
AcDbSymbolTableRecord
100
AcDbRegAppTableRecord
  2
ACAD
 70
0
  0
ENDTAB
  0
TABLE
  2
BLOCK_RECORD
  5
1
100
AcDbSymbolTable
 70
0
  0
BLOCK_RECORD
  5
1F
100
AcDbSymbolTableRecord
100
AcDbBlockTableRecord
  2
*MODEL_SPACE
  0
BLOCK_RECORD
  5
1B
100
AcDbSymbolTableRecord
100
AcDbBlockTableRecord
  2
*PAPER_SPACE
  0
ENDTAB
  0
TABLE
  2
DIMSTYLE
  5
A
100
AcDbSymbolTable
 70
1
100
AcDbDimStyleTable
 71
0
  0
DIMSTYLE
105
24A
100
AcDbSymbolTableRecord
100
AcDbDimStyleTableRecord
  2
STANDARD
 70
0
  3

  4

 40
1.0
 41
0.1875
 42
0.0625
 43
0.38
 44
0.18
 45
0.0
 46
0.0
 47
0.01
 48
0.01
140
0.15625
141
0.09
142
0.0
143
25.4
144
1.0
145
0.0
146
1.0
147
0.09
 71
0.0
 72
0.0
 73
1
 74
1
 75
0
 76
0
 77
0
 78
4
170
0
171
2
172
0
173
0
174
0
175
0
176
0
177
0
178
0
270
2
271
2
272
2
273
2
274
2
275
0
280
0
281
0
282
0
283
1
284
4
285
0
286
0
287
3
288
0
340
11
  0
ENDTAB
  0
ENDSEC
  0
SECTION
  2
BLOCKS
  0
BLOCK
  5
20
100
AcDbEntity
  8
0
100
AcDbBlockBegin
  2
*MODEL_SPACE
 70
0
 10
0.0
 20
0.0
 30
0.0
  3
*MODEL_SPACE
  1

  0
ENDBLK
  5
21
100
AcDbEntity
  8
0
100
AcDbBlockEnd
  0
BLOCK
  5
1C
100
AcDbEntity
  8
0
100
AcDbBlockBegin
  2
*PAPER_SPACE
 70
0
 10
0.0
 20
0.0
 30
0.0
  3
*PAPER_SPACE
  1

  0
ENDBLK
  5
1D
100
AcDbEntity
  8
0
100
AcDbBlockEnd
  0
ENDSEC
  0
SECTION
  2
ENTITIES
  0
LINE
  5
24B
100
AcDbEntity
  8
0
100
AcDbLine
 62
7
  6
CONTINUOUS
 10
3.8657730918
 20
3.9684174396
 11
3.8657730918
 21
4.2754174396
  0
LINE
  5
24C
100
AcDbEntity
  8
03__ASM_ALL_CURVES
100
AcDbLine
 62
40
  6
CONTINUOUS
 10
3.8657730918
 20
4.2754174396
 11
3.8657730918
 21
5.1207646509
  0
LINE
  5
24D
100
AcDbEntity
  8
0
100
AcDbLine
 62
7
  6
CONTINUOUS
 10
3.8967730918
 20
3.9374174396
 11
3.8967730918
 21
4.3064174396
  0
LINE
  5
24E
100
AcDbEntity
  8
0
100
AcDbLine
 62
7
  6
CONTINUOUS
 10
3.9287730918
 20
4.4004177736
 11
3.9287730918
 21
3.8434171056
  0
LINE
  5
24F
100
AcDbEntity
  8
0
100
AcDbLine
 62
7
  6
CONTINUOUS
 10
3.9287730918
 20
3.8434171056
 11
3.9305521489
 21
3.8403356883
  0
LINE
  5
250
100
AcDbEntity
  8
03__ASM_ALL_CURVES
100
AcDbLine
 62
40
  6
CONTINUOUS
 10
3.9649027255
 20
5.1042430453
 11
3.9649027255
 21
5.071199834
  0
LINE
  5
251
100
AcDbEntity
  8
0
100
AcDbLine
 62
7
  6
CONTINUOUS
 10
4.1477730918
 20
3.7984174396
 11
4.1477730918
 21
4.4454174396
  0
LINE
  5
252
100
AcDbEntity
  8
0
100
AcDbLine
 62
7
  6
CONTINUOUS
 10
4.1977730918
 20
3.7484174396
 11
4.1977730918
 21
4.4954174396
  0
LINE
  5
253
100
AcDbEntity
  8
0
100
AcDbLine
 62
7
  6
CONTINUOUS
 10
4.2487730918
 20
3.7484174396
 11
4.2487730918
 21
4.4954174396
  0
LINE
  5
254
100
AcDbEntity
  8
0
100
AcDbLine
 62
7
  6
CONTINUOUS
 10
3.9287730918
 20
4.4004177736
 11
3.9305521489
 21
4.403499191
  0
LINE
  5
255
100
AcDbEntity
  8
0
100
AcDbLine
 62
7
  6
CONTINUOUS
 10
3.8967730918
 20
3.9374174396
 11
3.8657730918
 21
3.9684174396
  0
LINE
  5
256
100
AcDbEntity
  8
0
100
AcDbLine
 62
7
  6
CONTINUOUS
 10
4.2537730918
 20
3.7534174396
 11
4.2537730918
 21
4.4904174396
  0
LINE
  5
257
100
AcDbEntity
  8
0
100
AcDbLine
 62
7
  6
CONTINUOUS
 10
4.2617730918
 20
3.7719174396
 11
4.2617730918
 21
4.4719174396
  0
LINE
  5
258
100
AcDbEntity
  8
0
100
AcDbLine
 62
7
  6
CONTINUOUS
 10
4.2837730918
 20
3.7719174396
 11
4.2837730918
 21
4.4719174396
  0
LINE
  5
259
100
AcDbEntity
  8
0
100
AcDbLine
 62
7
  6
CONTINUOUS
 10
4.2917730918
 20
3.7534174396
 11
4.2917730918
 21
4.4904174396
  0
LINE
  5
25A
100
AcDbEntity
  8
0
100
AcDbLine
 62
7
  6
CONTINUOUS
 10
4.2967730918
 20
3.7484174396
 11
4.2967730918
 21
4.4954174396
  0
LINE
  5
25B
100
AcDbEntity
  8
03__ASM_ALL_CURVES
100
AcDbLine
 62
40
  6
CONTINUOUS
 10
4.5817970003
 20
5.1758366713
 11
4.5869600021
 21
5.1896046727
  0
LINE
  5
25C
100
AcDbEntity
  8
03__ASM_ALL_CURVES
100
AcDbLine
 62
40
  6
CONTINUOUS
 10
4.6231010144
 20
5.1758366713
 11
4.6179380127
 21
5.1620686649
  0
LINE
  5
25D
100
AcDbEntity
  8
03__ASM_ALL_CURVES
100
AcDbLine
 62
40
  6
CONTINUOUS
 10
4.5869600021
 20
5.1896046727
 11
4.5921230039
 21
5.1964886783
  0
LINE
  5
25E
100
AcDbEntity
  8
03__ASM_ALL_CURVES
100
AcDbLine
 62
40
  6
CONTINUOUS
 10
4.6179380127
 20
5.134532656
 11
4.6127750109
 21
5.1276486534
  0
LINE
  5
25F
100
AcDbEntity
  8
03__ASM_ALL_CURVES
100
AcDbLine
 62
40
  6
CONTINUOUS
 10
4.6695680302
 20
5.1896046727
 11
4.674731032
 21
5.1964886783
  0
LINE
  5
260
100
AcDbEntity
  8
03__ASM_ALL_CURVES
100
AcDbLine
 62
40
  6
CONTINUOUS
 10
4.5921230039
 20
5.1964886783
 11
4.6024490074
 21
5.203372679
  0
LINE
  5
261
100
AcDbEntity
  8
0
100
AcDbLine
 62
7
  6
CONTINUOUS
 10
4.1977730918
 20
3.7484174396
 11
4.1477730918
 21
3.7984174396
  0
LINE
  5
262
100
AcDbEntity
  8
03__ASM_ALL_CURVES
100
AcDbLine
 62
40
  6
CONTINUOUS
 10
4.4372329511
 20
5.203372679
 11
4.4372329511
 21
5.1207646509
  0
LINE
  5
263
100
AcDbEntity
  8
03__ASM_ALL_CURVES
100
AcDbLine
 62
40
  6
CONTINUOUS
 10
4.5146779775
 20
5.1207646509
 11
4.5146779775
 21
5.1276486534
  0
LINE
  5
264
100
AcDbEntity
  8
03__ASM_ALL_CURVES
100
AcDbLine
 62
40
  6
CONTINUOUS
 10
4.6231010144
 20
5.1483006611
 11
4.6179380127
 21
5.134532656
  0
LINE
  5
265
100
AcDbEntity
  8
03__ASM_ALL_CURVES
100
AcDbLine
 62
40
  6
CONTINUOUS
 10
4.6644050285
 20
5.1758366713
 11
4.6695680302
 21
5.1896046727
  0
LINE
  5
266
100
AcDbEntity
  8
03__ASM_ALL_CURVES
100
AcDbLine
 62
40
  6
CONTINUOUS
 10
4.6644050285
 20
5.1483006611
 11
4.6695680302
 21
5.1620686649
  0
LINE
  5
267
100
AcDbEntity
  8
03__ASM_ALL_CURVES
100
AcDbLine
 62
40
  6
CONTINUOUS
 10
4.7057090425
 20
5.1483006611
 11
4.7005460408
 21
5.134532656
  0
LINE
  5
268
100
AcDbEntity
  8
03__ASM_ALL_CURVES
100
AcDbLine
 62
40
  6
CONTINUOUS
 10
4.8657620971
 20
5.203372679
 11
4.8296210847
 21
5.1414166579
  0
LINE
  5
269
100
AcDbEntity
  8
03__ASM_ALL_CURVES
100
AcDbLine
 62
40
  6
CONTINUOUS
 10
4.7005460408
 20
5.134532656
 11
4.695383039
 21
5.1276486534
  0
LINE
  5
26A
100
AcDbEntity
  8
03__ASM_ALL_CURVES
100
AcDbLine
 62
40
  6
CONTINUOUS
 10
4.7728280654
 20
5.203372679
 11
4.7625020619
 21
5.1896046727
  0
LINE
  5
26B
100
AcDbEntity
  8
0
100
AcDbLine
 62
7
  6
CONTINUOUS
 10
3.8967730918
 20
4.3064174396
 11
3.8657730918
 21
4.2754174396
  0
LINE
  5
26C
100
AcDbEntity
  8
0
100
AcDbLine
 62
7
  6
CONTINUOUS
 10
4.1977730918
 20
4.4954174396
 11
4.1477730918
 21
4.4454174396
  0
LINE
  5
26D
100
AcDbEntity
  8
03__ASM_ALL_CURVES
100
AcDbLine
 62
40
  6
CONTINUOUS
 10
4.674731032
 20
5.1964886783
 11
4.6850570355
 21
5.203372679
  0
LINE
  5
26E
100
AcDbEntity
  8
03__ASM_ALL_CURVES
100
AcDbLine
 62
40
  6
CONTINUOUS
 10
4.6127750109
 20
5.1276486534
 11
4.6024490074
 21
5.1207646509
  0
LINE
  5
26F
100
AcDbEntity
  8
03__ASM_ALL_CURVES
100
AcDbLine
 62
40
  6
CONTINUOUS
 10
4.695383039
 20
5.1276486534
 11
4.6850570355
 21
5.1207646509
  0
LINE
  5
270
100
AcDbEntity
  8
03__ASM_ALL_CURVES
100
AcDbLine
 62
40
  6
CONTINUOUS
 10
4.6179380127
 20
5.1620686649
 11
4.6024490074
 21
5.1551846618
  0
LINE
  5
271
100
AcDbEntity
  8
0
100
AcDbLine
 62
7
  6
CONTINUOUS
 10
4.6818367577
 20
3.6329174396
 11
4.6477730918
 21
3.6919174396
  0
LINE
  5
272
100
AcDbEntity
  8
03__ASM_ALL_CURVES
100
AcDbLine
 62
40
  6
CONTINUOUS
 10
4.6231010144
 20
5.1758366713
 11
4.6231010144
 21
5.1483006611
  0
LINE
  5
273
100
AcDbEntity
  8
0
100
AcDbLine
 62
7
  6
CONTINUOUS
 10
4.6477730918
 20
3.6919174396
 11
4.6477730918
 21
4.5519174396
  0
LINE
  5
274
100
AcDbEntity
  8
03__ASM_ALL_CURVES
100
AcDbLine
 62
40
  6
CONTINUOUS
 10
4.6644050285
 20
5.1483006611
 11
4.6644050285
 21
5.1758366713
  0
LINE
  5
275
100
AcDbEntity
  8
03__ASM_ALL_CURVES
100
AcDbLine
 62
40
  6
CONTINUOUS
 10
4.7625020619
 20
5.1896046727
 11
4.7573390601
 21
5.1689526657
  0
LINE
  5
276
100
AcDbEntity
  8
03__ASM_ALL_CURVES
100
AcDbLine
 62
40
  6
CONTINUOUS
 10
4.9122291129
 20
5.1758366713
 11
4.9173921146
 21
5.1896046727
  0
LINE
  5
277
100
AcDbEntity
  8
0
100
AcDbLine
 62
7
  6
CONTINUOUS
 10
4.6814481169
 20
4.610244294
 11
4.6477730918
 21
4.5519174396
  0
LINE
  5
278
100
AcDbEntity
  8
03__ASM_ALL_CURVES
100
AcDbLine
 62
40
  6
CONTINUOUS
 10
4.9173921146
 20
5.1896046727
 11
4.9225551164
 21
5.1964886783
  0
LINE
  5
279
100
AcDbEntity
  8
03__ASM_ALL_CURVES
100
AcDbLine
 62
40
  6
CONTINUOUS
 10
4.9483701252
 20
5.134532656
 11
4.9432071234
 21
5.1276486534
  0
LINE
  5
27A
100
AcDbEntity
  8
03__ASM_ALL_CURVES
100
AcDbLine
 62
40
  6
CONTINUOUS
 10
4.9225551164
 20
5.1964886783
 11
4.9328811199
 21
5.203372679
  0
LINE
  5
27B
100
AcDbEntity
  8
03__ASM_ALL_CURVES
100
AcDbLine
 62
40
  6
CONTINUOUS
 10
4.9432071234
 20
5.1276486534
 11
4.9328811199
 21
5.1207646509
  0
LINE
  5
27C
100
AcDbEntity
  8
03__ASM_ALL_CURVES
100
AcDbLine
 62
40
  6
CONTINUOUS
 10
4.6695680302
 20
5.1620686649
 11
4.6850570355
 21
5.1689526657
  0
LINE
  5
27D
100
AcDbEntity
  8
03__ASM_ALL_CURVES
100
AcDbLine
 62
40
  6
CONTINUOUS
 10
4.9483701252
 20
5.1620686649
 11
4.9328811199
 21
5.1551846618
  0
LINE
  5
27E
100
AcDbEntity
  8
0
100
AcDbLine
 62
7
  6
CONTINUOUS
 10
4.6818367577
 20
3.6329174396
 11
4.6818367577
 21
3.6338149671
  0
LINE
  5
27F
100
AcDbEntity
  8
0
100
AcDbLine
 62
7
  6
CONTINUOUS
 10
4.6818367577
 20
3.8522199121
 11
4.6818367577
 21
3.9035124946
  0
LINE
  5
280
100
AcDbEntity
  8
0
100
AcDbLine
 62
7
  6
CONTINUOUS
 10
4.6818367577
 20
4.3403223846
 11
4.6818367577
 21
4.3916149671
  0
LINE
  5
281
100
AcDbEntity
  8
0
100
AcDbLine
 62
7
  6
CONTINUOUS
 10
4.6818367577
 20
4.6100199121
 11
4.6818367577
 21
4.6109174396
  0
LINE
  5
282
100
AcDbEntity
  8
03__ASM_ALL_CURVES
100
AcDbLine
 62
40
  6
CONTINUOUS
 10
4.7573390601
 20
5.1689526657
 11
4.7573390601
 21
5.1551846618
  0
LINE
  5
283
100
AcDbEntity
  8
03__ASM_ALL_CURVES
100
AcDbLine
 62
40
  6
CONTINUOUS
 10
4.9535331269
 20
5.1758366713
 11
4.9483701252
 21
5.1620686649
  0
LINE
  5
284
100
AcDbEntity
  8
03__ASM_ALL_CURVES
100
AcDbLine
 62
40
  6
CONTINUOUS
 10
4.9535331269
 20
5.1483006611
 11
4.9483701252
 21
5.134532656
  0
LINE
  5
285
100
AcDbEntity
  8
03__ASM_ALL_CURVES
100
AcDbLine
 62
40
  6
CONTINUOUS
 10
5.1600531973
 20
5.1896046727
 11
5.165216199
 21
5.1964886783
  0
LINE
  5
286
100
AcDbEntity
  8
03__ASM_ALL_CURVES
100
AcDbLine
 62
40
  6
CONTINUOUS
 10
5.1548901955
 20
5.1483006611
 11
5.165216199
 21
5.1620686649
  0
LINE
  5
287
100
AcDbEntity
  8
03__ASM_ALL_CURVES
100
AcDbLine
 62
40
  6
CONTINUOUS
 10
5.2013572113
 20
5.182720672
 11
5.1961942096
 21
5.1758366713
  0
LINE
  5
288
100
AcDbEntity
  8
03__ASM_ALL_CURVES
100
AcDbLine
 62
40
  6
CONTINUOUS
 10
5.2065202131
 20
5.1414166579
 11
5.1961942096
 21
5.1276486534
  0
LINE
  5
289
100
AcDbEntity
  8
03__ASM_ALL_CURVES
100
AcDbLine
 62
40
  6
CONTINUOUS
 10
5.165216199
 20
5.1964886783
 11
5.1755422026
 21
5.203372679
  0
LINE
  5
28A
100
AcDbEntity
  8
03__ASM_ALL_CURVES
100
AcDbLine
 62
40
  6
CONTINUOUS
 10
5.165216199
 20
5.1620686649
 11
5.1755422026
 21
5.1689526657
  0
LINE
  5
28B
100
AcDbEntity
  8
03__ASM_ALL_CURVES
100
AcDbLine
 62
40
  6
CONTINUOUS
 10
5.1961942096
 20
5.1758366713
 11
5.1858682061
 21
5.1689526657
  0
LINE
  5
28C
100
AcDbEntity
  8
03__ASM_ALL_CURVES
100
AcDbLine
 62
40
  6
CONTINUOUS
 10
5.1961942096
 20
5.1276486534
 11
5.1858682061
 21
5.1207646509
  0
LINE
  5
28D
100
AcDbEntity
  8
03__ASM_ALL_CURVES
100
AcDbLine
 62
40
  6
CONTINUOUS
 10
4.8657620971
 20
5.1207646509
 11
4.8657620971
 21
5.203372679
  0
LINE
  5
28E
100
AcDbEntity
  8
03__ASM_ALL_CURVES
100
AcDbLine
 62
40
  6
CONTINUOUS
 10
4.9535331269
 20
5.1758366713
 11
4.9535331269
 21
5.1483006611
  0
LINE
  5
28F
100
AcDbEntity
  8
03__ASM_ALL_CURVES
100
AcDbLine
 62
40
  6
CONTINUOUS
 10
5.1032601779
 20
5.1551846618
 11
5.1084231797
 21
5.1758366713
  0
LINE
  5
290
100
AcDbEntity
  8
03__ASM_ALL_CURVES
100
AcDbLine
 62
40
  6
CONTINUOUS
 10
5.1084231797
 20
5.1758366713
 11
5.1187491832
 21
5.203372679
  0
LINE
  5
291
100
AcDbEntity
  8
03__ASM_ALL_CURVES
100
AcDbLine
 62
40
  6
CONTINUOUS
 10
5.2684762342
 20
5.134532656
 11
5.2581502307
 21
5.1207646509
  0
LINE
  5
292
100
AcDbEntity
  8
03__ASM_ALL_CURVES
100
AcDbLine
 62
40
  6
CONTINUOUS
 10
6.8951322336
 20
3.3709621862
 11
6.8641542231
 21
3.3709621862
  0
LINE
  5
293
100
AcDbEntity
  8
03__ASM_ALL_CURVES
100
AcDbLine
 62
40
  6
CONTINUOUS
 10
6.6976474164
 20
3.3709621862
 11
6.6899029137
 21
3.3709621862
  0
LINE
  5
294
100
AcDbEntity
  8
03__ASM_ALL_CURVES
100
AcDbLine
 62
40
  6
CONTINUOUS
 10
6.6356913953
 20
3.3709621862
 11
6.6279468926
 21
3.3709621862
  0
LINE
  5
295
100
AcDbEntity
  8
03__ASM_ALL_CURVES
100
AcDbLine
 62
40
  6
CONTINUOUS
 10
5.6286652365
 20
3.3709621862
 11
5.6209207339
 21
3.3709621862
  0
LINE
  5
296
100
AcDbEntity
  8
03__ASM_ALL_CURVES
100
AcDbLine
 62
40
  6
CONTINUOUS
 10
5.5473479588
 20
3.3709621862
 11
5.5783259694
 21
3.3709621862
  0
LINE
  5
297
100
AcDbEntity
  8
03__ASM_ALL_CURVES
100
AcDbLine
 62
40
  6
CONTINUOUS
 10
6.802198202
 20
3.3709621862
 11
6.8331762125
 21
3.3709621862
  0
LINE
  5
298
100
AcDbEntity
  8
03__ASM_ALL_CURVES
100
AcDbLine
 62
40
  6
CONTINUOUS
 10
5.4427971732
 20
3.4019401967
 11
5.4234359166
 21
3.4019401967
  0
LINE
  5
299
100
AcDbEntity
  8
03__ASM_ALL_CURVES
100
AcDbLine
 62
40
  6
CONTINUOUS
 10
6.8641542231
 20
3.4019401967
 11
6.8835154796
 21
3.4019401967
  0
LINE
  5
29A
100
AcDbEntity
  8
03__ASM_ALL_CURVES
100
AcDbLine
 62
40
  6
CONTINUOUS
 10
5.4234359166
 20
3.4329182073
 11
5.4427971732
 21
3.4329182073
  0
LINE
  5
29B
100
AcDbEntity
  8
03__ASM_ALL_CURVES
100
AcDbLine
 62
40
  6
CONTINUOUS
 10
5.6209207339
 20
3.4329182073
 11
5.6286652365
 21
3.4329182073
  0
LINE
  5
29C
100
AcDbEntity
  8
03__ASM_ALL_CURVES
100
AcDbLine
 62
40
  6
CONTINUOUS
 10
5.6673877497
 20
3.4329182073
 11
5.7061102629
 21
3.4329182073
  0
LINE
  5
29D
100
AcDbEntity
  8
03__ASM_ALL_CURVES
100
AcDbLine
 62
40
  6
CONTINUOUS
 10
6.6279468926
 20
3.4329182073
 11
6.6356913953
 21
3.4329182073
  0
LINE
  5
29E
100
AcDbEntity
  8
03__ASM_ALL_CURVES
100
AcDbLine
 62
40
  6
CONTINUOUS
 10
6.7363699295
 20
3.4329182073
 11
6.7750924427
 21
3.4329182073
  0
LINE
  5
29F
100
AcDbEntity
  8
03__ASM_ALL_CURVES
100
AcDbLine
 62
40
  6
CONTINUOUS
 10
6.8641542231
 20
3.4329182073
 11
6.8951322336
 21
3.4329182073
  0
LINE
  5
2A0
100
AcDbEntity
  8
03__ASM_ALL_CURVES
100
AcDbLine
 62
40
  6
CONTINUOUS
 10
6.9222379928
 20
3.4329182073
 11
6.960960506
 21
3.4329182073
  0
LINE
  5
2A1
100
AcDbEntity
  8
03__ASM_ALL_CURVES
100
AcDbLine
 62
40
  6
CONTINUOUS
 10
5.4427971732
 20
3.4329182073
 11
5.4505416759
 21
3.4277552067
  0
LINE
  5
2A2
100
AcDbEntity
  8
03__ASM_ALL_CURVES
100
AcDbLine
 62
40
  6
CONTINUOUS
 10
5.6209207339
 20
3.3709621862
 11
5.6131762313
 21
3.3761251881
  0
LINE
  5
2A3
100
AcDbEntity
  8
03__ASM_ALL_CURVES
100
AcDbLine
 62
40
  6
CONTINUOUS
 10
5.4970086917
 20
3.4659614185
 11
5.4892641891
 21
3.4711244204
  0
LINE
  5
2A4
100
AcDbEntity
  8
03__ASM_ALL_CURVES
100
AcDbLine
 62
40
  6
CONTINUOUS
 10
5.0103261463
 20
5.1207646509
 11
5.0103261463
 21
5.1276486534
  0
LINE
  5
2A5
100
AcDbEntity
  8
0
100
AcDbLine
 62
7
  6
CONTINUOUS
 10
5.0552730918
 20
3.6329174396
 11
5.0552730918
 21
3.6338149671
  0
LINE
  5
2A6
100
AcDbEntity
  8
0
100
AcDbLine
 62
7
  6
CONTINUOUS
 10
5.0552730918
 20
3.8522199121
 11
5.0552730918
 21
3.9035124946
  0
LINE
  5
2A7
100
AcDbEntity
  8
0
100
AcDbLine
 62
7
  6
CONTINUOUS
 10
5.0552730918
 20
4.3403223846
 11
5.0552730918
 21
4.3916149671
  0
LINE
  5
2A8
100
AcDbEntity
  8
0
100
AcDbLine
 62
7
  6
CONTINUOUS
 10
5.0552730918
 20
4.6100199121
 11
5.0552730918
 21
4.6109174396
  0
LINE
  5
2A9
100
AcDbEntity
  8
03__ASM_ALL_CURVES
100
AcDbLine
 62
40
  6
CONTINUOUS
 10
5.0980971762
 20
5.1207646509
 11
5.1032601779
 21
5.1551846618
  0
LINE
  5
2AA
100
AcDbEntity
  8
03__ASM_ALL_CURVES
100
AcDbLine
 62
40
  6
CONTINUOUS
 10
5.273639236
 20
5.1551846618
 11
5.2684762342
 21
5.134532656
  0
LINE
  5
2AB
100
AcDbEntity
  8
03__ASM_ALL_CURVES
100
AcDbLine
 62
40
  6
CONTINUOUS
 10
6.7266893506
 20
3.4659614185
 11
6.718944848
 21
3.4659614185
  0
LINE
  5
2AC
100
AcDbEntity
  8
03__ASM_ALL_CURVES
100
AcDbLine
 62
40
  6
CONTINUOUS
 10
5.6906212576
 20
3.4659614185
 11
5.682876755
 21
3.4659614185
  0
LINE
  5
2AD
100
AcDbEntity
  8
03__ASM_ALL_CURVES
100
AcDbLine
 62
40
  6
CONTINUOUS
 10
5.5047531943
 20
3.4659614185
 11
5.4970086917
 21
3.4659614185
  0
LINE
  5
2AE
100
AcDbEntity
  8
03__ASM_ALL_CURVES
100
AcDbLine
 62
40
  6
CONTINUOUS
 10
6.8931961573
 20
3.4659614185
 11
6.9241741679
 21
3.4659614185
  0
LINE
  5
2AF
100
AcDbEntity
  8
03__ASM_ALL_CURVES
100
AcDbLine
 62
40
  6
CONTINUOUS
 10
6.7886453717
 20
3.4969394291
 11
6.7692841152
 21
3.4969394291
  0
LINE
  5
2B0
100
AcDbEntity
  8
03__ASM_ALL_CURVES
100
AcDbLine
 62
40
  6
CONTINUOUS
 10
6.6647333295
 20
3.4969394291
 11
6.645372073
 21
3.4969394291
  0
LINE
  5
2B1
100
AcDbEntity
  8
03__ASM_ALL_CURVES
100
AcDbLine
 62
40
  6
CONTINUOUS
 10
5.5667092154
 20
3.4969394291
 11
5.5473479588
 21
3.4969394291
  0
LINE
  5
2B2
100
AcDbEntity
  8
03__ASM_ALL_CURVES
100
AcDbLine
 62
40
  6
CONTINUOUS
 10
5.4427971732
 20
3.4969394291
 11
5.4234359166
 21
3.4969394291
  0
LINE
  5
2B3
100
AcDbEntity
  8
03__ASM_ALL_CURVES
100
AcDbLine
 62
40
  6
CONTINUOUS
 10
5.682876755
 20
3.5021024296
 11
5.6906212576
 21
3.5021024296
  0
LINE
  5
2B4
100
AcDbEntity
  8
03__ASM_ALL_CURVES
100
AcDbLine
 62
40
  6
CONTINUOUS
 10
5.4234359166
 20
3.5279174396
 11
5.4427971732
 21
3.5279174396
  0
LINE
  5
2B5
100
AcDbEntity
  8
03__ASM_ALL_CURVES
100
AcDbLine
 62
40
  6
CONTINUOUS
 10
5.4970086917
 20
3.5279174396
 11
5.5047531943
 21
3.5279174396
  0
LINE
  5
2B6
100
AcDbEntity
  8
03__ASM_ALL_CURVES
100
AcDbLine
 62
40
  6
CONTINUOUS
 10
5.5473479588
 20
3.5279174396
 11
5.5667092154
 21
3.5279174396
  0
LINE
  5
2B7
100
AcDbEntity
  8
03__ASM_ALL_CURVES
100
AcDbLine
 62
40
  6
CONTINUOUS
 10
5.6054317286
 20
3.5279174396
 11
5.6441542418
 21
3.5279174396
  0
LINE
  5
2B8
100
AcDbEntity
  8
03__ASM_ALL_CURVES
100
AcDbLine
 62
40
  6
CONTINUOUS
 10
5.682876755
 20
3.5279174396
 11
5.6906212576
 21
3.5279174396
  0
LINE
  5
2B9
100
AcDbEntity
  8
03__ASM_ALL_CURVES
100
AcDbLine
 62
40
  6
CONTINUOUS
 10
6.645372073
 20
3.5279174396
 11
6.6647333295
 21
3.5279174396
  0
LINE
  5
2BA
100
AcDbEntity
  8
03__ASM_ALL_CURVES
100
AcDbLine
 62
40
  6
CONTINUOUS
 10
6.718944848
 20
3.5279174396
 11
6.7266893506
 21
3.5279174396
  0
LINE
  5
2BB
100
AcDbEntity
  8
03__ASM_ALL_CURVES
100
AcDbLine
 62
40
  6
CONTINUOUS
 10
6.7692841152
 20
3.5279174396
 11
6.7886453717
 21
3.5279174396
  0
LINE
  5
2BC
100
AcDbEntity
  8
03__ASM_ALL_CURVES
100
AcDbLine
 62
40
  6
CONTINUOUS
 10
6.8273678849
 20
3.5279174396
 11
6.8660903981
 21
3.5279174396
  0
LINE
  5
2BD
100
AcDbEntity
  8
03__ASM_ALL_CURVES
100
AcDbLine
 62
40
  6
CONTINUOUS
 10
6.9048129113
 20
3.5279174396
 11
6.9125574139
 21
3.5279174396
  0
LINE
  5
2BE
100
AcDbEntity
  8
03__ASM_ALL_CURVES
100
AcDbLine
 62
40
  6
CONTINUOUS
 10
5.4427971732
 20
3.5279174396
 11
5.4505416759
 21
3.5227544391
  0
LINE
  5
2BF
100
AcDbEntity
  8
03__ASM_ALL_CURVES
100
AcDbLine
 62
40
  6
CONTINUOUS
 10
5.6286652365
 20
3.4329182073
 11
5.6364097392
 21
3.4277552067
  0
LINE
  5
2C0
100
AcDbEntity
  8
03__ASM_ALL_CURVES
100
AcDbLine
 62
40
  6
CONTINUOUS
 10
5.5047531943
 20
3.5279174396
 11
5.512497697
 21
3.5227544391
  0
LINE
  5
2C1
100
AcDbEntity
  8
03__ASM_ALL_CURVES
100
AcDbLine
 62
40
  6
CONTINUOUS
 10
5.5667092154
 20
3.5279174396
 11
5.5744537181
 21
3.5227544391
  0
LINE
  5
2C2
100
AcDbEntity
  8
03__ASM_ALL_CURVES
100
AcDbLine
 62
40
  6
CONTINUOUS
 10
5.682876755
 20
3.4659614185
 11
5.6751322524
 21
3.4711244204
  0
LINE
  5
2C3
100
AcDbEntity
  8
03__ASM_ALL_CURVES
100
AcDbLine
 62
40
  6
CONTINUOUS
 10
5.6906212576
 20
3.5021024296
 11
5.6983657603
 21
3.4969394291
  0
LINE
  5
2C4
100
AcDbEntity
  8
03__ASM_ALL_CURVES
100
AcDbLine
 62
40
  6
CONTINUOUS
 10
5.4505416759
 20
3.4277552067
 11
5.4544139272
 21
3.4225922025
  0
LINE
  5
2C5
100
AcDbEntity
  8
03__ASM_ALL_CURVES
100
AcDbLine
 62
40
  6
CONTINUOUS
 10
5.4892641891
 20
3.4711244204
 11
5.4815196864
 21
3.4814504238
  0
LINE
  5
2C6
100
AcDbEntity
  8
03__ASM_ALL_CURVES
100
AcDbLine
 62
40
  6
CONTINUOUS
 10
5.4505416759
 20
3.5227544391
 11
5.4544139272
 21
3.5175914349
  0
LINE
  5
2C7
100
AcDbEntity
  8
03__ASM_ALL_CURVES
100
AcDbLine
 62
40
  6
CONTINUOUS
 10
5.6131762313
 20
3.3761251881
 11
5.6054317286
 21
3.3864511915
  0
LINE
  5
2C8
100
AcDbEntity
  8
03__ASM_ALL_CURVES
100
AcDbLine
 62
40
  6
CONTINUOUS
 10
4.5869600021
 20
5.1620686649
 11
4.5817970003
 21
5.1758366713
  0
LINE
  5
2C9
100
AcDbEntity
  8
03__ASM_ALL_CURVES
100
AcDbLine
 62
40
  6
CONTINUOUS
 10
4.6179380127
 20
5.1896046727
 11
4.6231010144
 21
5.1758366713
  0
LINE
  5
2CA
100
AcDbEntity
  8
03__ASM_ALL_CURVES
100
AcDbLine
 62
40
  6
CONTINUOUS
 10
4.6695680302
 20
5.134532656
 11
4.6644050285
 21
5.1483006611
  0
LINE
  5
2CB
100
AcDbEntity
  8
03__ASM_ALL_CURVES
100
AcDbLine
 62
40
  6
CONTINUOUS
 10
4.7005460408
 20
5.1620686649
 11
4.7057090425
 21
5.1483006611
  0
LINE
  5
2CC
100
AcDbEntity
  8
03__ASM_ALL_CURVES
100
AcDbLine
 62
40
  6
CONTINUOUS
 10
4.7573390601
 20
5.1551846618
 11
4.7625020619
 21
5.134532656
  0
LINE
  5
2CD
100
AcDbEntity
  8
0
100
AcDbLine
 62
7
  6
CONTINUOUS
 10
5.1157730918
 20
3.6934174396
 11
5.1157730918
 21
4.5504174396
  0
LINE
  5
2CE
100
AcDbEntity
  8
03__ASM_ALL_CURVES
100
AcDbLine
 62
40
  6
CONTINUOUS
 10
5.1548901955
 20
5.1414166579
 11
5.1548901955
 21
5.1483006611
  0
LINE
  5
2CF
100
AcDbEntity
  8
03__ASM_ALL_CURVES
100
AcDbLine
 62
40
  6
CONTINUOUS
 10
5.1600531973
 20
5.182720672
 11
5.1600531973
 21
5.1896046727
  0
LINE
  5
2D0
100
AcDbEntity
  8
03__ASM_ALL_CURVES
100
AcDbLine
 62
40
  6
CONTINUOUS
 10
5.2013572113
 20
5.1896046727
 11
5.2013572113
 21
5.182720672
  0
LINE
  5
2D1
100
AcDbEntity
  8
03__ASM_ALL_CURVES
100
AcDbLine
 62
40
  6
CONTINUOUS
 10
5.2065202131
 20
5.1483006611
 11
5.2065202131
 21
5.1414166579
  0
LINE
  5
2D2
100
AcDbEntity
  8
0
100
AcDbLine
 62
7
  6
CONTINUOUS
 10
5.2407730918
 20
3.6934174396
 11
5.2407730918
 21
4.5504174396
  0
LINE
  5
2D3
100
AcDbEntity
  8
03__ASM_ALL_CURVES
100
AcDbLine
 62
40
  6
CONTINUOUS
 10
6.0547169664
 20
5.1964886783
 11
6.0650429699
 21
5.203372679
  0
LINE
  5
2D4
100
AcDbEntity
  8
03__ASM_ALL_CURVES
100
AcDbLine
 62
40
  6
CONTINUOUS
 10
6.1373249945
 20
5.1964886783
 11
6.1476509981
 21
5.203372679
  0
LINE
  5
2D5
100
AcDbEntity
  8
0
100
AcDbLine
 62
7
  6
CONTINUOUS
 10
5.0552730918
 20
3.6329174396
 11
4.6818367577
 21
3.6329174396
  0
LINE
  5
2D6
100
AcDbEntity
  8
0
100
AcDbLine
 62
7
  6
CONTINUOUS
 10
5.0552730918
 20
3.6338149671
 11
4.6818367577
 21
3.6338149671
  0
LINE
  5
2D7
100
AcDbEntity
  8
0
100
AcDbLine
 62
7
  6
CONTINUOUS
 10
5.4312730918
 20
3.6934174396
 11
5.3817730918
 21
3.6934174396
  0
LINE
  5
2D8
100
AcDbEntity
  8
0
100
AcDbLine
 62
7
  6
CONTINUOUS
 10
5.2407730918
 20
3.6934174396
 11
5.1157730918
 21
3.6934174396
  0
LINE
  5
2D9
100
AcDbEntity
  8
0
100
AcDbLine
 62
7
  6
CONTINUOUS
 10
5.2407730918
 20
3.6939174396
 11
5.2907730918
 21
3.6939174396
  0
LINE
  5
2DA
100
AcDbEntity
  8
0
100
AcDbLine
 62
7
  6
CONTINUOUS
 10
5.8317730918
 20
3.6944174396
 11
5.7797730918
 21
3.6944174396
  0
LINE
  5
2DB
100
AcDbEntity
  8
THREAD
100
AcDbLine
 62
7
  6
CONTINUOUS
 10
5.8817730918
 20
3.7169174396
 11
5.8594955236
 21
3.7169174396
  0
LINE
  5
2DC
100
AcDbEntity
  8
0
100
AcDbLine
 62
7
  6
CONTINUOUS
 10
5.9517730918
 20
3.7174174396
 11
6.0017730918
 21
3.7174174396
  0
LINE
  5
2DD
100
AcDbEntity
  8
0
100
AcDbLine
 62
7
  6
CONTINUOUS
 10
5.7720025652
 20
3.7234174396
 11
5.4393115676
 21
3.7234174396
  0
LINE
  5
2DE
100
AcDbEntity
  8
THREAD
100
AcDbLine
 62
7
  6
CONTINUOUS
 10
6.2902730918
 20
3.7344174396
 11
6.0431350517
 21
3.7344174396
  0
LINE
  5
2DF
100
AcDbEntity
  8
03__ASM_ALL_CURVES
100
AcDbLine
 62
40
  6
CONTINUOUS
 10
5.6906212576
 20
3.5279174396
 11
5.6983657603
 21
3.5227544391
  0
LINE
  5
2E0
100
AcDbEntity
  8
03__ASM_ALL_CURVES
100
AcDbLine
 62
40
  6
CONTINUOUS
 10
5.512497697
 20
3.5227544391
 11
5.5202421996
 21
3.5124284344
  0
LINE
  5
2E1
100
AcDbEntity
  8
03__ASM_ALL_CURVES
100
AcDbLine
 62
40
  6
CONTINUOUS
 10
5.6364097392
 20
3.4277552067
 11
5.6441542418
 21
3.417429202
  0
LINE
  5
2E2
100
AcDbEntity
  8
03__ASM_ALL_CURVES
100
AcDbLine
 62
40
  6
CONTINUOUS
 10
5.5744537181
 20
3.5227544391
 11
5.5783259694
 21
3.5175914349
  0
LINE
  5
2E3
100
AcDbEntity
  8
03__ASM_ALL_CURVES
100
AcDbLine
 62
40
  6
CONTINUOUS
 10
5.6751322524
 20
3.4711244204
 11
5.671260001
 21
3.4762874224
  0
LINE
  5
2E4
100
AcDbEntity
  8
03__ASM_ALL_CURVES
100
AcDbLine
 62
40
  6
CONTINUOUS
 10
5.6983657603
 20
3.4969394291
 11
5.7061102629
 21
3.4866134262
  0
LINE
  5
2E5
100
AcDbEntity
  8
03__ASM_ALL_CURVES
100
AcDbLine
 62
40
  6
CONTINUOUS
 10
5.273639236
 20
5.1689526657
 11
5.273639236
 21
5.1551846618
  0
LINE
  5
2E6
100
AcDbEntity
  8
0
100
AcDbLine
 62
7
  6
CONTINUOUS
 10
5.2907730918
 20
3.6939180903
 11
5.2907730918
 21
4.5499167889
  0
LINE
  5
2E7
100
AcDbEntity
  8
0
100
AcDbLine
 62
7
  6
CONTINUOUS
 10
5.3607730918
 20
4.5309174396
 11
5.3607730918
 21
3.7129174396
  0
LINE
  5
2E8
100
AcDbEntity
  8
0
100
AcDbLine
 62
7
  6
CONTINUOUS
 10
5.3687730918
 20
3.7479174396
 11
5.3687730918
 21
4.4959174396
  0
LINE
  5
2E9
100
AcDbEntity
  8
0
100
AcDbLine
 62
7
  6
CONTINUOUS
 10
5.3817730918
 20
3.6934174396
 11
5.3817730918
 21
4.5504174396
  0
LINE
  5
2EA
100
AcDbEntity
  8
03__ASM_ALL_CURVES
100
AcDbLine
 62
40
  6
CONTINUOUS
 10
6.085694977
 20
5.1276486534
 11
6.0753689734
 21
5.1207646509
  0
LINE
  5
2EB
100
AcDbEntity
  8
03__ASM_ALL_CURVES
100
AcDbLine
 62
40
  6
CONTINUOUS
 10
6.1683030051
 20
5.1276486534
 11
6.1579770016
 21
5.1207646509
  0
LINE
  5
2EC
100
AcDbEntity
  8
0
100
AcDbLine
 62
7
  6
CONTINUOUS
 10
5.3687730918
 20
3.7479174396
 11
5.3607730918
 21
3.7479174396
  0
LINE
  5
2ED
100
AcDbEntity
  8
0
100
AcDbLine
 62
7
  6
CONTINUOUS
 10
4.6477730918
 20
3.7484174396
 11
4.2967730918
 21
3.7484174396
  0
LINE
  5
2EE
100
AcDbEntity
  8
0
100
AcDbLine
 62
7
  6
CONTINUOUS
 10
4.2487730918
 20
3.7484174396
 11
4.1977730918
 21
3.7484174396
  0
LINE
  5
2EF
100
AcDbEntity
  8
THREAD
100
AcDbLine
 62
7
  6
CONTINUOUS
 10
6.0142675383
 20
3.7714174396
 11
6.0017730918
 21
3.7714174396
  0
LINE
  5
2F0
100
AcDbEntity
  8
0
100
AcDbLine
 62
7
  6
CONTINUOUS
 10
4.2837730918
 20
3.7719174396
 11
4.2617730918
 21
3.7719174396
  0
LINE
  5
2F1
100
AcDbEntity
  8
THREAD
100
AcDbLine
 62
7
  6
CONTINUOUS
 10
6.5127730918
 20
3.7789174396
 11
6.3347730918
 21
3.7789174396
  0
LINE
  5
2F2
100
AcDbEntity
  8
0
100
AcDbLine
 62
7
  6
CONTINUOUS
 10
7.1927730918
 20
3.7794174396
 11
7.1417730918
 21
3.7794174396
  0
LINE
  5
2F3
100
AcDbEntity
  8
0
100
AcDbLine
 62
7
  6
CONTINUOUS
 10
7.0007730918
 20
3.7794174396
 11
6.9277730918
 21
3.7794174396
  0
LINE
  5
2F4
100
AcDbEntity
  8
0
100
AcDbLine
 62
7
  6
CONTINUOUS
 10
7.0007730918
 20
3.7799174396
 11
7.0507730918
 21
3.7799174396
  0
LINE
  5
2F5
100
AcDbEntity
  8
0
100
AcDbLine
 62
7
  6
CONTINUOUS
 10
7.1207730918
 20
3.8339174396
 11
7.1417730918
 21
3.8339174396
  0
LINE
  5
2F6
100
AcDbEntity
  8
0
100
AcDbLine
 62
7
  6
CONTINUOUS
 10
4.1477704109
 20
3.8408921961
 11
3.9302336247
 21
3.8408921961
  0
LINE
  5
2F7
100
AcDbEntity
  8
0
100
AcDbLine
 62
7
  6
CONTINUOUS
 10
6.6757730918
 20
3.8414174396
 11
6.9277730918
 21
3.8414174396
  0
LINE
  5
2F8
100
AcDbEntity
  8
0
100
AcDbLine
 62
7
  6
CONTINUOUS
 10
5.0552730918
 20
3.8522199121
 11
4.6818367577
 21
3.8522199121
  0
LINE
  5
2F9
100
AcDbEntity
  8
03__ASM_ALL_CURVES
100
AcDbLine
 62
40
  6
CONTINUOUS
 10
5.6983657603
 20
3.5227544391
 11
5.7022380116
 21
3.5175914349
  0
LINE
  5
2FA
100
AcDbEntity
  8
03__ASM_ALL_CURVES
100
AcDbLine
 62
40
  6
CONTINUOUS
 10
4.5146779775
 20
5.1276486534
 11
4.5198409792
 21
5.1207646509
  0
LINE
  5
2FB
100
AcDbEntity
  8
03__ASM_ALL_CURVES
100
AcDbLine
 62
40
  6
CONTINUOUS
 10
4.5921230039
 20
5.1276486534
 11
4.5869600021
 21
5.134532656
  0
LINE
  5
2FC
100
AcDbEntity
  8
03__ASM_ALL_CURVES
100
AcDbLine
 62
40
  6
CONTINUOUS
 10
4.9173921146
 20
5.1620686649
 11
4.9122291129
 21
5.1758366713
  0
LINE
  5
2FD
100
AcDbEntity
  8
03__ASM_ALL_CURVES
100
AcDbLine
 62
40
  6
CONTINUOUS
 10
5.5667092154
 20
3.4969394291
 11
5.5783259694
 21
3.4659614185
  0
LINE
  5
2FE
100
AcDbEntity
  8
03__ASM_ALL_CURVES
100
AcDbLine
 62
40
  6
CONTINUOUS
 10
4.9483701252
 20
5.1896046727
 11
4.9535331269
 21
5.1758366713
  0
LINE
  5
2FF
100
AcDbEntity
  8
03__ASM_ALL_CURVES
100
AcDbLine
 62
40
  6
CONTINUOUS
 10
5.4815196864
 20
3.4814504238
 11
5.4776474351
 21
3.4969394291
  0
LINE
  5
300
100
AcDbEntity
  8
03__ASM_ALL_CURVES
100
AcDbLine
 62
40
  6
CONTINUOUS
 10
5.5202421996
 20
3.5124284344
 11
5.5241144509
 21
3.4969394291
  0
LINE
  5
301
100
AcDbEntity
  8
03__ASM_ALL_CURVES
100
AcDbLine
 62
40
  6
CONTINUOUS
 10
5.4234359166
 20
3.3709621862
 11
5.4234359166
 21
3.4329182073
  0
LINE
  5
302
100
AcDbEntity
  8
03__ASM_ALL_CURVES
100
AcDbLine
 62
40
  6
CONTINUOUS
 10
5.4234359166
 20
3.4659614185
 11
5.4234359166
 21
3.5279174396
  0
LINE
  5
303
100
AcDbEntity
  8
0
100
AcDbLine
 62
7
  6
CONTINUOUS
 10
5.4312730918
 20
3.6934174396
 11
5.4312730918
 21
4.5504174396
  0
LINE
  5
304
100
AcDbEntity
  8
0
100
AcDbLine
 62
7
  6
CONTINUOUS
 10
5.4393115676
 20
3.7234174396
 11
5.4393115676
 21
4.5204174396
  0
LINE
  5
305
100
AcDbEntity
  8
03__ASM_ALL_CURVES
100
AcDbLine
 62
40
  6
CONTINUOUS
 10
5.4544139272
 20
3.5175914349
 11
5.4544139272
 21
3.5072654338
  0
LINE
  5
306
100
AcDbEntity
  8
03__ASM_ALL_CURVES
100
AcDbLine
 62
40
  6
CONTINUOUS
 10
5.4544139272
 20
3.4225922025
 11
5.4544139272
 21
3.4122662015
  0
LINE
  5
307
100
AcDbEntity
  8
03__ASM_ALL_CURVES
100
AcDbLine
 62
40
  6
CONTINUOUS
 10
5.500880943
 20
3.4329182073
 11
5.500880943
 21
3.3709621862
  0
LINE
  5
308
100
AcDbEntity
  8
03__ASM_ALL_CURVES
100
AcDbLine
 62
40
  6
CONTINUOUS
 10
6.0443909629
 20
5.182720672
 11
6.0547169664
 21
5.1964886783
  0
LINE
  5
309
100
AcDbEntity
  8
03__ASM_ALL_CURVES
100
AcDbLine
 62
40
  6
CONTINUOUS
 10
6.0960209805
 20
5.1414166579
 11
6.085694977
 21
5.1276486534
  0
LINE
  5
30A
100
AcDbEntity
  8
03__ASM_ALL_CURVES
100
AcDbLine
 62
40
  6
CONTINUOUS
 10
6.126998991
 20
5.182720672
 11
6.1373249945
 21
5.1964886783
  0
LINE
  5
30B
100
AcDbEntity
  8
03__ASM_ALL_CURVES
100
AcDbLine
 62
40
  6
CONTINUOUS
 10
6.5503651352
 20
5.1964886783
 11
6.5606911387
 21
5.203372679
  0
LINE
  5
30C
100
AcDbEntity
  8
03__ASM_ALL_CURVES
100
AcDbLine
 62
40
  6
CONTINUOUS
 10
6.5813431457
 20
5.1276486534
 11
6.5710171422
 21
5.1207646509
  0
LINE
  5
30D
100
AcDbEntity
  8
0
100
AcDbLine
 62
7
  6
CONTINUOUS
 10
5.0552730918
 20
3.9035124946
 11
4.6818367577
 21
3.9035124946
  0
LINE
  5
30E
100
AcDbEntity
  8
0
100
AcDbLine
 62
7
  6
CONTINUOUS
 10
3.9287730918
 20
3.9374174396
 11
3.8967730918
 21
3.9374174396
  0
LINE
  5
30F
100
AcDbEntity
  8
03__ASM_ALL_CURVES
100
AcDbLine
 62
40
  6
CONTINUOUS
 10
6.6279468926
 20
3.3709621862
 11
6.62020239
 21
3.3761251881
  0
LINE
  5
310
100
AcDbEntity
  8
03__ASM_ALL_CURVES
100
AcDbLine
 62
40
  6
CONTINUOUS
 10
6.6899029137
 20
3.3709621862
 11
6.6821584111
 21
3.3761251881
  0
LINE
  5
311
100
AcDbEntity
  8
0
100
AcDbLine
 62
7
  6
CONTINUOUS
 10
5.1157730918
 20
4.5504174396
 11
5.0557218555
 21
4.6104686759
  0
LINE
  5
312
100
AcDbEntity
  8
03__ASM_ALL_CURVES
100
AcDbLine
 62
40
  6
CONTINUOUS
 10
4.6127750109
 20
5.1964886783
 11
4.6179380127
 21
5.1896046727
  0
LINE
  5
313
100
AcDbEntity
  8
03__ASM_ALL_CURVES
100
AcDbLine
 62
40
  6
CONTINUOUS
 10
4.674731032
 20
5.1276486534
 11
4.6695680302
 21
5.134532656
  0
LINE
  5
314
100
AcDbEntity
  8
03__ASM_ALL_CURVES
100
AcDbLine
 62
40
  6
CONTINUOUS
 10
4.695383039
 20
5.1964886783
 11
4.7005460408
 21
5.1896046727
  0
LINE
  5
315
100
AcDbEntity
  8
03__ASM_ALL_CURVES
100
AcDbLine
 62
40
  6
CONTINUOUS
 10
4.7625020619
 20
5.134532656
 11
4.7728280654
 21
5.1207646509
  0
LINE
  5
316
100
AcDbEntity
  8
0
100
AcDbLine
 62
7
  6
CONTINUOUS
 10
5.4393115676
 20
4.5204174396
 11
5.4312730918
 21
4.5504174396
  0
LINE
  5
317
100
AcDbEntity
  8
03__ASM_ALL_CURVES
100
AcDbLine
 62
40
  6
CONTINUOUS
 10
5.6054317286
 20
3.3864511915
 11
5.6015594773
 21
3.4019401967
  0
LINE
  5
318
100
AcDbEntity
  8
03__ASM_ALL_CURVES
100
AcDbLine
 62
40
  6
CONTINUOUS
 10
5.6441542418
 20
3.417429202
 11
5.6480264931
 21
3.4019401967
  0
LINE
  5
319
100
AcDbEntity
  8
03__ASM_ALL_CURVES
100
AcDbLine
 62
40
  6
CONTINUOUS
 10
5.2684762342
 20
5.1896046727
 11
5.273639236
 21
5.1689526657
  0
LINE
  5
31A
100
AcDbEntity
  8
03__ASM_ALL_CURVES
100
AcDbLine
 62
40
  6
CONTINUOUS
 10
5.5473479588
 20
3.4329182073
 11
5.5473479588
 21
3.3709621862
  0
LINE
  5
31B
100
AcDbEntity
  8
03__ASM_ALL_CURVES
100
AcDbLine
 62
40
  6
CONTINUOUS
 10
5.5473479588
 20
3.4659614185
 11
5.5473479588
 21
3.5279174396
  0
LINE
  5
31C
100
AcDbEntity
  8
03__ASM_ALL_CURVES
100
AcDbLine
 62
40
  6
CONTINUOUS
 10
5.5783259694
 20
3.5175914349
 11
5.5783259694
 21
3.5072654338
  0
LINE
  5
31D
100
AcDbEntity
  8
03__ASM_ALL_CURVES
100
AcDbLine
 62
40
  6
CONTINUOUS
 10
5.6247929852
 20
3.5279174396
 11
5.6247929852
 21
3.4659614185
  0
LINE
  5
31E
100
AcDbEntity
  8
0
100
AcDbLine
 62
7
  6
CONTINUOUS
 10
5.4393115676
 20
3.7234174396
 11
5.4312730918
 21
3.6934174396
  0
LINE
  5
31F
100
AcDbEntity
  8
03__ASM_ALL_CURVES
100
AcDbLine
 62
40
  6
CONTINUOUS
 10
6.1734660068
 20
5.134532656
 11
6.1683030051
 21
5.1276486534
  0
LINE
  5
320
100
AcDbEntity
  8
03__ASM_ALL_CURVES
100
AcDbLine
 62
40
  6
CONTINUOUS
 10
6.725907195
 20
5.203372679
 11
6.7155811915
 21
5.1964886783
  0
LINE
  5
321
100
AcDbEntity
  8
03__ASM_ALL_CURVES
100
AcDbLine
 62
40
  6
CONTINUOUS
 10
6.746559202
 20
5.1276486534
 11
6.7362331985
 21
5.1207646509
  0
LINE
  5
322
100
AcDbEntity
  8
03__ASM_ALL_CURVES
100
AcDbLine
 62
40
  6
CONTINUOUS
 10
6.8807972477
 20
5.1964886783
 11
6.8911232512
 21
5.203372679
  0
LINE
  5
323
100
AcDbEntity
  8
03__ASM_ALL_CURVES
100
AcDbLine
 62
40
  6
CONTINUOUS
 10
7.6711301599
 20
4.0434398129
 11
7.6401521494
 21
4.0434398129
  0
LINE
  5
324
100
AcDbEntity
  8
03__ASM_ALL_CURVES
100
AcDbLine
 62
40
  6
CONTINUOUS
 10
7.5781961283
 20
4.0434398129
 11
7.6091741388
 21
4.0434398129
  0
LINE
  5
325
100
AcDbEntity
  8
03__ASM_ALL_CURVES
100
AcDbLine
 62
40
  6
CONTINUOUS
 10
7.6401521494
 20
4.0744178235
 11
7.659513406
 21
4.0744178235
  0
LINE
  5
326
100
AcDbEntity
  8
03__ASM_ALL_CURVES
100
AcDbLine
 62
40
  6
CONTINUOUS
 10
7.6401521494
 20
4.105395834
 11
7.6711301599
 21
4.105395834
  0
LINE
  5
327
100
AcDbEntity
  8
03__ASM_ALL_CURVES
100
AcDbLine
 62
40
  6
CONTINUOUS
 10
7.6982359192
 20
4.105395834
 11
7.7369584324
 21
4.105395834
  0
LINE
  5
328
100
AcDbEntity
  8
0
100
AcDbLine
 62
7
  6
CONTINUOUS
 10
4.1226583551
 20
4.1219174396
 11
3.9553310113
 21
4.1219174396
  0
LINE
  5
329
100
AcDbEntity
  8
03__ASM_ALL_CURVES
100
AcDbLine
 62
40
  6
CONTINUOUS
 10
7.5510903693
 20
4.1384390453
 11
7.5433458666
 21
4.1384390453
  0
LINE
  5
32A
100
AcDbEntity
  8
03__ASM_ALL_CURVES
100
AcDbLine
 62
40
  6
CONTINUOUS
 10
6.6356913953
 20
3.4329182073
 11
6.6434358979
 21
3.4277552067
  0
LINE
  5
32B
100
AcDbEntity
  8
03__ASM_ALL_CURVES
100
AcDbLine
 62
40
  6
CONTINUOUS
 10
6.718944848
 20
3.4659614185
 11
6.7112003454
 21
3.4711244204
  0
LINE
  5
32C
100
AcDbEntity
  8
03__ASM_ALL_CURVES
100
AcDbLine
 62
40
  6
CONTINUOUS
 10
6.6647333295
 20
3.5279174396
 11
6.6724778322
 21
3.5227544391
  0
LINE
  5
32D
100
AcDbEntity
  8
03__ASM_ALL_CURVES
100
AcDbLine
 62
40
  6
CONTINUOUS
 10
4.9225551164
 20
5.1276486534
 11
4.9173921146
 21
5.134532656
  0
LINE
  5
32E
100
AcDbEntity
  8
03__ASM_ALL_CURVES
100
AcDbLine
 62
40
  6
CONTINUOUS
 10
4.9432071234
 20
5.1964886783
 11
4.9483701252
 21
5.1896046727
  0
LINE
  5
32F
100
AcDbEntity
  8
03__ASM_ALL_CURVES
100
AcDbLine
 62
40
  6
CONTINUOUS
 10
5.0103261463
 20
5.1276486534
 11
5.015489148
 21
5.1207646509
  0
LINE
  5
330
100
AcDbEntity
  8
0
100
AcDbLine
 62
7
  6
CONTINUOUS
 10
5.7797730918
 20
3.6944174396
 11
5.7720025652
 21
3.7234174396
  0
LINE
  5
331
100
AcDbEntity
  8
03__ASM_ALL_CURVES
100
AcDbLine
 62
40
  6
CONTINUOUS
 10
5.6867490063
 20
3.4329182073
 11
5.6867490063
 21
3.3709621862
  0
LINE
  5
332
100
AcDbEntity
  8
03__ASM_ALL_CURVES
100
AcDbLine
 62
40
  6
CONTINUOUS
 10
5.7022380116
 20
3.5175914349
 11
5.7022380116
 21
3.5124284344
  0
LINE
  5
333
100
AcDbEntity
  8
03__ASM_ALL_CURVES
100
AcDbLine
 62
40
  6
CONTINUOUS
 10
5.7061102629
 20
3.4866134262
 11
5.7061102629
 21
3.4814504238
  0
LINE
  5
334
100
AcDbEntity
  8
03__ASM_ALL_CURVES
100
AcDbLine
 62
40
  6
CONTINUOUS
 10
5.735643458
 20
5.1042430453
 11
5.735643458
 21
5.071199834
  0
LINE
  5
335
100
AcDbEntity
  8
0
100
AcDbLine
 62
7
  6
CONTINUOUS
 10
5.7720025652
 20
3.7234174396
 11
5.7720025652
 21
4.5204174396
  0
LINE
  5
336
100
AcDbEntity
  8
0
100
AcDbLine
 62
7
  6
CONTINUOUS
 10
5.7797730918
 20
3.6944174396
 11
5.7797730918
 21
4.5494174396
  0
LINE
  5
337
100
AcDbEntity
  8
03__ASM_ALL_CURVES
100
AcDbLine
 62
40
  6
CONTINUOUS
 10
5.4776474351
 20
3.4969394291
 11
5.4815196864
 21
3.5124284344
  0
LINE
  5
338
100
AcDbEntity
  8
03__ASM_ALL_CURVES
100
AcDbLine
 62
40
  6
CONTINUOUS
 10
5.5241144509
 20
3.4969394291
 11
5.5202421996
 21
3.4814504238
  0
LINE
  5
339
100
AcDbEntity
  8
03__ASM_ALL_CURVES
100
AcDbLine
 62
40
  6
CONTINUOUS
 10
6.0392279611
 20
5.1620686649
 11
6.0443909629
 21
5.182720672
  0
LINE
  5
33A
100
AcDbEntity
  8
0
100
AcDbLine
 62
7
  6
CONTINUOUS
 10
5.7797730918
 20
4.5494174396
 11
5.7720025652
 21
4.5204174396
  0
LINE
  5
33B
100
AcDbEntity
  8
0
100
AcDbLine
 62
7
  6
CONTINUOUS
 10
5.1157730918
 20
3.6934174396
 11
5.0557218555
 21
3.6333662034
  0
LINE
  5
33C
100
AcDbEntity
  8
03__ASM_ALL_CURVES
100
AcDbLine
 62
40
  6
CONTINUOUS
 10
6.9117752583
 20
5.1276486534
 11
6.9014492548
 21
5.1207646509
  0
LINE
  5
33D
100
AcDbEntity
  8
03__ASM_ALL_CURVES
100
AcDbLine
 62
40
  6
CONTINUOUS
 10
6.9943832864
 20
5.1276486534
 11
6.9840572829
 21
5.1207646509
  0
LINE
  5
33E
100
AcDbEntity
  8
03__ASM_ALL_CURVES
100
AcDbLine
 62
40
  6
CONTINUOUS
 10
7.6130463904
 20
4.1694170558
 11
7.5936851338
 21
4.1694170558
  0
LINE
  5
33F
100
AcDbEntity
  8
03__ASM_ALL_CURVES
100
AcDbLine
 62
40
  6
CONTINUOUS
 10
7.4891343482
 20
4.1694170558
 11
7.4697730916
 21
4.1694170558
  0
LINE
  5
340
100
AcDbEntity
  8
03__ASM_ALL_CURVES
100
AcDbLine
 62
40
  6
CONTINUOUS
 10
7.4697730916
 20
4.2003950664
 11
7.4891343482
 21
4.2003950664
  0
LINE
  5
341
100
AcDbEntity
  8
03__ASM_ALL_CURVES
100
AcDbLine
 62
40
  6
CONTINUOUS
 10
7.5433458666
 20
4.2003950664
 11
7.5510903693
 21
4.2003950664
  0
LINE
  5
342
100
AcDbEntity
  8
03__ASM_ALL_CURVES
100
AcDbLine
 62
40
  6
CONTINUOUS
 10
7.5936851338
 20
4.2003950664
 11
7.6130463904
 21
4.2003950664
  0
LINE
  5
343
100
AcDbEntity
  8
03__ASM_ALL_CURVES
100
AcDbLine
 62
40
  6
CONTINUOUS
 10
7.6517689036
 20
4.2003950664
 11
7.6904914167
 21
4.2003950664
  0
LINE
  5
344
100
AcDbEntity
  8
03__ASM_ALL_CURVES
100
AcDbLine
 62
40
  6
CONTINUOUS
 10
6.7266893506
 20
3.5279174396
 11
6.7344338533
 21
3.5227544391
  0
LINE
  5
345
100
AcDbEntity
  8
03__ASM_ALL_CURVES
100
AcDbLine
 62
40
  6
CONTINUOUS
 10
6.7886453717
 20
3.5279174396
 11
6.7963898744
 21
3.5227544391
  0
LINE
  5
346
100
AcDbEntity
  8
03__ASM_ALL_CURVES
100
AcDbLine
 62
40
  6
CONTINUOUS
 10
6.9125574139
 20
3.5279174396
 11
6.9203019166
 21
3.5227544391
  0
LINE
  5
347
100
AcDbEntity
  8
03__ASM_ALL_CURVES
100
AcDbLine
 62
40
  6
CONTINUOUS
 10
5.165216199
 20
5.1276486534
 11
5.1548901955
 21
5.1414166579
  0
LINE
  5
348
100
AcDbEntity
  8
THREAD
100
AcDbLine
 62
7
  6
CONTINUOUS
 10
6.0431350517
 20
3.7344174396
 11
6.0255258685
 21
3.7649174396
  0
LINE
  5
349
100
AcDbEntity
  8
0
100
AcDbLine
 62
7
  6
CONTINUOUS
 10
5.8317730918
 20
4.5494174396
 11
5.8317730918
 21
3.6944174396
  0
LINE
  5
34A
100
AcDbEntity
  8
0
100
AcDbLine
 62
7
  6
CONTINUOUS
 10
5.8347730918
 20
4.5464174396
 11
5.8347730918
 21
3.6974174396
  0
LINE
  5
34B
100
AcDbEntity
  8
03__ASM_ALL_CURVES
100
AcDbLine
 62
40
  6
CONTINUOUS
 10
5.8347730918
 20
4.5669390453
 11
5.8347730918
 21
5.1207646509
  0
LINE
  5
34C
100
AcDbEntity
  8
0
100
AcDbLine
 62
7
  6
CONTINUOUS
 10
5.8372730918
 20
3.7048608153
 11
5.8372730918
 21
4.538974064
  0
LINE
  5
34D
100
AcDbEntity
  8
0
100
AcDbLine
 62
7
  6
CONTINUOUS
 10
5.8569955236
 20
3.7162475666
 11
5.8569955236
 21
4.5275873126
  0
LINE
  5
34E
100
AcDbEntity
  8
0
100
AcDbLine
 62
7
  6
CONTINUOUS
 10
5.8594955236
 20
3.7169174396
 11
5.8594955236
 21
4.5269174396
  0
LINE
  5
34F
100
AcDbEntity
  8
0
100
AcDbLine
 62
7
  6
CONTINUOUS
 10
5.8817730918
 20
4.5309174396
 11
5.8817730918
 21
3.7129174396
  0
LINE
  5
350
100
AcDbEntity
  8
THREAD
100
AcDbLine
 62
7
  6
CONTINUOUS
 10
5.8817730918
 20
3.7169174396
 11
5.8817730918
 21
4.5269174396
  0
LINE
  5
351
100
AcDbEntity
  8
03__ASM_ALL_CURVES
100
AcDbLine
 62
40
  6
CONTINUOUS
 10
5.9339027255
 20
5.1042430453
 11
5.9339027255
 21
5.071199834
  0
LINE
  5
352
100
AcDbEntity
  8
0
100
AcDbLine
 62
7
  6
CONTINUOUS
 10
5.9517730918
 20
4.5309174396
 11
5.9517730918
 21
3.7129174396
  0
LINE
  5
353
100
AcDbEntity
  8
03__ASM_ALL_CURVES
100
AcDbLine
 62
40
  6
CONTINUOUS
 10
5.6015594773
 20
3.4019401967
 11
5.6054317286
 21
3.417429202
  0
LINE
  5
354
100
AcDbEntity
  8
03__ASM_ALL_CURVES
100
AcDbLine
 62
40
  6
CONTINUOUS
 10
5.6480264931
 20
3.4019401967
 11
5.6441542418
 21
3.3864511915
  0
LINE
  5
355
100
AcDbEntity
  8
03__ASM_ALL_CURVES
100
AcDbLine
 62
40
  6
CONTINUOUS
 10
6.1011839822
 20
5.1620686649
 11
6.0960209805
 21
5.1414166579
  0
LINE
  5
356
100
AcDbEntity
  8
03__ASM_ALL_CURVES
100
AcDbLine
 62
40
  6
CONTINUOUS
 10
6.1218359893
 20
5.1620686649
 11
6.126998991
 21
5.182720672
  0
LINE
  5
357
100
AcDbEntity
  8
03__ASM_ALL_CURVES
100
AcDbLine
 62
40
  6
CONTINUOUS
 10
6.2096070192
 20
5.1207646509
 11
6.2354220279
 21
5.203372679
  0
LINE
  5
358
100
AcDbEntity
  8
THREAD
100
AcDbLine
 62
7
  6
CONTINUOUS
 10
6.0431350517
 20
4.5094174396
 11
6.0255258685
 21
4.4789174396
  0
LINE
  5
359
100
AcDbEntity
  8
03__ASM_ALL_CURVES
100
AcDbLine
 62
40
  6
CONTINUOUS
 10
6.5400391317
 20
5.182720672
 11
6.5503651352
 21
5.1964886783
  0
LINE
  5
35A
100
AcDbEntity
  8
03__ASM_ALL_CURVES
100
AcDbLine
 62
40
  6
CONTINUOUS
 10
6.5865061475
 20
5.134532656
 11
6.5813431457
 21
5.1276486534
  0
LINE
  5
35B
100
AcDbEntity
  8
03__ASM_ALL_CURVES
100
AcDbLine
 62
40
  6
CONTINUOUS
 10
7.1544363409
 20
5.1276486534
 11
7.1441103374
 21
5.1207646509
  0
LINE
  5
35C
100
AcDbEntity
  8
03__ASM_ALL_CURVES
100
AcDbLine
 62
40
  6
CONTINUOUS
 10
7.3248153989
 20
5.1689526657
 11
7.3144893954
 21
5.1620686649
  0
LINE
  5
35D
100
AcDbEntity
  8
0
100
AcDbLine
 62
7
  6
CONTINUOUS
 10
3.9287730918
 20
4.3064174396
 11
3.8967730918
 21
4.3064174396
  0
LINE
  5
35E
100
AcDbEntity
  8
0
100
AcDbLine
 62
7
  6
CONTINUOUS
 10
5.0552730918
 20
4.3403223846
 11
4.6818367577
 21
4.3403223846
  0
LINE
  5
35F
100
AcDbEntity
  8
0
100
AcDbLine
 62
7
  6
CONTINUOUS
 10
5.0552730918
 20
4.3916149671
 11
4.6818367577
 21
4.3916149671
  0
LINE
  5
360
100
AcDbEntity
  8
0
100
AcDbLine
 62
7
  6
CONTINUOUS
 10
6.6757730918
 20
4.4024174396
 11
6.9277730918
 21
4.4024174396
  0
LINE
  5
361
100
AcDbEntity
  8
0
100
AcDbLine
 62
7
  6
CONTINUOUS
 10
3.9302336247
 20
4.4029426832
 11
4.1477722912
 21
4.4029426832
  0
LINE
  5
362
100
AcDbEntity
  8
0
100
AcDbLine
 62
7
  6
CONTINUOUS
 10
7.1207730918
 20
4.4099174396
 11
7.1417730918
 21
4.4099174396
  0
LINE
  5
363
100
AcDbEntity
  8
03__ASM_ALL_CURVES
100
AcDbLine
 62
40
  6
CONTINUOUS
 10
4.6024490074
 20
5.1207646509
 11
4.5921230039
 21
5.1276486534
  0
LINE
  5
364
100
AcDbEntity
  8
03__ASM_ALL_CURVES
100
AcDbLine
 62
40
  6
CONTINUOUS
 10
4.6850570355
 20
5.1207646509
 11
4.674731032
 21
5.1276486534
  0
LINE
  5
365
100
AcDbEntity
  8
03__ASM_ALL_CURVES
100
AcDbLine
 62
40
  6
CONTINUOUS
 10
4.6024490074
 20
5.203372679
 11
4.6127750109
 21
5.1964886783
  0
LINE
  5
366
100
AcDbEntity
  8
03__ASM_ALL_CURVES
100
AcDbLine
 62
40
  6
CONTINUOUS
 10
4.6850570355
 20
5.203372679
 11
4.695383039
 21
5.1964886783
  0
LINE
  5
367
100
AcDbEntity
  8
03__ASM_ALL_CURVES
100
AcDbLine
 62
40
  6
CONTINUOUS
 10
5.165216199
 20
5.1758366713
 11
5.1600531973
 21
5.182720672
  0
LINE
  5
368
100
AcDbEntity
  8
03__ASM_ALL_CURVES
100
AcDbLine
 62
40
  6
CONTINUOUS
 10
5.1961942096
 20
5.1620686649
 11
5.2065202131
 21
5.1483006611
  0
LINE
  5
369
100
AcDbEntity
  8
03__ASM_ALL_CURVES
100
AcDbLine
 62
40
  6
CONTINUOUS
 10
5.1961942096
 20
5.1964886783
 11
5.2013572113
 21
5.1896046727
  0
LINE
  5
36A
100
AcDbEntity
  8
03__ASM_ALL_CURVES
100
AcDbLine
 62
40
  6
CONTINUOUS
 10
6.62020239
 20
3.3761251881
 11
6.6124578873
 21
3.3864511915
  0
LINE
  5
36B
100
AcDbEntity
  8
03__ASM_ALL_CURVES
100
AcDbLine
 62
40
  6
CONTINUOUS
 10
5.2581502307
 20
5.203372679
 11
5.2684762342
 21
5.1896046727
  0
LINE
  5
36C
100
AcDbEntity
  8
03__ASM_ALL_CURVES
100
AcDbLine
 62
40
  6
CONTINUOUS
 10
6.6821584111
 20
3.3761251881
 11
6.6782861598
 21
3.38128819
  0
LINE
  5
36D
100
AcDbEntity
  8
03__ASM_ALL_CURVES
100
AcDbLine
 62
40
  6
CONTINUOUS
 10
6.6434358979
 20
3.4277552067
 11
6.6511804005
 21
3.417429202
  0
LINE
  5
36E
100
AcDbEntity
  8
03__ASM_ALL_CURVES
100
AcDbLine
 62
40
  6
CONTINUOUS
 10
5.9669459365
 20
5.203372679
 11
5.9669459365
 21
5.1207646509
  0
LINE
  5
36F
100
AcDbEntity
  8
0
100
AcDbLine
 62
7
  6
CONTINUOUS
 10
6.0017730918
 20
3.7174180546
 11
6.0017730918
 21
4.5264168246
  0
LINE
  5
370
100
AcDbEntity
  8
0
100
AcDbLine
 62
7
  6
CONTINUOUS
 10
6.0142675383
 20
3.7714174396
 11
6.0142675383
 21
4.4724174396
  0
LINE
  5
371
100
AcDbEntity
  8
0
100
AcDbLine
 62
7
  6
CONTINUOUS
 10
6.0255258685
 20
3.7649174396
 11
6.0255258685
 21
4.4789174396
  0
LINE
  5
372
100
AcDbEntity
  8
THREAD
100
AcDbLine
 62
7
  6
CONTINUOUS
 10
6.0431350517
 20
3.7344174396
 11
6.0431350517
 21
4.5094174396
  0
LINE
  5
373
100
AcDbEntity
  8
03__ASM_ALL_CURVES
100
AcDbLine
 62
40
  6
CONTINUOUS
 10
6.7155811915
 20
5.1964886783
 11
6.7104181897
 21
5.1896046727
  0
LINE
  5
374
100
AcDbEntity
  8
03__ASM_ALL_CURVES
100
AcDbLine
 62
40
  6
CONTINUOUS
 10
5.4544139272
 20
3.5072654338
 11
5.4505416759
 21
3.5021024296
  0
LINE
  5
375
100
AcDbEntity
  8
03__ASM_ALL_CURVES
100
AcDbLine
 62
40
  6
CONTINUOUS
 10
5.4815196864
 20
3.5124284344
 11
5.4892641891
 21
3.5227544391
  0
LINE
  5
376
100
AcDbEntity
  8
03__ASM_ALL_CURVES
100
AcDbLine
 62
40
  6
CONTINUOUS
 10
5.4544139272
 20
3.4122662015
 11
5.4505416759
 21
3.4071031973
  0
LINE
  5
377
100
AcDbEntity
  8
03__ASM_ALL_CURVES
100
AcDbLine
 62
40
  6
CONTINUOUS
 10
6.7517222038
 20
5.134532656
 11
6.746559202
 21
5.1276486534
  0
LINE
  5
378
100
AcDbEntity
  8
03__ASM_ALL_CURVES
100
AcDbLine
 62
40
  6
CONTINUOUS
 10
5.5202421996
 20
3.4814504238
 11
5.512497697
 21
3.4711244204
  0
LINE
  5
379
100
AcDbEntity
  8
03__ASM_ALL_CURVES
100
AcDbLine
 62
40
  6
CONTINUOUS
 10
5.5783259694
 20
3.5072654338
 11
5.5744537181
 21
3.5021024296
  0
LINE
  5
37A
100
AcDbEntity
  8
0
100
AcDbLine
 62
7
  6
CONTINUOUS
 10
7.0007730918
 20
4.4639174396
 11
7.0507730918
 21
4.4639174396
  0
LINE
  5
37B
100
AcDbEntity
  8
0
100
AcDbLine
 62
7
  6
CONTINUOUS
 10
7.1927730918
 20
4.4644174396
 11
7.1417730918
 21
4.4644174396
  0
LINE
  5
37C
100
AcDbEntity
  8
0
100
AcDbLine
 62
7
  6
CONTINUOUS
 10
7.0007730918
 20
4.4644174396
 11
6.9277730918
 21
4.4644174396
  0
LINE
  5
37D
100
AcDbEntity
  8
THREAD
100
AcDbLine
 62
7
  6
CONTINUOUS
 10
6.5127730918
 20
4.4649174396
 11
6.3347730918
 21
4.4649174396
  0
LINE
  5
37E
100
AcDbEntity
  8
0
100
AcDbLine
 62
7
  6
CONTINUOUS
 10
4.2837730918
 20
4.4719174396
 11
4.2617730918
 21
4.4719174396
  0
LINE
  5
37F
100
AcDbEntity
  8
THREAD
100
AcDbLine
 62
7
  6
CONTINUOUS
 10
6.0142675383
 20
4.4724174396
 11
6.0017730918
 21
4.4724174396
  0
LINE
  5
380
100
AcDbEntity
  8
0
100
AcDbLine
 62
7
  6
CONTINUOUS
 10
4.6477730918
 20
4.4954174396
 11
4.2967730918
 21
4.4954174396
  0
LINE
  5
381
100
AcDbEntity
  8
0
100
AcDbLine
 62
7
  6
CONTINUOUS
 10
4.2487730918
 20
4.4954174396
 11
4.1977730918
 21
4.4954174396
  0
LINE
  5
382
100
AcDbEntity
  8
0
100
AcDbLine
 62
7
  6
CONTINUOUS
 10
5.3687730918
 20
4.4959174396
 11
5.3607730918
 21
4.4959174396
  0
LINE
  5
383
100
AcDbEntity
  8
THREAD
100
AcDbLine
 62
7
  6
CONTINUOUS
 10
6.2902730918
 20
4.5094174396
 11
6.0431350517
 21
4.5094174396
  0
LINE
  5
384
100
AcDbEntity
  8
0
100
AcDbLine
 62
7
  6
CONTINUOUS
 10
5.7720025652
 20
4.5204174396
 11
5.4393115676
 21
4.5204174396
  0
LINE
  5
385
100
AcDbEntity
  8
0
100
AcDbLine
 62
7
  6
CONTINUOUS
 10
5.9517730918
 20
4.5264174396
 11
6.0017730918
 21
4.5264174396
  0
LINE
  5
386
100
AcDbEntity
  8
THREAD
100
AcDbLine
 62
7
  6
CONTINUOUS
 10
5.8817730918
 20
4.5269174396
 11
5.8594955236
 21
4.5269174396
  0
LINE
  5
387
100
AcDbEntity
  8
0
100
AcDbLine
 62
7
  6
CONTINUOUS
 10
5.8317730918
 20
4.5494174396
 11
5.7797730918
 21
4.5494174396
  0
LINE
  5
388
100
AcDbEntity
  8
0
100
AcDbLine
 62
7
  6
CONTINUOUS
 10
5.2407730918
 20
4.5499174396
 11
5.2907730918
 21
4.5499174396
  0
LINE
  5
389
100
AcDbEntity
  8
0
100
AcDbLine
 62
7
  6
CONTINUOUS
 10
5.4312730918
 20
4.5504174396
 11
5.3817730918
 21
4.5504174396
  0
LINE
  5
38A
100
AcDbEntity
  8
0
100
AcDbLine
 62
7
  6
CONTINUOUS
 10
5.2407730918
 20
4.5504174396
 11
5.1157730918
 21
4.5504174396
  0
LINE
  5
38B
100
AcDbEntity
  8
THREAD
100
AcDbLine
 62
7
  6
CONTINUOUS
 10
5.8569955236
 20
4.5275873126
 11
5.8372730918
 21
4.538974064
  0
LINE
  5
38C
100
AcDbEntity
  8
03__ASM_ALL_CURVES
100
AcDbLine
 62
40
  6
CONTINUOUS
 10
4.9328811199
 20
5.1207646509
 11
4.9225551164
 21
5.1276486534
  0
LINE
  5
38D
100
AcDbEntity
  8
03__ASM_ALL_CURVES
100
AcDbLine
 62
40
  6
CONTINUOUS
 10
4.9328811199
 20
5.203372679
 11
4.9432071234
 21
5.1964886783
  0
LINE
  5
38E
100
AcDbEntity
  8
03__ASM_ALL_CURVES
100
AcDbLine
 62
40
  6
CONTINUOUS
 10
6.7112003454
 20
3.4711244204
 11
6.7034558427
 21
3.4814504238
  0
LINE
  5
38F
100
AcDbEntity
  8
03__ASM_ALL_CURVES
100
AcDbLine
 62
40
  6
CONTINUOUS
 10
6.6724778322
 20
3.5227544391
 11
6.6763500835
 21
3.5175914349
  0
LINE
  5
390
100
AcDbEntity
  8
03__ASM_ALL_CURVES
100
AcDbLine
 62
40
  6
CONTINUOUS
 10
6.7344338533
 20
3.5227544391
 11
6.7421783559
 21
3.5124284344
  0
LINE
  5
391
100
AcDbEntity
  8
03__ASM_ALL_CURVES
100
AcDbLine
 62
40
  6
CONTINUOUS
 10
6.8704712442
 20
5.182720672
 11
6.8807972477
 21
5.1964886783
  0
LINE
  5
392
100
AcDbEntity
  8
03__ASM_ALL_CURVES
100
AcDbLine
 62
40
  6
CONTINUOUS
 10
5.6054317286
 20
3.417429202
 11
5.6131762313
 21
3.4277552067
  0
LINE
  5
393
100
AcDbEntity
  8
03__ASM_ALL_CURVES
100
AcDbLine
 62
40
  6
CONTINUOUS
 10
6.9221012618
 20
5.1414166579
 11
6.9117752583
 21
5.1276486534
  0
LINE
  5
394
100
AcDbEntity
  8
03__ASM_ALL_CURVES
100
AcDbLine
 62
40
  6
CONTINUOUS
 10
5.7022380116
 20
3.5124284344
 11
5.6983657603
 21
3.5072654338
  0
LINE
  5
395
100
AcDbEntity
  8
03__ASM_ALL_CURVES
100
AcDbLine
 62
40
  6
CONTINUOUS
 10
5.7061102629
 20
3.4814504238
 11
5.6983657603
 21
3.4711244204
  0
LINE
  5
396
100
AcDbEntity
  8
03__ASM_ALL_CURVES
100
AcDbLine
 62
40
  6
CONTINUOUS
 10
5.6441542418
 20
3.3864511915
 11
5.6364097392
 21
3.3761251881
  0
LINE
  5
397
100
AcDbEntity
  8
0
100
AcDbLine
 62
7
  6
CONTINUOUS
 10
5.0552730918
 20
4.6100199121
 11
4.6818367577
 21
4.6100199121
  0
LINE
  5
398
100
AcDbEntity
  8
0
100
AcDbLine
 62
7
  6
CONTINUOUS
 10
5.0552730918
 20
4.6109174396
 11
4.6818367577
 21
4.6109174396
  0
LINE
  5
399
100
AcDbEntity
  8
03__ASM_ALL_CURVES
100
AcDbLine
 62
40
  6
CONTINUOUS
 10
4.6024490074
 20
5.1551846618
 11
4.5869600021
 21
5.1620686649
  0
LINE
  5
39A
100
AcDbEntity
  8
03__ASM_ALL_CURVES
100
AcDbLine
 62
40
  6
CONTINUOUS
 10
4.6850570355
 20
5.1689526657
 11
4.7005460408
 21
5.1620686649
  0
LINE
  5
39B
100
AcDbEntity
  8
03__ASM_ALL_CURVES
100
AcDbLine
 62
40
  6
CONTINUOUS
 10
4.9328811199
 20
5.1551846618
 11
4.9173921146
 21
5.1620686649
  0
LINE
  5
39C
100
AcDbEntity
  8
03__ASM_ALL_CURVES
100
AcDbLine
 62
40
  6
CONTINUOUS
 10
5.1755422026
 20
5.1207646509
 11
5.165216199
 21
5.1276486534
  0
LINE
  5
39D
100
AcDbEntity
  8
03__ASM_ALL_CURVES
100
AcDbLine
 62
40
  6
CONTINUOUS
 10
5.1755422026
 20
5.1689526657
 11
5.165216199
 21
5.1758366713
  0
LINE
  5
39E
100
AcDbEntity
  8
03__ASM_ALL_CURVES
100
AcDbLine
 62
40
  6
CONTINUOUS
 10
5.1858682061
 20
5.1689526657
 11
5.1961942096
 21
5.1620686649
  0
LINE
  5
39F
100
AcDbEntity
  8
03__ASM_ALL_CURVES
100
AcDbLine
 62
40
  6
CONTINUOUS
 10
5.1858682061
 20
5.203372679
 11
5.1961942096
 21
5.1964886783
  0
LINE
  5
3A0
100
AcDbEntity
  8
03__ASM_ALL_CURVES
100
AcDbLine
 62
40
  6
CONTINUOUS
 10
6.7963898744
 20
3.5227544391
 11
6.8002621257
 21
3.5175914349
  0
LINE
  5
3A1
100
AcDbEntity
  8
03__ASM_ALL_CURVES
100
AcDbLine
 62
40
  6
CONTINUOUS
 10
6.9203019166
 20
3.5227544391
 11
6.9241741679
 21
3.5175914349
  0
LINE
  5
3A2
100
AcDbEntity
  8
03__ASM_ALL_CURVES
100
AcDbLine
 62
40
  6
CONTINUOUS
 10
6.0443909629
 20
5.1414166579
 11
6.0392279611
 21
5.1620686649
  0
LINE
  5
3A3
100
AcDbEntity
  8
THREAD
100
AcDbLine
 62
7
  6
CONTINUOUS
 10
6.2902730918
 20
3.7344174396
 11
6.2902730918
 21
4.5094174396
  0
LINE
  5
3A4
100
AcDbEntity
  8
03__ASM_ALL_CURVES
100
AcDbLine
 62
40
  6
CONTINUOUS
 10
6.3180300561
 20
5.203372679
 11
6.3180300561
 21
5.1207646509
  0
LINE
  5
3A5
100
AcDbEntity
  8
THREAD
100
AcDbLine
 62
7
  6
CONTINUOUS
 10
6.3347730918
 20
3.7789174396
 11
6.3347730918
 21
4.4649174396
  0
LINE
  5
3A6
100
AcDbEntity
  8
03__ASM_ALL_CURVES
100
AcDbLine
 62
40
  6
CONTINUOUS
 10
6.5348761299
 20
5.1620686649
 11
6.5400391317
 21
5.182720672
  0
LINE
  5
3A7
100
AcDbEntity
  8
03__ASM_ALL_CURVES
100
AcDbLine
 62
40
  6
CONTINUOUS
 10
6.9995462882
 20
5.134532656
 11
6.9943832864
 21
5.1276486534
  0
LINE
  5
3A8
100
AcDbEntity
  8
03__ASM_ALL_CURVES
100
AcDbLine
 62
40
  6
CONTINUOUS
 10
7.1647623444
 20
5.1414166579
 11
7.1544363409
 21
5.1276486534
  0
LINE
  5
3A9
100
AcDbEntity
  8
03__ASM_ALL_CURVES
100
AcDbLine
 62
40
  6
CONTINUOUS
 10
5.4505416759
 20
3.5021024296
 11
5.4427971732
 21
3.4969394291
  0
LINE
  5
3AA
100
AcDbEntity
  8
03__ASM_ALL_CURVES
100
AcDbLine
 62
40
  6
CONTINUOUS
 10
5.4892641891
 20
3.5227544391
 11
5.4970086917
 21
3.5279174396
  0
LINE
  5
3AB
100
AcDbEntity
  8
03__ASM_ALL_CURVES
100
AcDbLine
 62
40
  6
CONTINUOUS
 10
5.512497697
 20
3.4711244204
 11
5.5047531943
 21
3.4659614185
  0
LINE
  5
3AC
100
AcDbEntity
  8
03__ASM_ALL_CURVES
100
AcDbLine
 62
40
  6
CONTINUOUS
 10
5.5744537181
 20
3.5021024296
 11
5.5667092154
 21
3.4969394291
  0
LINE
  5
3AD
100
AcDbEntity
  8
03__ASM_ALL_CURVES
100
AcDbLine
 62
40
  6
CONTINUOUS
 10
5.4505416759
 20
3.4071031973
 11
5.4427971732
 21
3.4019401967
  0
LINE
  5
3AE
100
AcDbEntity
  8
03__ASM_ALL_CURVES
100
AcDbLine
 62
40
  6
CONTINUOUS
 10
5.6751322524
 20
3.5227544391
 11
5.682876755
 21
3.5279174396
  0
LINE
  5
3AF
100
AcDbEntity
  8
THREAD
100
AcDbLine
 62
7
  6
CONTINUOUS
 10
5.8569955236
 20
3.7162475666
 11
5.8372730918
 21
3.7048608153
  0
LINE
  5
3B0
100
AcDbEntity
  8
03__ASM_ALL_CURVES
100
AcDbLine
 62
40
  6
CONTINUOUS
 10
3.9649027255
 20
5.0767070359
 11
3.8657730918
 21
5.0877214396
  0
LINE
  5
3B1
100
AcDbEntity
  8
03__ASM_ALL_CURVES
100
AcDbLine
 62
40
  6
CONTINUOUS
 10
3.9649027255
 20
5.0739534349
 11
3.8657730918
 21
5.0877214396
  0
LINE
  5
3B2
100
AcDbEntity
  8
03__ASM_ALL_CURVES
100
AcDbLine
 62
40
  6
CONTINUOUS
 10
3.9649027255
 20
5.071199834
 11
3.8657730918
 21
5.0877214396
  0
LINE
  5
3B3
100
AcDbEntity
  8
THREAD
100
AcDbLine
 62
7
  6
CONTINUOUS
 10
6.3347730918
 20
4.4649174396
 11
6.2902730918
 21
4.5094174396
  0
LINE
  5
3B4
100
AcDbEntity
  8
03__ASM_ALL_CURVES
100
AcDbLine
 62
40
  6
CONTINUOUS
 10
6.0960209805
 20
5.182720672
 11
6.1011839822
 21
5.1620686649
  0
LINE
  5
3B5
100
AcDbEntity
  8
03__ASM_ALL_CURVES
100
AcDbLine
 62
40
  6
CONTINUOUS
 10
6.126998991
 20
5.1414166579
 11
6.1218359893
 21
5.1620686649
  0
LINE
  5
3B6
100
AcDbEntity
  8
03__ASM_ALL_CURVES
100
AcDbLine
 62
40
  6
CONTINUOUS
 10
6.6124578873
 20
3.3864511915
 11
6.608585636
 21
3.4019401967
  0
LINE
  5
3B7
100
AcDbEntity
  8
03__ASM_ALL_CURVES
100
AcDbLine
 62
40
  6
CONTINUOUS
 10
6.4006380842
 20
5.203372679
 11
6.4006380842
 21
5.1207646509
  0
LINE
  5
3B8
100
AcDbEntity
  8
03__ASM_ALL_CURVES
100
AcDbLine
 62
40
  6
CONTINUOUS
 10
6.4625941053
 20
5.1207646509
 11
6.4625941053
 21
5.203372679
  0
LINE
  5
3B9
100
AcDbEntity
  8
03__ASM_ALL_CURVES
100
AcDbLine
 62
40
  6
CONTINUOUS
 10
6.5038981194
 20
5.1207646509
 11
6.5038981194
 21
5.203372679
  0
LINE
  5
3BA
100
AcDbEntity
  8
0
100
AcDbLine
 62
7
  6
CONTINUOUS
 10
6.5127730918
 20
3.7789174396
 11
6.5127730918
 21
4.4649174396
  0
LINE
  5
3BB
100
AcDbEntity
  8
0
100
AcDbLine
 62
7
  6
CONTINUOUS
 10
6.5227730918
 20
3.7889174396
 11
6.5227730918
 21
4.4549174396
  0
LINE
  5
3BC
100
AcDbEntity
  8
0
100
AcDbLine
 62
7
  6
CONTINUOUS
 10
6.5271490322
 20
3.9970607364
 11
6.5271490322
 21
4.0111671162
  0
LINE
  5
3BD
100
AcDbEntity
  8
0
100
AcDbLine
 62
7
  6
CONTINUOUS
 10
6.5271490322
 20
4.2326679013
 11
6.5271490322
 21
4.2468132813
  0
LINE
  5
3BE
100
AcDbEntity
  8
03__ASM_ALL_CURVES
100
AcDbLine
 62
40
  6
CONTINUOUS
 10
7.3299784007
 20
5.1758366713
 11
7.3248153989
 21
5.1689526657
  0
LINE
  5
3BF
100
AcDbEntity
  8
03__ASM_ALL_CURVES
100
AcDbLine
 62
40
  6
CONTINUOUS
 10
5.6983657603
 20
3.5072654338
 11
5.6906212576
 21
3.5021024296
  0
LINE
  5
3C0
100
AcDbEntity
  8
03__ASM_ALL_CURVES
100
AcDbLine
 62
40
  6
CONTINUOUS
 10
5.6131762313
 20
3.4277552067
 11
5.6209207339
 21
3.4329182073
  0
LINE
  5
3C1
100
AcDbEntity
  8
03__ASM_ALL_CURVES
100
AcDbLine
 62
40
  6
CONTINUOUS
 10
5.6983657603
 20
3.4711244204
 11
5.6906212576
 21
3.4659614185
  0
LINE
  5
3C2
100
AcDbEntity
  8
03__ASM_ALL_CURVES
100
AcDbLine
 62
40
  6
CONTINUOUS
 10
5.6364097392
 20
3.3761251881
 11
5.6286652365
 21
3.3709621862
  0
LINE
  5
3C3
100
AcDbEntity
  8
03__ASM_ALL_CURVES
100
AcDbLine
 62
40
  6
CONTINUOUS
 10
3.9649027255
 20
5.0822142378
 11
3.8657730918
 21
5.0877214396
  0
LINE
  5
3C4
100
AcDbEntity
  8
03__ASM_ALL_CURVES
100
AcDbLine
 62
40
  6
CONTINUOUS
 10
3.9649027255
 20
5.0794606368
 11
3.8657730918
 21
5.0877214396
  0
LINE
  5
3C5
100
AcDbEntity
  8
0
100
AcDbLine
 62
7
  6
CONTINUOUS
 10
6.5227730918
 20
4.4549174396
 11
6.5127730918
 21
4.4649174396
  0
LINE
  5
3C6
100
AcDbEntity
  8
03__ASM_ALL_CURVES
100
AcDbLine
 62
40
  6
CONTINUOUS
 10
6.0547169664
 20
5.1276486534
 11
6.0443909629
 21
5.1414166579
  0
LINE
  5
3C7
100
AcDbEntity
  8
03__ASM_ALL_CURVES
100
AcDbLine
 62
40
  6
CONTINUOUS
 10
6.7886453717
 20
3.4969394291
 11
6.8002621257
 21
3.4659614185
  0
LINE
  5
3C8
100
AcDbEntity
  8
03__ASM_ALL_CURVES
100
AcDbLine
 62
40
  6
CONTINUOUS
 10
6.2354220279
 20
5.203372679
 11
6.2612370367
 21
5.1207646509
  0
LINE
  5
3C9
100
AcDbEntity
  8
03__ASM_ALL_CURVES
100
AcDbLine
 62
40
  6
CONTINUOUS
 10
6.6511804005
 20
3.417429202
 11
6.6550526518
 21
3.4019401967
  0
LINE
  5
3CA
100
AcDbEntity
  8
03__ASM_ALL_CURVES
100
AcDbLine
 62
40
  6
CONTINUOUS
 10
6.7034558427
 20
3.4814504238
 11
6.6995835914
 21
3.4969394291
  0
LINE
  5
3CB
100
AcDbEntity
  8
03__ASM_ALL_CURVES
100
AcDbLine
 62
40
  6
CONTINUOUS
 10
6.7421783559
 20
3.5124284344
 11
6.7460506072
 21
3.4969394291
  0
LINE
  5
3CC
100
AcDbEntity
  8
03__ASM_ALL_CURVES
100
AcDbLine
 62
40
  6
CONTINUOUS
 10
6.5865061475
 20
5.1620686649
 11
6.5865061475
 21
5.134532656
  0
LINE
  5
3CD
100
AcDbEntity
  8
03__ASM_ALL_CURVES
100
AcDbLine
 62
40
  6
CONTINUOUS
 10
6.645372073
 20
3.4659614185
 11
6.645372073
 21
3.5279174396
  0
LINE
  5
3CE
100
AcDbEntity
  8
03__ASM_ALL_CURVES
100
AcDbLine
 62
40
  6
CONTINUOUS
 10
6.6763500835
 20
3.5175914349
 11
6.6763500835
 21
3.5072654338
  0
LINE
  5
3CF
100
AcDbEntity
  8
03__ASM_ALL_CURVES
100
AcDbLine
 62
40
  6
CONTINUOUS
 10
6.8653082425
 20
5.1620686649
 11
6.8704712442
 21
5.182720672
  0
LINE
  5
3D0
100
AcDbEntity
  8
THREAD
100
AcDbLine
 62
7
  6
CONTINUOUS
 10
6.3347730918
 20
3.7789174396
 11
6.2902730918
 21
3.7344174396
  0
LINE
  5
3D1
100
AcDbEntity
  8
0
100
AcDbLine
 62
7
  6
CONTINUOUS
 10
6.5227730918
 20
3.7889174396
 11
6.5127730918
 21
3.7789174396
  0
LINE
  5
3D2
100
AcDbEntity
  8
03__ASM_ALL_CURVES
100
AcDbLine
 62
40
  6
CONTINUOUS
 10
5.735643458
 20
5.071199834
 11
5.9339027255
 21
5.1042430453
  0
LINE
  5
3D3
100
AcDbEntity
  8
03__ASM_ALL_CURVES
100
AcDbLine
 62
40
  6
CONTINUOUS
 10
5.735643458
 20
5.0739534349
 11
5.9339027255
 21
5.1014894443
  0
LINE
  5
3D4
100
AcDbEntity
  8
03__ASM_ALL_CURVES
100
AcDbLine
 62
40
  6
CONTINUOUS
 10
5.735643458
 20
5.0767070359
 11
5.9339027255
 21
5.0987358434
  0
LINE
  5
3D5
100
AcDbEntity
  8
03__ASM_ALL_CURVES
100
AcDbLine
 62
40
  6
CONTINUOUS
 10
5.735643458
 20
5.0794606368
 11
5.9339027255
 21
5.0959822424
  0
LINE
  5
3D6
100
AcDbEntity
  8
03__ASM_ALL_CURVES
100
AcDbLine
 62
40
  6
CONTINUOUS
 10
5.735643458
 20
5.0822142378
 11
5.9339027255
 21
5.0932286415
  0
LINE
  5
3D7
100
AcDbEntity
  8
03__ASM_ALL_CURVES
100
AcDbLine
 62
40
  6
CONTINUOUS
 10
5.735643458
 20
5.0849678387
 11
5.9339027255
 21
5.0904750406
  0
LINE
  5
3D8
100
AcDbEntity
  8
03__ASM_ALL_CURVES
100
AcDbLine
 62
40
  6
CONTINUOUS
 10
3.9649027255
 20
5.0904750406
 11
3.8657730918
 21
5.0877214396
  0
LINE
  5
3D9
100
AcDbEntity
  8
03__ASM_ALL_CURVES
100
AcDbLine
 62
40
  6
CONTINUOUS
 10
3.8657730918
 20
5.0877214396
 11
7.4208472319
 21
5.0877214396
  0
LINE
  5
3DA
100
AcDbEntity
  8
03__ASM_ALL_CURVES
100
AcDbLine
 62
40
  6
CONTINUOUS
 10
7.2473703726
 20
5.1207646509
 11
7.2060663585
 21
5.1207646509
  0
LINE
  5
3DB
100
AcDbEntity
  8
03__ASM_ALL_CURVES
100
AcDbLine
 62
40
  6
CONTINUOUS
 10
7.1441103374
 20
5.1207646509
 11
7.1234583304
 21
5.1207646509
  0
LINE
  5
3DC
100
AcDbEntity
  8
03__ASM_ALL_CURVES
100
AcDbLine
 62
40
  6
CONTINUOUS
 10
6.9840572829
 20
5.1207646509
 11
6.9737312794
 21
5.1207646509
  0
LINE
  5
3DD
100
AcDbEntity
  8
03__ASM_ALL_CURVES
100
AcDbLine
 62
40
  6
CONTINUOUS
 10
6.9014492548
 20
5.1207646509
 11
6.8911232512
 21
5.1207646509
  0
LINE
  5
3DE
100
AcDbEntity
  8
03__ASM_ALL_CURVES
100
AcDbLine
 62
40
  6
CONTINUOUS
 10
6.7362331985
 20
5.1207646509
 11
6.725907195
 21
5.1207646509
  0
LINE
  5
3DF
100
AcDbEntity
  8
03__ASM_ALL_CURVES
100
AcDbLine
 62
40
  6
CONTINUOUS
 10
6.5710171422
 20
5.1207646509
 11
6.5606911387
 21
5.1207646509
  0
LINE
  5
3E0
100
AcDbEntity
  8
03__ASM_ALL_CURVES
100
AcDbLine
 62
40
  6
CONTINUOUS
 10
6.1579770016
 20
5.1207646509
 11
6.1476509981
 21
5.1207646509
  0
LINE
  5
3E1
100
AcDbEntity
  8
03__ASM_ALL_CURVES
100
AcDbLine
 62
40
  6
CONTINUOUS
 10
6.0753689734
 20
5.1207646509
 11
6.0650429699
 21
5.1207646509
  0
LINE
  5
3E2
100
AcDbEntity
  8
03__ASM_ALL_CURVES
100
AcDbLine
 62
40
  6
CONTINUOUS
 10
5.1858682061
 20
5.1207646509
 11
5.1755422026
 21
5.1207646509
  0
LINE
  5
3E3
100
AcDbEntity
  8
03__ASM_ALL_CURVES
100
AcDbLine
 62
40
  6
CONTINUOUS
 10
5.015489148
 20
5.1207646509
 11
5.0103261463
 21
5.1207646509
  0
LINE
  5
3E4
100
AcDbEntity
  8
03__ASM_ALL_CURVES
100
AcDbLine
 62
40
  6
CONTINUOUS
 10
4.5198409792
 20
5.1207646509
 11
4.5146779775
 21
5.1207646509
  0
LINE
  5
3E5
100
AcDbEntity
  8
03__ASM_ALL_CURVES
100
AcDbLine
 62
40
  6
CONTINUOUS
 10
5.9669459365
 20
5.1207646509
 11
6.0082499506
 21
5.1207646509
  0
LINE
  5
3E6
100
AcDbEntity
  8
03__ASM_ALL_CURVES
100
AcDbLine
 62
40
  6
CONTINUOUS
 10
7.0408503022
 20
5.1207646509
 11
7.0821543163
 21
5.1207646509
  0
LINE
  5
3E7
100
AcDbEntity
  8
03__ASM_ALL_CURVES
100
AcDbLine
 62
40
  6
CONTINUOUS
 10
4.8296210847
 20
5.1414166579
 11
4.8760881006
 21
5.1414166579
  0
LINE
  5
3E8
100
AcDbEntity
  8
03__ASM_ALL_CURVES
100
AcDbLine
 62
40
  6
CONTINUOUS
 10
6.2199330227
 20
5.1483006611
 11
6.2509110332
 21
5.1483006611
  0
LINE
  5
3E9
100
AcDbEntity
  8
03__ASM_ALL_CURVES
100
AcDbLine
 62
40
  6
CONTINUOUS
 10
7.3144893954
 20
5.1620686649
 11
7.2886743866
 21
5.1620686649
  0
LINE
  5
3EA
100
AcDbEntity
  8
03__ASM_ALL_CURVES
100
AcDbLine
 62
40
  6
CONTINUOUS
 10
6.5658541405
 20
5.1620686649
 11
6.5865061475
 21
5.1620686649
  0
LINE
  5
3EB
100
AcDbEntity
  8
03__ASM_ALL_CURVES
100
AcDbLine
 62
40
  6
CONTINUOUS
 10
6.7930262178
 20
5.1620686649
 11
6.8343302319
 21
5.1620686649
  0
LINE
  5
3EC
100
AcDbEntity
  8
03__ASM_ALL_CURVES
100
AcDbLine
 62
40
  6
CONTINUOUS
 10
7.2060663585
 20
5.1620686649
 11
7.2318813673
 21
5.1620686649
  0
LINE
  5
3ED
100
AcDbEntity
  8
03__ASM_ALL_CURVES
100
AcDbLine
 62
40
  6
CONTINUOUS
 10
3.9649027255
 20
5.0849678387
 11
3.8657730918
 21
5.0877214396
  0
LINE
  5
3EE
100
AcDbEntity
  8
03__ASM_ALL_CURVES
100
AcDbLine
 62
40
  6
CONTINUOUS
 10
5.735643458
 20
5.0904750406
 11
5.9339027255
 21
5.0849678387
  0
LINE
  5
3EF
100
AcDbEntity
  8
03__ASM_ALL_CURVES
100
AcDbLine
 62
40
  6
CONTINUOUS
 10
5.735643458
 20
5.0932286415
 11
5.9339027255
 21
5.0822142378
  0
LINE
  5
3F0
100
AcDbEntity
  8
03__ASM_ALL_CURVES
100
AcDbLine
 62
40
  6
CONTINUOUS
 10
5.735643458
 20
5.0959822424
 11
5.9339027255
 21
5.0794606368
  0
LINE
  5
3F1
100
AcDbEntity
  8
03__ASM_ALL_CURVES
100
AcDbLine
 62
40
  6
CONTINUOUS
 10
5.735643458
 20
5.0987358434
 11
5.9339027255
 21
5.0767070359
  0
LINE
  5
3F2
100
AcDbEntity
  8
03__ASM_ALL_CURVES
100
AcDbLine
 62
40
  6
CONTINUOUS
 10
5.735643458
 20
5.1014894443
 11
5.9339027255
 21
5.0739534349
  0
LINE
  5
3F3
100
AcDbEntity
  8
03__ASM_ALL_CURVES
100
AcDbLine
 62
40
  6
CONTINUOUS
 10
5.9339027255
 20
5.071199834
 11
5.735643458
 21
5.1042430453
  0
LINE
  5
3F4
100
AcDbEntity
  8
03__ASM_ALL_CURVES
100
AcDbLine
 62
40
  6
CONTINUOUS
 10
6.0650429699
 20
5.1207646509
 11
6.0547169664
 21
5.1276486534
  0
LINE
  5
3F5
100
AcDbEntity
  8
03__ASM_ALL_CURVES
100
AcDbLine
 62
40
  6
CONTINUOUS
 10
7.5433458666
 20
4.1384390453
 11
7.535601364
 21
4.1436020472
  0
LINE
  5
3F6
100
AcDbEntity
  8
03__ASM_ALL_CURVES
100
AcDbLine
 62
40
  6
CONTINUOUS
 10
7.4891343482
 20
4.2003950664
 11
7.4968788508
 21
4.1952320658
  0
LINE
  5
3F7
100
AcDbEntity
  8
03__ASM_ALL_CURVES
100
AcDbLine
 62
40
  6
CONTINUOUS
 10
6.085694977
 20
5.1964886783
 11
6.0960209805
 21
5.182720672
  0
LINE
  5
3F8
100
AcDbEntity
  8
03__ASM_ALL_CURVES
100
AcDbLine
 62
40
  6
CONTINUOUS
 10
6.1373249945
 20
5.1276486534
 11
6.126998991
 21
5.1414166579
  0
LINE
  5
3F9
100
AcDbEntity
  8
03__ASM_ALL_CURVES
100
AcDbLine
 62
40
  6
CONTINUOUS
 10
6.1683030051
 20
5.1964886783
 11
6.1734660068
 21
5.1896046727
  0
LINE
  5
3FA
100
AcDbEntity
  8
03__ASM_ALL_CURVES
100
AcDbLine
 62
40
  6
CONTINUOUS
 10
6.6782861598
 20
3.38128819
 11
6.6782861598
 21
3.4329182073
  0
LINE
  5
3FB
100
AcDbEntity
  8
03__ASM_ALL_CURVES
100
AcDbLine
 62
40
  6
CONTINUOUS
 10
6.7092641703
 20
3.4329182073
 11
6.7092641703
 21
3.38128819
  0
LINE
  5
3FC
100
AcDbEntity
  8
03__ASM_ALL_CURVES
100
AcDbLine
 62
40
  6
CONTINUOUS
 10
6.7104181897
 20
5.1896046727
 11
6.7104181897
 21
5.182720672
  0
LINE
  5
3FD
100
AcDbEntity
  8
03__ASM_ALL_CURVES
100
AcDbLine
 62
40
  6
CONTINUOUS
 10
6.7517222038
 20
5.1483006611
 11
6.7517222038
 21
5.134532656
  0
LINE
  5
3FE
100
AcDbEntity
  8
03__ASM_ALL_CURVES
100
AcDbLine
 62
40
  6
CONTINUOUS
 10
6.7557311861
 20
3.4329182073
 11
6.7557311861
 21
3.3709621862
  0
LINE
  5
3FF
100
AcDbEntity
  8
03__ASM_ALL_CURVES
100
AcDbLine
 62
40
  6
CONTINUOUS
 10
6.7692841152
 20
3.4659614185
 11
6.7692841152
 21
3.5279174396
  0
LINE
  5
400
100
AcDbEntity
  8
03__ASM_ALL_CURVES
100
AcDbLine
 62
40
  6
CONTINUOUS
 10
6.7930262178
 20
5.203372679
 11
6.7930262178
 21
5.1207646509
  0
LINE
  5
401
100
AcDbEntity
  8
03__ASM_ALL_CURVES
100
AcDbLine
 62
40
  6
CONTINUOUS
 10
6.8002621257
 20
3.5175914349
 11
6.8002621257
 21
3.5072654338
  0
LINE
  5
402
100
AcDbEntity
  8
03__ASM_ALL_CURVES
100
AcDbLine
 62
40
  6
CONTINUOUS
 10
6.802198202
 20
3.4329182073
 11
6.802198202
 21
3.3709621862
  0
LINE
  5
403
100
AcDbEntity
  8
03__ASM_ALL_CURVES
100
AcDbLine
 62
40
  6
CONTINUOUS
 10
6.9272642636
 20
5.1620686649
 11
6.9221012618
 21
5.1414166579
  0
LINE
  5
404
100
AcDbEntity
  8
03__ASM_ALL_CURVES
100
AcDbLine
 62
40
  6
CONTINUOUS
 10
6.608585636
 20
3.4019401967
 11
6.6124578873
 21
3.417429202
  0
LINE
  5
405
100
AcDbEntity
  8
03__ASM_ALL_CURVES
100
AcDbLine
 62
40
  6
CONTINUOUS
 10
3.9649027255
 20
5.0987358434
 11
3.8657730918
 21
5.0877214396
  0
LINE
  5
406
100
AcDbEntity
  8
03__ASM_ALL_CURVES
100
AcDbLine
 62
40
  6
CONTINUOUS
 10
3.9649027255
 20
5.0959822424
 11
3.8657730918
 21
5.0877214396
  0
LINE
  5
407
100
AcDbEntity
  8
03__ASM_ALL_CURVES
100
AcDbLine
 62
40
  6
CONTINUOUS
 10
3.9649027255
 20
5.0932286415
 11
3.8657730918
 21
5.0877214396
  0
LINE
  5
408
100
AcDbEntity
  8
03__ASM_ALL_CURVES
100
AcDbLine
 62
40
  6
CONTINUOUS
 10
5.1755422026
 20
5.1689526657
 11
5.1858682061
 21
5.1689526657
  0
LINE
  5
409
100
AcDbEntity
  8
03__ASM_ALL_CURVES
100
AcDbLine
 62
40
  6
CONTINUOUS
 10
6.7362331985
 20
5.203372679
 11
6.725907195
 21
5.203372679
  0
LINE
  5
40A
100
AcDbEntity
  8
03__ASM_ALL_CURVES
100
AcDbLine
 62
40
  6
CONTINUOUS
 10
5.1187491832
 20
5.203372679
 11
5.0774451691
 21
5.203372679
  0
LINE
  5
40B
100
AcDbEntity
  8
03__ASM_ALL_CURVES
100
AcDbLine
 62
40
  6
CONTINUOUS
 10
5.1755422026
 20
5.203372679
 11
5.1858682061
 21
5.203372679
  0
LINE
  5
40C
100
AcDbEntity
  8
03__ASM_ALL_CURVES
100
AcDbLine
 62
40
  6
CONTINUOUS
 10
6.0650429699
 20
5.203372679
 11
6.0753689734
 21
5.203372679
  0
LINE
  5
40D
100
AcDbEntity
  8
03__ASM_ALL_CURVES
100
AcDbLine
 62
40
  6
CONTINUOUS
 10
6.1476509981
 20
5.203372679
 11
6.1579770016
 21
5.203372679
  0
LINE
  5
40E
100
AcDbEntity
  8
03__ASM_ALL_CURVES
100
AcDbLine
 62
40
  6
CONTINUOUS
 10
6.2922150473
 20
5.203372679
 11
6.3438450649
 21
5.203372679
  0
LINE
  5
40F
100
AcDbEntity
  8
03__ASM_ALL_CURVES
100
AcDbLine
 62
40
  6
CONTINUOUS
 10
6.5606911387
 20
5.203372679
 11
6.5710171422
 21
5.203372679
  0
LINE
  5
410
100
AcDbEntity
  8
03__ASM_ALL_CURVES
100
AcDbLine
 62
40
  6
CONTINUOUS
 10
6.8911232512
 20
5.203372679
 11
6.9014492548
 21
5.203372679
  0
LINE
  5
411
100
AcDbEntity
  8
03__ASM_ALL_CURVES
100
AcDbLine
 62
40
  6
CONTINUOUS
 10
7.1234583304
 20
5.203372679
 11
7.1441103374
 21
5.203372679
  0
LINE
  5
412
100
AcDbEntity
  8
03__ASM_ALL_CURVES
100
AcDbLine
 62
40
  6
CONTINUOUS
 10
7.2060663585
 20
5.203372679
 11
7.2473703726
 21
5.203372679
  0
LINE
  5
413
100
AcDbEntity
  8
03__ASM_ALL_CURVES
100
AcDbLine
 62
40
  6
CONTINUOUS
 10
7.2886743866
 20
5.203372679
 11
7.3144893954
 21
5.203372679
  0
LINE
  5
414
100
AcDbEntity
  8
03__ASM_ALL_CURVES
100
AcDbLine
 62
40
  6
CONTINUOUS
 10
6.1476509981
 20
5.1207646509
 11
6.1373249945
 21
5.1276486534
  0
LINE
  5
415
100
AcDbEntity
  8
03__ASM_ALL_CURVES
100
AcDbLine
 62
40
  6
CONTINUOUS
 10
7.5510903693
 20
4.2003950664
 11
7.5588348719
 21
4.1952320658
  0
LINE
  5
416
100
AcDbEntity
  8
03__ASM_ALL_CURVES
100
AcDbLine
 62
40
  6
CONTINUOUS
 10
6.0753689734
 20
5.203372679
 11
6.085694977
 21
5.1964886783
  0
LINE
  5
417
100
AcDbEntity
  8
03__ASM_ALL_CURVES
100
AcDbLine
 62
40
  6
CONTINUOUS
 10
7.6130463904
 20
4.2003950664
 11
7.620790893
 21
4.1952320658
  0
LINE
  5
418
100
AcDbEntity
  8
03__ASM_ALL_CURVES
100
AcDbLine
 62
40
  6
CONTINUOUS
 10
6.1579770016
 20
5.203372679
 11
6.1683030051
 21
5.1964886783
  0
LINE
  5
419
100
AcDbEntity
  8
03__ASM_ALL_CURVES
100
AcDbLine
 62
40
  6
CONTINUOUS
 10
6.4625941053
 20
5.203372679
 11
6.5038981194
 21
5.1207646509
  0
LINE
  5
41A
100
AcDbEntity
  8
03__ASM_ALL_CURVES
100
AcDbLine
 62
40
  6
CONTINUOUS
 10
6.5400391317
 20
5.1414166579
 11
6.5348761299
 21
5.1620686649
  0
LINE
  5
41B
100
AcDbEntity
  8
03__ASM_ALL_CURVES
100
AcDbLine
 62
40
  6
CONTINUOUS
 10
6.8343302319
 20
5.203372679
 11
6.8343302319
 21
5.1207646509
  0
LINE
  5
41C
100
AcDbEntity
  8
03__ASM_ALL_CURVES
100
AcDbLine
 62
40
  6
CONTINUOUS
 10
6.8467291415
 20
3.5279174396
 11
6.8467291415
 21
3.4659614185
  0
LINE
  5
41D
100
AcDbEntity
  8
03__ASM_ALL_CURVES
100
AcDbLine
 62
40
  6
CONTINUOUS
 10
6.8641542231
 20
3.3709621862
 11
6.8641542231
 21
3.4329182073
  0
LINE
  5
41E
100
AcDbEntity
  8
03__ASM_ALL_CURVES
100
AcDbLine
 62
40
  6
CONTINUOUS
 10
6.9241741679
 20
3.5175914349
 11
6.9241741679
 21
3.5072654338
  0
LINE
  5
41F
100
AcDbEntity
  8
0
100
AcDbLine
 62
7
  6
CONTINUOUS
 10
6.9277730918
 20
3.7794174396
 11
6.9277730918
 21
4.4644174396
  0
LINE
  5
420
100
AcDbEntity
  8
03__ASM_ALL_CURVES
100
AcDbLine
 62
40
  6
CONTINUOUS
 10
6.9415992494
 20
3.4329182073
 11
6.9415992494
 21
3.3709621862
  0
LINE
  5
421
100
AcDbEntity
  8
03__ASM_ALL_CURVES
100
AcDbLine
 62
40
  6
CONTINUOUS
 10
6.9582422741
 20
5.134532656
 11
6.9582422741
 21
5.203372679
  0
LINE
  5
422
100
AcDbEntity
  8
03__ASM_ALL_CURVES
100
AcDbLine
 62
40
  6
CONTINUOUS
 10
6.6550526518
 20
3.4019401967
 11
6.6511804005
 21
3.3864511915
  0
LINE
  5
423
100
AcDbEntity
  8
03__ASM_ALL_CURVES
100
AcDbLine
 62
40
  6
CONTINUOUS
 10
6.6995835914
 20
3.4969394291
 11
6.7034558427
 21
3.5124284344
  0
LINE
  5
424
100
AcDbEntity
  8
03__ASM_ALL_CURVES
100
AcDbLine
 62
40
  6
CONTINUOUS
 10
6.7460506072
 20
3.4969394291
 11
6.7421783559
 21
3.4814504238
  0
LINE
  5
425
100
AcDbEntity
  8
03__ASM_ALL_CURVES
100
AcDbLine
 62
40
  6
CONTINUOUS
 10
7.1699253462
 20
5.1620686649
 11
7.1647623444
 21
5.1414166579
  0
LINE
  5
426
100
AcDbEntity
  8
03__ASM_ALL_CURVES
100
AcDbLine
 62
40
  6
CONTINUOUS
 10
7.4968788508
 20
4.1745800563
 11
7.4891343482
 21
4.1694170558
  0
LINE
  5
427
100
AcDbEntity
  8
03__ASM_ALL_CURVES
100
AcDbLine
 62
40
  6
CONTINUOUS
 10
7.535601364
 20
4.1952320658
 11
7.5433458666
 21
4.2003950664
  0
LINE
  5
428
100
AcDbEntity
  8
03__ASM_ALL_CURVES
100
AcDbLine
 62
40
  6
CONTINUOUS
 10
7.5588348719
 20
4.1436020472
 11
7.5510903693
 21
4.1384390453
  0
LINE
  5
429
100
AcDbEntity
  8
03__ASM_ALL_CURVES
100
AcDbLine
 62
40
  6
CONTINUOUS
 10
7.620790893
 20
4.1745800563
 11
7.6130463904
 21
4.1694170558
  0
LINE
  5
42A
100
AcDbEntity
  8
03__ASM_ALL_CURVES
100
AcDbLine
 62
40
  6
CONTINUOUS
 10
6.6724778322
 20
3.5021024296
 11
6.6647333295
 21
3.4969394291
  0
LINE
  5
42B
100
AcDbEntity
  8
03__ASM_ALL_CURVES
100
AcDbLine
 62
40
  6
CONTINUOUS
 10
6.7112003454
 20
3.5227544391
 11
6.718944848
 21
3.5279174396
  0
LINE
  5
42C
100
AcDbEntity
  8
03__ASM_ALL_CURVES
100
AcDbLine
 62
40
  6
CONTINUOUS
 10
3.8657730918
 20
5.0877214396
 11
3.9649027255
 21
5.1042430453
  0
LINE
  5
42D
100
AcDbEntity
  8
03__ASM_ALL_CURVES
100
AcDbLine
 62
40
  6
CONTINUOUS
 10
3.9649027255
 20
5.1014894443
 11
3.8657730918
 21
5.0877214396
  0
LINE
  5
42E
100
AcDbEntity
  8
03__ASM_ALL_CURVES
100
AcDbLine
 62
40
  6
CONTINUOUS
 10
6.5606911387
 20
5.1207646509
 11
6.5503651352
 21
5.1276486534
  0
LINE
  5
42F
100
AcDbEntity
  8
0
100
AcDbLine
 62
7
  6
CONTINUOUS
 10
7.2087730918
 20
4.4484174396
 11
7.1927730918
 21
4.4644174396
  0
LINE
  5
430
100
AcDbEntity
  8
03__ASM_ALL_CURVES
100
AcDbLine
 62
40
  6
CONTINUOUS
 10
6.5503651352
 20
5.1276486534
 11
6.5400391317
 21
5.1414166579
  0
LINE
  5
431
100
AcDbEntity
  8
03__ASM_ALL_CURVES
100
AcDbLine
 62
40
  6
CONTINUOUS
 10
6.9995462882
 20
5.203372679
 11
6.9995462882
 21
5.134532656
  0
LINE
  5
432
100
AcDbEntity
  8
0
100
AcDbLine
 62
7
  6
CONTINUOUS
 10
7.0007730918
 20
3.7794174396
 11
7.0007730918
 21
4.4644174396
  0
LINE
  5
433
100
AcDbEntity
  8
03__ASM_ALL_CURVES
100
AcDbLine
 62
40
  6
CONTINUOUS
 10
7.0408503022
 20
5.203372679
 11
7.0408503022
 21
5.1207646509
  0
LINE
  5
434
100
AcDbEntity
  8
0
100
AcDbLine
 62
7
  6
CONTINUOUS
 10
7.0507730918
 20
3.7799179596
 11
7.0507730918
 21
4.4639169197
  0
LINE
  5
435
100
AcDbEntity
  8
03__ASM_ALL_CURVES
100
AcDbLine
 62
40
  6
CONTINUOUS
 10
6.8970684087
 20
3.4814504238
 11
6.8931961573
 21
3.4659614185
  0
LINE
  5
436
100
AcDbEntity
  8
03__ASM_ALL_CURVES
100
AcDbLine
 62
40
  6
CONTINUOUS
 10
6.6763500835
 20
3.5072654338
 11
6.6724778322
 21
3.5021024296
  0
LINE
  5
437
100
AcDbEntity
  8
03__ASM_ALL_CURVES
100
AcDbLine
 62
40
  6
CONTINUOUS
 10
6.6124578873
 20
3.417429202
 11
6.62020239
 21
3.4277552067
  0
LINE
  5
438
100
AcDbEntity
  8
03__ASM_ALL_CURVES
100
AcDbLine
 62
40
  6
CONTINUOUS
 10
6.7034558427
 20
3.5124284344
 11
6.7112003454
 21
3.5227544391
  0
LINE
  5
439
100
AcDbEntity
  8
03__ASM_ALL_CURVES
100
AcDbLine
 62
40
  6
CONTINUOUS
 10
6.6511804005
 20
3.3864511915
 11
6.6434358979
 21
3.3761251881
  0
LINE
  5
43A
100
AcDbEntity
  8
03__ASM_ALL_CURVES
100
AcDbLine
 62
40
  6
CONTINUOUS
 10
6.7421783559
 20
3.4814504238
 11
6.7344338533
 21
3.4711244204
  0
LINE
  5
43B
100
AcDbEntity
  8
03__ASM_ALL_CURVES
100
AcDbLine
 62
40
  6
CONTINUOUS
 10
6.8002621257
 20
3.5072654338
 11
6.7963898744
 21
3.5021024296
  0
LINE
  5
43C
100
AcDbEntity
  8
03__ASM_ALL_CURVES
100
AcDbLine
 62
40
  6
CONTINUOUS
 10
6.7092641703
 20
3.38128819
 11
6.705391919
 21
3.3761251881
  0
LINE
  5
43D
100
AcDbEntity
  8
03__ASM_ALL_CURVES
100
AcDbLine
 62
40
  6
CONTINUOUS
 10
6.62020239
 20
3.4277552067
 11
6.6279468926
 21
3.4329182073
  0
LINE
  5
43E
100
AcDbEntity
  8
03__ASM_ALL_CURVES
100
AcDbLine
 62
40
  6
CONTINUOUS
 10
6.7344338533
 20
3.4711244204
 11
6.7266893506
 21
3.4659614185
  0
LINE
  5
43F
100
AcDbEntity
  8
03__ASM_ALL_CURVES
100
AcDbLine
 62
40
  6
CONTINUOUS
 10
6.7963898744
 20
3.5021024296
 11
6.7886453717
 21
3.4969394291
  0
LINE
  5
440
100
AcDbEntity
  8
03__ASM_ALL_CURVES
100
AcDbLine
 62
40
  6
CONTINUOUS
 10
6.6434358979
 20
3.3761251881
 11
6.6356913953
 21
3.3709621862
  0
LINE
  5
441
100
AcDbEntity
  8
03__ASM_ALL_CURVES
100
AcDbLine
 62
40
  6
CONTINUOUS
 10
6.8970684087
 20
3.5227544391
 11
6.9048129113
 21
3.5279174396
  0
LINE
  5
442
100
AcDbEntity
  8
03__ASM_ALL_CURVES
100
AcDbLine
 62
40
  6
CONTINUOUS
 10
6.705391919
 20
3.3761251881
 11
6.6976474164
 21
3.3709621862
  0
LINE
  5
443
100
AcDbEntity
  8
03__ASM_ALL_CURVES
100
AcDbLine
 62
40
  6
CONTINUOUS
 10
6.9203019166
 20
3.5021024296
 11
6.9048129113
 21
3.4917764267
  0
LINE
  5
444
100
AcDbEntity
  8
03__ASM_ALL_CURVES
100
AcDbLine
 62
40
  6
CONTINUOUS
 10
6.5710171422
 20
5.203372679
 11
6.5813431457
 21
5.1964886783
  0
LINE
  5
445
100
AcDbEntity
  8
03__ASM_ALL_CURVES
100
AcDbLine
 62
40
  6
CONTINUOUS
 10
6.725907195
 20
5.1207646509
 11
6.7155811915
 21
5.1276486534
  0
LINE
  5
446
100
AcDbEntity
  8
03__ASM_ALL_CURVES
100
AcDbLine
 62
40
  6
CONTINUOUS
 10
6.7155811915
 20
5.1758366713
 11
6.746559202
 21
5.1551846618
  0
LINE
  5
447
100
AcDbEntity
  8
03__ASM_ALL_CURVES
100
AcDbLine
 62
40
  6
CONTINUOUS
 10
6.746559202
 20
5.1964886783
 11
6.7362331985
 21
5.203372679
  0
LINE
  5
448
100
AcDbEntity
  8
03__ASM_ALL_CURVES
100
AcDbLine
 62
40
  6
CONTINUOUS
 10
6.8911232512
 20
5.1207646509
 11
6.8807972477
 21
5.1276486534
  0
LINE
  5
449
100
AcDbEntity
  8
03__ASM_ALL_CURVES
100
AcDbLine
 62
40
  6
CONTINUOUS
 10
6.5813431457
 20
5.1964886783
 11
6.5865061475
 21
5.1896046727
  0
LINE
  5
44A
100
AcDbEntity
  8
03__ASM_ALL_CURVES
100
AcDbLine
 62
40
  6
CONTINUOUS
 10
6.7155811915
 20
5.1276486534
 11
6.7052551879
 21
5.1414166579
  0
LINE
  5
44B
100
AcDbEntity
  8
03__ASM_ALL_CURVES
100
AcDbLine
 62
40
  6
CONTINUOUS
 10
6.7104181897
 20
5.182720672
 11
6.7155811915
 21
5.1758366713
  0
LINE
  5
44C
100
AcDbEntity
  8
03__ASM_ALL_CURVES
100
AcDbLine
 62
40
  6
CONTINUOUS
 10
6.746559202
 20
5.1551846618
 11
6.7517222038
 21
5.1483006611
  0
LINE
  5
44D
100
AcDbEntity
  8
03__ASM_ALL_CURVES
100
AcDbLine
 62
40
  6
CONTINUOUS
 10
7.535601364
 20
4.1436020472
 11
7.5278568614
 21
4.1539280505
  0
LINE
  5
44E
100
AcDbEntity
  8
03__ASM_ALL_CURVES
100
AcDbLine
 62
40
  6
CONTINUOUS
 10
7.4968788508
 20
4.1952320658
 11
7.5007511021
 21
4.1900690616
  0
LINE
  5
44F
100
AcDbEntity
  8
03__ASM_ALL_CURVES
100
AcDbLine
 62
40
  6
CONTINUOUS
 10
6.7517222038
 20
5.1896046727
 11
6.746559202
 21
5.1964886783
  0
LINE
  5
450
100
AcDbEntity
  8
03__ASM_ALL_CURVES
100
AcDbLine
 62
40
  6
CONTINUOUS
 10
6.8704712442
 20
5.1414166579
 11
6.8653082425
 21
5.1620686649
  0
LINE
  5
451
100
AcDbEntity
  8
0
100
AcDbLine
 62
7
  6
CONTINUOUS
 10
7.1207730918
 20
4.4449174396
 11
7.1207730918
 21
3.7989174396
  0
LINE
  5
452
100
AcDbEntity
  8
03__ASM_ALL_CURVES
100
AcDbLine
 62
40
  6
CONTINUOUS
 10
7.1234583304
 20
5.1207646509
 11
7.1234583304
 21
5.203372679
  0
LINE
  5
453
100
AcDbEntity
  8
0
100
AcDbLine
 62
7
  6
CONTINUOUS
 10
7.1417730918
 20
3.7794174396
 11
7.1417730918
 21
4.4644174396
  0
LINE
  5
454
100
AcDbEntity
  8
0
100
AcDbLine
 62
7
  6
CONTINUOUS
 10
7.1927730918
 20
3.7794174396
 11
7.1927730918
 21
4.4644174396
  0
LINE
  5
455
100
AcDbEntity
  8
03__ASM_ALL_CURVES
100
AcDbLine
 62
40
  6
CONTINUOUS
 10
7.2060663585
 20
5.1207646509
 11
7.2060663585
 21
5.203372679
  0
LINE
  5
456
100
AcDbEntity
  8
0
100
AcDbLine
 62
7
  6
CONTINUOUS
 10
7.2087730918
 20
3.7954174396
 11
7.2087730918
 21
4.4484174396
  0
LINE
  5
457
100
AcDbEntity
  8
03__ASM_ALL_CURVES
100
AcDbLine
 62
40
  6
CONTINUOUS
 10
6.8931961573
 20
3.5175914349
 11
6.8970684087
 21
3.5227544391
  0
LINE
  5
458
100
AcDbEntity
  8
03__ASM_ALL_CURVES
100
AcDbLine
 62
40
  6
CONTINUOUS
 10
6.9048129113
 20
3.4917764267
 11
6.8970684087
 21
3.4814504238
  0
LINE
  5
459
100
AcDbEntity
  8
03__ASM_ALL_CURVES
100
AcDbLine
 62
40
  6
CONTINUOUS
 10
6.9241741679
 20
3.5072654338
 11
6.9203019166
 21
3.5021024296
  0
LINE
  5
45A
100
AcDbEntity
  8
03__ASM_ALL_CURVES
100
AcDbLine
 62
40
  6
CONTINUOUS
 10
7.5007511021
 20
4.1797430606
 11
7.4968788508
 21
4.1745800563
  0
LINE
  5
45B
100
AcDbEntity
  8
03__ASM_ALL_CURVES
100
AcDbLine
 62
40
  6
CONTINUOUS
 10
7.5278568614
 20
4.1849060611
 11
7.535601364
 21
4.1952320658
  0
LINE
  5
45C
100
AcDbEntity
  8
0
100
AcDbLine
 62
7
  6
CONTINUOUS
 10
7.2087730918
 20
3.7954174396
 11
7.1927730918
 21
3.7794174396
  0
LINE
  5
45D
100
AcDbEntity
  8
03__ASM_ALL_CURVES
100
AcDbLine
 62
40
  6
CONTINUOUS
 10
6.9737312794
 20
5.1207646509
 11
6.9634052759
 21
5.1276486534
  0
LINE
  5
45E
100
AcDbEntity
  8
03__ASM_ALL_CURVES
100
AcDbLine
 62
40
  6
CONTINUOUS
 10
6.9014492548
 20
5.203372679
 11
6.9117752583
 21
5.1964886783
  0
LINE
  5
45F
100
AcDbEntity
  8
03__ASM_ALL_CURVES
100
AcDbLine
 62
40
  6
CONTINUOUS
 10
7.5588348719
 20
4.1952320658
 11
7.5665793745
 21
4.1849060611
  0
LINE
  5
460
100
AcDbEntity
  8
03__ASM_ALL_CURVES
100
AcDbLine
 62
40
  6
CONTINUOUS
 10
6.8807972477
 20
5.1276486534
 11
6.8704712442
 21
5.1414166579
  0
LINE
  5
461
100
AcDbEntity
  8
03__ASM_ALL_CURVES
100
AcDbLine
 62
40
  6
CONTINUOUS
 10
7.620790893
 20
4.1952320658
 11
7.6246631443
 21
4.1900690616
  0
LINE
  5
462
100
AcDbEntity
  8
03__ASM_ALL_CURVES
100
AcDbLine
 62
40
  6
CONTINUOUS
 10
6.9117752583
 20
5.1964886783
 11
6.9221012618
 21
5.182720672
  0
LINE
  5
463
100
AcDbEntity
  8
03__ASM_ALL_CURVES
100
AcDbLine
 62
40
  6
CONTINUOUS
 10
6.9634052759
 20
5.1276486534
 11
6.9582422741
 21
5.134532656
  0
LINE
  5
464
100
AcDbEntity
  8
03__ASM_ALL_CURVES
100
AcDbLine
 62
40
  6
CONTINUOUS
 10
6.9221012618
 20
5.182720672
 11
6.9272642636
 21
5.1620686649
  0
LINE
  5
465
100
AcDbEntity
  8
03__ASM_ALL_CURVES
100
AcDbLine
 62
40
  6
CONTINUOUS
 10
7.2886743866
 20
5.1207646509
 11
7.2886743866
 21
5.203372679
  0
LINE
  5
466
100
AcDbEntity
  8
03__ASM_ALL_CURVES
100
AcDbLine
 62
40
  6
CONTINUOUS
 10
7.3299784007
 20
5.1896046727
 11
7.3299784007
 21
5.1758366713
  0
LINE
  5
467
100
AcDbEntity
  8
03__ASM_ALL_CURVES
100
AcDbLine
 62
40
  6
CONTINUOUS
 10
7.5665793745
 20
4.1539280505
 11
7.5588348719
 21
4.1436020472
  0
LINE
  5
468
100
AcDbEntity
  8
03__ASM_ALL_CURVES
100
AcDbLine
 62
40
  6
CONTINUOUS
 10
7.6246631443
 20
4.1797430606
 11
7.620790893
 21
4.1745800563
  0
LINE
  5
469
100
AcDbEntity
  8
03__ASM_ALL_CURVES
100
AcDbLine
 62
40
  6
CONTINUOUS
 10
7.1441103374
 20
5.203372679
 11
7.1544363409
 21
5.1964886783
  0
LINE
  5
46A
100
AcDbEntity
  8
03__ASM_ALL_CURVES
100
AcDbLine
 62
40
  6
CONTINUOUS
 10
7.5162401072
 20
4.105395834
 11
7.5472181177
 21
4.0434398129
  0
LINE
  5
46B
100
AcDbEntity
  8
03__ASM_ALL_CURVES
100
AcDbLine
 62
40
  6
CONTINUOUS
 10
7.1647623444
 20
5.182720672
 11
7.1699253462
 21
5.1620686649
  0
LINE
  5
46C
100
AcDbEntity
  8
03__ASM_ALL_CURVES
100
AcDbLine
 62
40
  6
CONTINUOUS
 10
7.4697730914
 20
4.105395834
 11
7.4697730914
 21
4.0434398129
  0
LINE
  5
46D
100
AcDbEntity
  8
03__ASM_ALL_CURVES
100
AcDbLine
 62
40
  6
CONTINUOUS
 10
7.4697730916
 20
4.1384390453
 11
7.4697730916
 21
4.2003950664
  0
LINE
  5
46E
100
AcDbEntity
  8
03__ASM_ALL_CURVES
100
AcDbLine
 62
40
  6
CONTINUOUS
 10
7.5007511021
 20
4.1900690616
 11
7.5007511021
 21
4.1797430606
  0
LINE
  5
46F
100
AcDbEntity
  8
03__ASM_ALL_CURVES
100
AcDbLine
 62
40
  6
CONTINUOUS
 10
7.5162401072
 20
4.0434398129
 11
7.5162401072
 21
4.105395834
  0
LINE
  5
470
100
AcDbEntity
  8
03__ASM_ALL_CURVES
100
AcDbLine
 62
40
  6
CONTINUOUS
 10
7.52398461
 20
4.1694170558
 11
7.5278568614
 21
4.1849060611
  0
LINE
  5
471
100
AcDbEntity
  8
03__ASM_ALL_CURVES
100
AcDbLine
 62
40
  6
CONTINUOUS
 10
7.3144893954
 20
5.203372679
 11
7.3248153989
 21
5.1964886783
  0
LINE
  5
472
100
AcDbEntity
  8
03__ASM_ALL_CURVES
100
AcDbLine
 62
40
  6
CONTINUOUS
 10
7.1544363409
 20
5.1964886783
 11
7.1647623444
 21
5.182720672
  0
LINE
  5
473
100
AcDbEntity
  8
03__ASM_ALL_CURVES
100
AcDbLine
 62
40
  6
CONTINUOUS
 10
7.6130463904
 20
4.1694170558
 11
7.6246631443
 21
4.1384390453
  0
LINE
  5
474
100
AcDbEntity
  8
03__ASM_ALL_CURVES
100
AcDbLine
 62
40
  6
CONTINUOUS
 10
7.3144893954
 20
5.1620686649
 11
7.3299784007
 21
5.1207646509
  0
LINE
  5
475
100
AcDbEntity
  8
03__ASM_ALL_CURVES
100
AcDbLine
 62
40
  6
CONTINUOUS
 10
7.5278568614
 20
4.1539280505
 11
7.52398461
 21
4.1694170558
  0
LINE
  5
476
100
AcDbEntity
  8
03__ASM_ALL_CURVES
100
AcDbLine
 62
40
  6
CONTINUOUS
 10
7.5665793745
 20
4.1849060611
 11
7.5704516259
 21
4.1694170558
  0
LINE
  5
477
100
AcDbEntity
  8
03__ASM_ALL_CURVES
100
AcDbLine
 62
40
  6
CONTINUOUS
 10
7.5472181177
 20
4.0434398129
 11
7.5472181177
 21
4.105395834
  0
LINE
  5
478
100
AcDbEntity
  8
03__ASM_ALL_CURVES
100
AcDbLine
 62
40
  6
CONTINUOUS
 10
7.5781961283
 20
4.105395834
 11
7.5781961283
 21
4.0434398129
  0
LINE
  5
479
100
AcDbEntity
  8
03__ASM_ALL_CURVES
100
AcDbLine
 62
40
  6
CONTINUOUS
 10
7.5936851338
 20
4.1384390453
 11
7.5936851338
 21
4.2003950664
  0
LINE
  5
47A
100
AcDbEntity
  8
03__ASM_ALL_CURVES
100
AcDbLine
 62
40
  6
CONTINUOUS
 10
7.6246631443
 20
4.1900690616
 11
7.6246631443
 21
4.1797430606
  0
LINE
  5
47B
100
AcDbEntity
  8
03__ASM_ALL_CURVES
100
AcDbLine
 62
40
  6
CONTINUOUS
 10
7.6401521494
 20
4.0434398129
 11
7.6401521494
 21
4.105395834
  0
LINE
  5
47C
100
AcDbEntity
  8
03__ASM_ALL_CURVES
100
AcDbLine
 62
40
  6
CONTINUOUS
 10
7.6711301601
 20
4.2003950664
 11
7.6711301601
 21
4.1384390453
  0
LINE
  5
47D
100
AcDbEntity
  8
03__ASM_ALL_CURVES
100
AcDbLine
 62
40
  6
CONTINUOUS
 10
7.5704516259
 20
4.1694170558
 11
7.5665793745
 21
4.1539280505
  0
LINE
  5
47E
100
AcDbEntity
  8
03__ASM_ALL_CURVES
100
AcDbLine
 62
40
  6
CONTINUOUS
 10
7.3248153989
 20
5.1964886783
 11
7.3299784007
 21
5.1896046727
  0
LINE
  5
47F
100
AcDbEntity
  8
03__ASM_ALL_CURVES
100
AcDbLine
 62
40
  6
CONTINUOUS
 10
7.7175971758
 20
4.105395834
 11
7.7175971758
 21
4.0434398129
  0
LINE
  5
480
100
AcDbEntity
  8
03__ASM_ALL_CURVES
100
AcDbLine
 62
40
  6
CONTINUOUS
 10
7.7330861812
 20
4.2003950664
 11
7.7330861812
 21
4.1384390453
  0
ARC
  5
481
100
AcDbEntity
  8
0
100
AcDbCircle
 62
7
  6
CONTINUOUS
 10
5.3687730918
 20
3.7349174396
 40
0.013
100
AcDbArc
 50
0.0000000041
 51
90.0
  0
ARC
  5
482
100
AcDbEntity
  8
0
100
AcDbCircle
 62
7
  6
CONTINUOUS
 10
5.3687730918
 20
4.5089174396
 40
0.013
100
AcDbArc
 50
270.0
 51
359.9999999985
  0
ARC
  5
483
100
AcDbEntity
  8
0
100
AcDbCircle
 62
7
  6
CONTINUOUS
 10
6.0142675383
 20
3.7584174396
 40
0.013
100
AcDbArc
 50
29.9999999851
 51
90.0
  0
ARC
  5
484
100
AcDbEntity
  8
0
100
AcDbCircle
 62
7
  6
CONTINUOUS
 10
6.0142675383
 20
4.4854174396
 40
0.013
100
AcDbArc
 50
270.0
 51
330.0000000002
  0
ARC
  5
485
100
AcDbEntity
  8
0
100
AcDbCircle
 62
7
  6
CONTINUOUS
 10
4.2837730918
 20
4.4799174396
 40
0.008
100
AcDbArc
 50
270.0
 51
360.0
  0
ARC
  5
486
100
AcDbEntity
  8
0
100
AcDbCircle
 62
7
  6
CONTINUOUS
 10
4.2617730918
 20
4.4799174396
 40
0.008
100
AcDbArc
 50
180.0
 51
270.0
  0
ARC
  5
487
100
AcDbEntity
  8
0
100
AcDbCircle
 62
7
  6
CONTINUOUS
 10
4.2837730918
 20
3.7639174396
 40
0.008
100
AcDbArc
 50
0.0
 51
90.0
  0
ARC
  5
488
100
AcDbEntity
  8
0
100
AcDbCircle
 62
7
  6
CONTINUOUS
 10
4.2617730918
 20
3.7639174396
 40
0.008
100
AcDbArc
 50
90.0
 51
180.0
  0
ARC
  5
489
100
AcDbEntity
  8
0
100
AcDbCircle
 62
7
  6
CONTINUOUS
 10
5.8594955236
 20
3.7119174396
 40
0.005
100
AcDbArc
 50
90.0
 51
120.0000000002
  0
ARC
  5
48A
100
AcDbEntity
  8
0
100
AcDbCircle
 62
7
  6
CONTINUOUS
 10
5.8594955236
 20
4.5319174396
 40
0.005
100
AcDbArc
 50
239.9999999998
 51
270.0
  0
ARC
  5
48B
100
AcDbEntity
  8
0
100
AcDbCircle
 62
7
  6
CONTINUOUS
 10
5.8397730918
 20
3.7005306883
 40
0.005
100
AcDbArc
 50
120.0000000147
 51
179.9999999996
  0
ARC
  5
48C
100
AcDbEntity
  8
0
100
AcDbCircle
 62
7
  6
CONTINUOUS
 10
5.8397730918
 20
4.543304191
 40
0.005
100
AcDbArc
 50
180.0000000005
 51
239.9999999827
  0
ARC
  5
48D
100
AcDbEntity
  8
0
100
AcDbCircle
 62
7
  6
CONTINUOUS
 10
4.2967730918
 20
4.4904174396
 40
0.005
100
AcDbArc
 50
90.0
 51
180.0
  0
ARC
  5
48E
100
AcDbEntity
  8
0
100
AcDbCircle
 62
7
  6
CONTINUOUS
 10
4.2487730918
 20
4.4904174396
 40
0.005
100
AcDbArc
 50
0.0
 51
90.0
  0
ARC
  5
48F
100
AcDbEntity
  8
0
100
AcDbCircle
 62
7
  6
CONTINUOUS
 10
4.2967730918
 20
3.7534174396
 40
0.005
100
AcDbArc
 50
180.0
 51
270.0
  0
ARC
  5
490
100
AcDbEntity
  8
0
100
AcDbCircle
 62
7
  6
CONTINUOUS
 10
4.2487730918
 20
3.7534174396
 40
0.005
100
AcDbArc
 50
270.0
 51
360.0
  0
ARC
  5
491
100
AcDbEntity
  8
0
100
AcDbCircle
 62
7
  6
CONTINUOUS
 10
5.8317730918
 20
3.6974174396
 40
0.003
100
AcDbArc
 50
270.0
 51
360.0
  0
ARC
  5
492
100
AcDbEntity
  8
0
100
AcDbCircle
 62
7
  6
CONTINUOUS
 10
5.8317730918
 20
4.5464174396
 40
0.003
100
AcDbArc
 50
0.0
 51
90.0
  0
SPLINE
  5
493
100
AcDbEntity
  8
0
100
AcDbSpline
 62
7
  6
CONTINUOUS
 70
0
 71
3
 72
15
 73
11
 74
9
 42
0.0000001
 43
0.0000001
 44
0.0000000001
 12
0.0
 22
0.1099409465
 32
0.0
 13
-0.0
 23
-0.1099409465
 33
0.0
 40
0.0
 40
0.0
 40
0.0
 40
0.0
 40
0.125
 40
0.25
 40
0.375
 40
0.5
 40
0.625
 40
0.75
 40
0.875
 40
1.0
 40
1.0
 40
1.0
 40
1.0
 10
7.1207730918
 20
4.4449174396
 30
0.0
 10
7.1207730918
 20
4.4494983124
 30
0.0
 10
7.1189507073
 20
4.4586600579
 30
0.0
 10
7.1111661393
 20
4.4703104872
 30
0.0
 10
7.0995157101
 20
4.4780950551
 30
0.0
 10
7.0857730918
 20
4.4808286319
 30
0.0
 10
7.0720304735
 20
4.4780950551
 30
0.0
 10
7.0603800442
 20
4.4703104872
 30
0.0
 10
7.0525954763
 20
4.4586600579
 30
0.0
 10
7.0507730918
 20
4.4494983124
 30
0.0
 10
7.0507730918
 20
4.4449174396
 30
0.0
 11
7.1207730918
 21
4.4449174396
 31
0.0
 11
7.1181088754
 21
4.4583113598
 31
0.0
 11
7.1105218291
 21
4.469666177
 31
0.0
 11
7.0991670119
 21
4.4772532233
 31
0.0
 11
7.0857730918
 21
4.4799174396
 31
0.0
 11
7.0723791716
 21
4.4772532233
 31
0.0
 11
7.0610243544
 21
4.469666177
 31
0.0
 11
7.0534373081
 21
4.4583113598
 31
0.0
 11
7.0507730918
 21
4.4449174396
 31
0.0
  0
SPLINE
  5
494
100
AcDbEntity
  8
0
100
AcDbSpline
 62
7
  6
CONTINUOUS
 70
0
 71
3
 72
15
 73
11
 74
9
 42
0.0000001
 43
0.0000001
 44
0.0000000001
 12
0.0
 22
-0.1099409465
 32
0.0
 13
-0.0
 23
0.1099409465
 33
0.0
 40
0.0
 40
0.0
 40
0.0
 40
0.0
 40
0.125
 40
0.25
 40
0.375
 40
0.5
 40
0.625
 40
0.75
 40
0.875
 40
1.0
 40
1.0
 40
1.0
 40
1.0
 10
7.1207730918
 20
3.7989174396
 30
0.0
 10
7.1207730918
 20
3.7943365669
 30
0.0
 10
7.1189507073
 20
3.7851748213
 30
0.0
 10
7.1111661393
 20
3.7735243921
 30
0.0
 10
7.0995157101
 20
3.7657398241
 30
0.0
 10
7.0857730918
 20
3.7630062474
 30
0.0
 10
7.0720304735
 20
3.7657398241
 30
0.0
 10
7.0603800442
 20
3.7735243921
 30
0.0
 10
7.0525954763
 20
3.7851748213
 30
0.0
 10
7.0507730918
 20
3.7943365669
 30
0.0
 10
7.0507730918
 20
3.7989174396
 30
0.0
 11
7.1207730918
 21
3.7989174396
 31
0.0
 11
7.1181088754
 21
3.7855235195
 31
0.0
 11
7.1105218291
 21
3.7741687023
 31
0.0
 11
7.0991670119
 21
3.766581656
 31
0.0
 11
7.0857730918
 21
3.7639174396
 31
0.0
 11
7.0723791716
 21
3.766581656
 31
0.0
 11
7.0610243544
 21
3.7741687023
 31
0.0
 11
7.0534373081
 21
3.7855235195
 31
0.0
 11
7.0507730918
 21
3.7989174396
 31
0.0
  0
SPLINE
  5
495
100
AcDbEntity
  8
0
100
AcDbSpline
 62
7
  6
CONTINUOUS
 70
0
 71
3
 72
15
 73
11
 74
9
 42
0.0000001
 43
0.0000001
 44
0.0000000001
 12
0.0
 22
0.1099409465
 32
0.0
 13
0.0
 23
-0.1099409465
 33
0.0
 40
0.0
 40
0.0
 40
0.0
 40
0.0
 40
0.125
 40
0.25
 40
0.375
 40
0.5
 40
0.625
 40
0.75
 40
0.875
 40
1.0
 40
1.0
 40
1.0
 40
1.0
 10
5.9517730918
 20
4.5309174396
 30
0.0
 10
5.9517730918
 20
4.5354983124
 30
0.0
 10
5.9499507073
 20
4.5446600579
 30
0.0
 10
5.9421661393
 20
4.5563104872
 30
0.0
 10
5.9305157101
 20
4.5640950551
 30
0.0
 10
5.9167730918
 20
4.5668286319
 30
0.0
 10
5.9030304735
 20
4.5640950551
 30
0.0
 10
5.8913800442
 20
4.5563104872
 30
0.0
 10
5.8835954763
 20
4.5446600579
 30
0.0
 10
5.8817730918
 20
4.5354983124
 30
0.0
 10
5.8817730918
 20
4.5309174396
 30
0.0
 11
5.9517730918
 21
4.5309174396
 31
0.0
 11
5.9491088754
 21
4.5443113598
 31
0.0
 11
5.9415218291
 21
4.555666177
 31
0.0
 11
5.9301670119
 21
4.5632532233
 31
0.0
 11
5.9167730918
 21
4.5659174396
 31
0.0
 11
5.9033791716
 21
4.5632532233
 31
0.0
 11
5.8920243544
 21
4.555666177
 31
0.0
 11
5.8844373081
 21
4.5443113598
 31
0.0
 11
5.8817730918
 21
4.5309174396
 31
0.0
  0
SPLINE
  5
496
100
AcDbEntity
  8
0
100
AcDbSpline
 62
7
  6
CONTINUOUS
 70
0
 71
3
 72
15
 73
11
 74
9
 42
0.0000001
 43
0.0000001
 44
0.0000000001
 12
0.0
 22
-0.1099409465
 32
0.0
 13
0.0
 23
0.1099409465
 33
0.0
 40
0.0
 40
0.0
 40
0.0
 40
0.0
 40
0.125
 40
0.25
 40
0.375
 40
0.5
 40
0.625
 40
0.75
 40
0.875
 40
1.0
 40
1.0
 40
1.0
 40
1.0
 10
5.9517730918
 20
3.7129174396
 30
0.0
 10
5.9517730918
 20
3.7083365669
 30
0.0
 10
5.9499507073
 20
3.6991748213
 30
0.0
 10
5.9421661393
 20
3.6875243921
 30
0.0
 10
5.9305157101
 20
3.6797398241
 30
0.0
 10
5.9167730918
 20
3.6770062474
 30
0.0
 10
5.9030304735
 20
3.6797398241
 30
0.0
 10
5.8913800442
 20
3.6875243921
 30
0.0
 10
5.8835954763
 20
3.6991748213
 30
0.0
 10
5.8817730918
 20
3.7083365669
 30
0.0
 10
5.8817730918
 20
3.7129174396
 30
0.0
 11
5.9517730918
 21
3.7129174396
 31
0.0
 11
5.9491088754
 21
3.6995235195
 31
0.0
 11
5.9415218291
 21
3.6881687023
 31
0.0
 11
5.9301670119
 21
3.680581656
 31
0.0
 11
5.9167730918
 21
3.6779174396
 31
0.0
 11
5.9033791716
 21
3.680581656
 31
0.0
 11
5.8920243544
 21
3.6881687023
 31
0.0
 11
5.8844373081
 21
3.6995235195
 31
0.0
 11
5.8817730918
 21
3.7129174396
 31
0.0
  0
SPLINE
  5
497
100
AcDbEntity
  8
0
100
AcDbSpline
 62
7
  6
CONTINUOUS
 70
0
 71
3
 72
15
 73
11
 74
9
 42
0.0000001
 43
0.0000001
 44
0.0000000001
 12
0.0
 22
0.1099409465
 32
0.0
 13
0.0
 23
-0.1099409465
 33
0.0
 40
0.0
 40
0.0
 40
0.0
 40
0.0
 40
0.125
 40
0.25
 40
0.375
 40
0.5
 40
0.625
 40
0.75
 40
0.875
 40
1.0
 40
1.0
 40
1.0
 40
1.0
 10
5.3607730918
 20
4.5309174396
 30
0.0
 10
5.3607730918
 20
4.5354983124
 30
0.0
 10
5.3589507073
 20
4.5446600579
 30
0.0
 10
5.3511661393
 20
4.5563104872
 30
0.0
 10
5.3395157101
 20
4.5640950551
 30
0.0
 10
5.3257730918
 20
4.5668286319
 30
0.0
 10
5.3120304735
 20
4.5640950551
 30
0.0
 10
5.3003800442
 20
4.5563104872
 30
0.0
 10
5.2925954763
 20
4.5446600579
 30
0.0
 10
5.2907730918
 20
4.5354983124
 30
0.0
 10
5.2907730918
 20
4.5309174396
 30
0.0
 11
5.3607730918
 21
4.5309174396
 31
0.0
 11
5.3581088754
 21
4.5443113598
 31
0.0
 11
5.3505218291
 21
4.555666177
 31
0.0
 11
5.3391670119
 21
4.5632532233
 31
0.0
 11
5.3257730918
 21
4.5659174396
 31
0.0
 11
5.3123791716
 21
4.5632532233
 31
0.0
 11
5.3010243544
 21
4.555666177
 31
0.0
 11
5.2934373081
 21
4.5443113598
 31
0.0
 11
5.2907730918
 21
4.5309174396
 31
0.0
  0
SPLINE
  5
498
100
AcDbEntity
  8
0
100
AcDbSpline
 62
7
  6
CONTINUOUS
 70
0
 71
3
 72
15
 73
11
 74
9
 42
0.0000001
 43
0.0000001
 44
0.0000000001
 12
0.0
 22
-0.1099409465
 32
0.0
 13
0.0
 23
0.1099409465
 33
0.0
 40
0.0
 40
0.0
 40
0.0
 40
0.0
 40
0.125
 40
0.25
 40
0.375
 40
0.5
 40
0.625
 40
0.75
 40
0.875
 40
1.0
 40
1.0
 40
1.0
 40
1.0
 10
5.3607730918
 20
3.7129174396
 30
0.0
 10
5.3607730918
 20
3.7083365669
 30
0.0
 10
5.3589507073
 20
3.6991748213
 30
0.0
 10
5.3511661393
 20
3.6875243921
 30
0.0
 10
5.3395157101
 20
3.6797398241
 30
0.0
 10
5.3257730918
 20
3.6770062474
 30
0.0
 10
5.3120304735
 20
3.6797398241
 30
0.0
 10
5.3003800442
 20
3.6875243921
 30
0.0
 10
5.2925954763
 20
3.6991748213
 30
0.0
 10
5.2907730918
 20
3.7083365669
 30
0.0
 10
5.2907730918
 20
3.7129174396
 30
0.0
 11
5.3607730918
 21
3.7129174396
 31
0.0
 11
5.3581088754
 21
3.6995235195
 31
0.0
 11
5.3505218291
 21
3.6881687023
 31
0.0
 11
5.3391670119
 21
3.680581656
 31
0.0
 11
5.3257730918
 21
3.6779174396
 31
0.0
 11
5.3123791716
 21
3.680581656
 31
0.0
 11
5.3010243544
 21
3.6881687023
 31
0.0
 11
5.2934373081
 21
3.6995235195
 31
0.0
 11
5.2907730918
 21
3.7129174396
 31
0.0
  0
SPLINE
  5
499
100
AcDbEntity
  8
0
100
AcDbSpline
 62
7
  6
CONTINUOUS
 70
0
 71
3
 72
12
 73
8
 74
6
 42
0.0000001
 43
0.0000001
 44
0.0000000001
 12
-0.0008542445
 22
0.1412302776
 32
0.0
 13
-0.0446617522
 23
0.1339852565
 33
0.0
 40
0.0
 40
0.0
 40
0.0
 40
0.0
 40
0.1928502432
 40
0.386496632
 40
0.5833126522
 40
0.7863661665
 40
1.0
 40
1.0
 40
1.0
 40
1.0
 10
4.1477686702
 20
4.2645449926
 30
0.0
 10
4.1477137565
 20
4.273623757
 30
0.0
 10
4.1469055554
 20
4.2918208474
 30
0.0
 10
4.1437317085
 20
4.3191188638
 30
0.0
 10
4.1386210997
 20
4.3466092324
 30
0.0
 10
4.1316180021
 20
4.3746451803
 30
0.0
 10
4.1258387755
 20
4.3934014218
 30
0.0
 10
4.1226583551
 20
4.4029426832
 30
0.0
 11
4.1477686702
 21
4.2645449926
 31
0.0
 11
4.1465848635
 21
4.2917560458
 31
0.0
 11
4.1434445491
 21
4.3189243914
 31
0.0
 11
4.1384031586
 21
4.3462602919
 31
0.0
 11
4.1314959032
 21
4.3740938631
 31
0.0
 11
4.1226583551
 21
4.4029426832
 31
0.0
  0
SPLINE
  5
49A
100
AcDbEntity
  8
0
100
AcDbSpline
 62
7
  6
CONTINUOUS
 70
0
 71
3
 72
12
 73
8
 74
6
 42
0.0000001
 43
0.0000001
 44
0.0000000001
 12
-0.0005971608
 22
0.1418021338
 32
0.0
 13
-0.0448421696
 23
0.1345265089
 33
0.0
 40
0.0
 40
0.0
 40
0.0
 40
0.0
 40
0.1924730046
 40
0.3862198908
 40
0.583116988
 40
0.7862455639
 40
1.0
 40
1.0
 40
1.0
 40
1.0
 10
4.1477704093
 20
3.9829488296
 30
0.0
 10
4.1477320969
 20
3.9920465239
 30
0.0
 10
4.146946317
 20
4.010305375
 30
0.0
 10
4.1437932445
 20
4.0377083993
 30
0.0
 10
4.1386802204
 20
4.0653258326
 30
0.0
 10
4.1316567914
 20
4.0934906711
 30
0.0
 10
4.125853426
 20
4.1123322269
 30
0.0
 10
4.1226583551
 20
4.1219174396
 30
0.0
 11
4.1477704093
 21
3.9829488296
 31
0.0
 11
4.1466253994
 21
4.0102181261
 31
0.0
 11
4.1435024173
 21
4.0375140189
 31
0.0
 11
4.1384594339
 21
4.0649754914
 31
0.0
 11
4.1315331266
 21
4.0929346611
 31
0.0
 11
4.1226583551
 21
4.1219174396
 31
0.0
  0
SPLINE
  5
49B
100
AcDbEntity
  8
0
100
AcDbSpline
 62
7
  6
CONTINUOUS
 70
0
 71
3
 72
16
 73
12
 74
10
 42
0.0000001
 43
0.0000001
 44
0.0000000001
 12
-0.0906561768
 22
-0.2719685305
 32
0.0
 13
0.0906561768
 23
-0.2719685305
 33
0.0
 40
0.0
 40
0.0
 40
0.0
 40
0.0
 40
0.1184536949
 40
0.2305643358
 40
0.3393084417
 40
0.4465957431
 40
0.5535016267
 40
0.6607807045
 40
0.7695058147
 40
0.8815670806
 40
1.0
 40
1.0
 40
1.0
 40
1.0
 10
3.9553310113
 20
4.1219174396
 30
0.0
 10
3.9517514916
 20
4.1111788805
 30
0.0
 10
3.9453198498
 20
4.0900910325
 30
0.0
 10
3.9377997353
 20
4.0585271942
 30
0.0
 10
3.9327110188
 20
4.0275555024
 30
0.0
 10
3.9301239073
 20
3.9967695644
 30
0.0
 10
3.9301250946
 20
3.9660129165
 30
0.0
 10
3.9327141812
 20
3.9352297676
 30
0.0
 10
3.9378034003
 20
3.9042655988
 30
0.0
 10
3.9453223412
 20
3.8727102714
 30
0.0
 10
3.9517521194
 20
3.8516288718
 30
0.0
 10
3.9553310113
 20
3.8408921961
 30
0.0
 11
3.9553310113
 21
4.1219174396
 31
0.0
 11
3.9454917461
 21
4.0894158184
 31
0.0
 11
3.9381038799
 21
4.0581365722
 31
0.0
 11
3.9330987746
 21
4.0273662193
 31
0.0
 11
3.9305515648
 21
3.9967147529
 31
0.0
 11
3.930552734
 21
3.9660669739
 31
0.0
 11
3.9331019152
 21
3.9354180371
 31
0.0
 11
3.9381078354
 21
3.9046533341
 31
0.0
 11
3.9454933017
 21
3.8733880653
 31
0.0
 11
3.9553310113
 21
3.8408921961
 31
0.0
  0
SPLINE
  5
49C
100
AcDbEntity
  8
0
100
AcDbSpline
 62
7
  6
CONTINUOUS
 70
0
 71
3
 72
12
 73
8
 74
6
 42
0.0000001
 43
0.0000001
 44
0.0000000001
 12
0.0446970127
 22
0.1340910382
 32
0.0
 13
0.0007756416
 23
0.1413422367
 33
0.0
 40
0.0
 40
0.0
 40
0.0
 40
0.0
 40
0.2137320188
 40
0.4169249561
 40
0.6138415602
 40
0.8075641977
 40
1.0
 40
1.0
 40
1.0
 40
1.0
 10
4.1226583551
 20
3.8408921961
 30
0.0
 10
4.1258427493
 20
3.8504453789
 30
0.0
 10
4.131629319
 20
3.8692273215
 30
0.0
 10
4.138638575
 20
3.8973017264
 30
0.0
 10
4.1437499014
 20
3.9248296804
 30
0.0
 10
4.1469152085
 20
3.9521392532
 30
0.0
 10
4.1477179955
 20
3.9703350824
 30
0.0
 10
4.1477677493
 20
3.979401518
 30
0.0
 11
4.1226583551
 21
3.8408921961
 31
0.0
 11
4.1315060031
 21
3.8697773503
 31
0.0
 11
4.1384201424
 21
3.8976528454
 31
0.0
 11
4.1434618633
 21
3.9250254568
 31
0.0
 11
4.146596653
 21
3.9522270245
 31
0.0
 11
4.1477677493
 21
3.979401518
 31
0.0
  0
SPLINE
  5
49D
100
AcDbEntity
  8
0
100
AcDbSpline
 62
7
  6
CONTINUOUS
 70
0
 71
3
 72
12
 73
8
 74
6
 42
0.0000001
 43
0.0000001
 44
0.0000000001
 12
0.0448794702
 22
0.1346384107
 32
0.0
 13
0.0005711002
 23
0.141920197
 33
0.0
 40
0.0
 40
0.0
 40
0.0
 40
0.0
 40
0.2136409517
 40
0.4167160065
 40
0.6135242662
 40
0.8071571603
 40
1.0
 40
1.0
 40
1.0
 40
1.0
 10
4.1226583551
 20
4.1219174396
 30
0.0
 10
4.125854386
 20
4.1315055324
 30
0.0
 10
4.1316601251
 20
4.1503552515
 30
0.0
 10
4.1386855296
 20
4.1785320245
 30
0.0
 10
4.1437986622
 20
4.2061608762
 30
0.0
 10
4.1469524318
 20
4.2335948971
 30
0.0
 10
4.1477355692
 20
4.2518812599
 30
0.0
 10
4.1477722801
 20
4.2610040245
 30
0.0
 11
4.1226583551
 21
4.1219174396
 31
0.0
 11
4.1315355646
 21
4.1509089966
 31
0.0
 11
4.1384648256
 21
4.1788842934
 31
0.0
 11
4.1435077637
 21
4.2063565687
 31
0.0
 11
4.1466287403
 21
4.2336594098
 31
0.0
 11
4.1477722801
 21
4.2610040245
 31
0.0
  0
SPLINE
  5
49E
100
AcDbEntity
  8
0
100
AcDbSpline
 62
7
  6
CONTINUOUS
 70
0
 71
3
 72
16
 73
12
 74
10
 42
0.0000001
 43
0.0000001
 44
0.0000000001
 12
-0.0906561768
 22
-0.2719685305
 32
0.0
 13
0.0906561768
 23
-0.2719685305
 33
0.0
 40
0.0
 40
0.0
 40
0.0
 40
0.0
 40
0.1184536949
 40
0.2305643358
 40
0.3393084417
 40
0.4465957431
 40
0.5535016267
 40
0.6607807045
 40
0.7695058147
 40
0.8815670806
 40
1.0
 40
1.0
 40
1.0
 40
1.0
 10
3.9553310113
 20
4.4029426832
 30
0.0
 10
3.9517514916
 20
4.392204124
 30
0.0
 10
3.9453198498
 20
4.371116276
 30
0.0
 10
3.9377997353
 20
4.3395524378
 30
0.0
 10
3.9327110188
 20
4.3085807459
 30
0.0
 10
3.9301239073
 20
4.2777948079
 30
0.0
 10
3.9301250946
 20
4.24703816
 30
0.0
 10
3.9327141812
 20
4.2162550111
 30
0.0
 10
3.9378034003
 20
4.1852908423
 30
0.0
 10
3.9453223412
 20
4.153735515
 30
0.0
 10
3.9517521194
 20
4.1326541153
 30
0.0
 10
3.9553310113
 20
4.1219174396
 30
0.0
 11
3.9553310113
 21
4.4029426832
 31
0.0
 11
3.9454917461
 21
4.370441062
 31
0.0
 11
3.9381038799
 21
4.3391618157
 31
0.0
 11
3.9330987746
 21
4.3083914629
 31
0.0
 11
3.9305515648
 21
4.2777399965
 31
0.0
 11
3.930552734
 21
4.2470922175
 31
0.0
 11
3.9331019152
 21
4.2164432807
 31
0.0
 11
3.9381078354
 21
4.1856785776
 31
0.0
 11
3.9454933017
 21
4.1544133089
 31
0.0
 11
3.9553310113
 21
4.1219174396
 31
0.0
  0
SPLINE
  5
49F
100
AcDbEntity
  8
0
100
AcDbSpline
 62
7
  6
CONTINUOUS
 70
0
 71
3
 72
9
 73
5
 74
3
 42
0.0000001
 43
0.0000001
 44
0.0000000001
 12
0.0088736028
 22
0.0028474379
 32
0.0
 13
0.0090016344
 23
0.0024149553
 33
0.0
 40
0.0
 40
0.0
 40
0.0
 40
0.0
 40
0.3809361052
 40
1.0
 40
1.0
 40
1.0
 40
1.0
 10
6.5879434638
 20
3.9654592753
 30
0.0
 10
6.5890702224
 20
3.9658208393
 30
0.0
 10
6.5920364548
 20
3.9667440031
 30
0.0
 10
6.5950243672
 20
3.9675960125
 30
0.0
 10
6.5968818962
 20
3.9680943497
 30
0.0
 11
6.5879434638
 21
3.9654592753
 31
0.0
 11
6.5913332585
 21
3.9665138468
 31
0.0
 11
6.5968818962
 21
3.9680943497
 31
0.0
  0
SPLINE
  5
4A0
100
AcDbEntity
  8
0
100
AcDbSpline
 62
7
  6
CONTINUOUS
 70
0
 71
3
 72
11
 73
7
 74
5
 42
0.0000001
 43
0.0000001
 44
0.0000000001
 12
0.0422705552
 22
0.0113403297
 32
0.0
 13
0.043769655
 23
-0.0005889698
 33
0.0
 40
0.0
 40
0.0
 40
0.0
 40
0.0
 40
0.1534867407
 40
0.4675182125
 40
0.7921456583
 40
1.0
 40
1.0
 40
1.0
 40
1.0
 10
6.5968818962
 20
3.9680943497
 30
0.0
 10
6.5990445527
 20
3.9686745465
 30
0.0
 10
6.6056642598
 20
3.970321621
 30
0.0
 10
6.6170349752
 20
3.9724463394
 30
0.0
 10
6.6293436447
 20
3.9736270087
 30
0.0
 10
6.6371157498
 20
3.9737603511
 30
0.0
 10
6.6401483207
 20
3.9737195445
 30
0.0
 11
6.5968818962
 21
3.9680943497
 31
0.0
 11
6.6034008966
 21
3.9697136521
 31
0.0
 11
6.6169116144
 21
3.9722191166
 31
0.0
 11
6.6310525737
 21
3.9735634046
 31
0.0
 11
6.6401483207
 21
3.9737195445
 31
0.0
  0
SPLINE
  5
4A1
100
AcDbEntity
  8
0
100
AcDbSpline
 62
7
  6
CONTINUOUS
 70
0
 71
3
 72
11
 73
7
 74
5
 42
0.0000001
 43
0.0000001
 44
0.0000000001
 12
-0.0437704165
 22
-0.0005900195
 32
0.0
 13
-0.0422714379
 23
0.0113398931
 33
0.0
 40
0.0
 40
0.0
 40
0.0
 40
0.0
 40
0.2060065128
 40
0.5300064692
 40
0.8434777109
 40
1.0
 40
1.0
 40
1.0
 40
1.0
 10
6.6401516808
 20
4.2701153831
 30
0.0
 10
6.6371460172
 20
4.2700748671
 30
0.0
 10
6.6294099369
 20
4.270205295
 30
0.0
 10
6.6171444974
 20
4.2713737965
 30
0.0
 10
6.6057454722
 20
4.2734948621
 30
0.0
 10
6.5990899366
 20
4.2751481931
 30
0.0
 10
6.5968844626
 20
4.2757398417
 30
0.0
 11
6.6401516808
 21
4.2701153831
 31
0.0
 11
6.6311365719
 21
4.2702674804
 31
0.0
 11
6.6170218487
 21
4.2716001637
 31
0.0
 11
6.6035331317
 21
4.2740910923
 31
0.0
 11
6.5968844626
 21
4.2757398417
 31
0.0
  0
SPLINE
  5
4A2
100
AcDbEntity
  8
0
100
AcDbSpline
 62
7
  6
CONTINUOUS
 70
0
 71
3
 72
9
 73
5
 74
3
 42
0.0000001
 43
0.0000001
 44
0.0000000001
 12
-0.008982062
 22
0.0024095613
 32
0.0
 13
-0.0088545979
 23
0.0028402307
 33
0.0
 40
0.0
 40
0.0
 40
0.0
 40
0.0
 40
0.6042514491
 40
1.0
 40
1.0
 40
1.0
 40
1.0
 10
6.5968844626
 20
4.2757398417
 30
0.0
 10
6.5950753212
 20
4.2762251687
 30
0.0
 10
6.5920935765
 20
4.2770740559
 30
0.0
 10
6.5891333942
 20
4.2779939167
 30
0.0
 10
6.5879653294
 20
4.2783685891
 30
0.0
 11
6.5968844626
 21
4.2757398417
 31
0.0
 11
6.5914797469
 21
4.2772769652
 31
0.0
 11
6.5879653294
 21
4.2783685891
 31
0.0
  0
SPLINE
  5
4A3
100
AcDbEntity
  8
0
100
AcDbSpline
 62
7
  6
CONTINUOUS
 70
0
 71
3
 72
13
 73
9
 74
7
 42
0.0000001
 43
0.0000001
 44
0.0000000001
 12
-0.0994679135
 22
0.0
 32
0.0
 13
-0.0287045295
 23
-0.0954567674
 33
0.0
 40
0.0
 40
0.0
 40
0.0
 40
0.0
 40
0.1731345602
 40
0.3481311522
 40
0.5247243008
 40
0.6999201226
 40
0.8695273429
 40
1.0
 40
1.0
 40
1.0
 40
1.0
 10
6.5977730918
 20
4.0547489647
 30
0.0
 10
6.5920326473
 20
4.0547489647
 30
0.0
 10
6.5804494577
 20
4.0534473529
 30
0.0
 10
6.5638890619
 20
4.0476894759
 30
0.0
 10
6.5489051825
 20
4.0384480455
 30
0.0
 10
6.5363635236
 20
4.0263587563
 30
0.0
 10
6.5275354278
 20
4.0131555285
 30
0.0
 10
6.5237448674
 20
4.0038860395
 30
0.0
 10
6.522496482
 20
3.9997345401
 30
0.0
 11
6.5977730918
 21
4.0547489647
 31
0.0
 11
6.5806588487
 21
4.0528314114
 31
0.0
 11
6.5642108737
 21
4.0471347494
 31
0.0
 11
6.5492545979
 21
4.0379232672
 31
0.0
 11
6.5367168507
 21
4.0258202503
 31
0.0
 11
6.5273782157
 21
4.0117702372
 31
0.0
 11
6.522496482
 21
3.9997345401
 31
0.0
  0
SPLINE
  5
4A4
100
AcDbEntity
  8
0
100
AcDbSpline
 62
7
  6
CONTINUOUS
 70
0
 71
3
 72
14
 73
10
 74
8
 42
0.0000001
 43
0.0000001
 44
0.0000000001
 12
0.1177589026
 22
0.0
 32
0.0
 13
-0.0000210741
 23
0.11807347
 33
0.0
 40
0.0
 40
0.0
 40
0.0
 40
0.0
 40
0.1462423584
 40
0.2940574656
 40
0.4432211227
 40
0.591204498
 40
0.734467325
 40
0.870692261
 40
1.0
 40
1.0
 40
1.0
 40
1.0
 10
6.5977730918
 20
4.1890859146
 30
0.0
 10
6.6035135383
 20
4.1890859146
 30
0.0
 10
6.6150967297
 20
4.190387527
 30
0.0
 10
6.6316571256
 20
4.1961454054
 30
0.0
 10
6.6466410024
 20
4.2053868351
 30
0.0
 10
6.659182659
 20
4.2174761221
 30
0.0
 10
6.6685828999
 20
4.2315350445
 30
0.0
 10
6.6744010796
 20
4.2466393529
 30
0.0
 10
6.6757740003
 20
4.2570781752
 30
0.0
 10
6.6757730919
 20
4.2621674464
 30
0.0
 11
6.5977730918
 21
4.1890859146
 31
0.0
 11
6.6148873409
 21
4.1910034693
 31
0.0
 11
6.6313353145
 21
4.196700132
 31
0.0
 11
6.646291587
 21
4.2059116131
 31
0.0
 11
6.658829332
 21
4.218014628
 31
0.0
 11
6.6681679658
 21
4.2320646382
 31
0.0
 11
6.6738662104
 21
4.2470601747
 31
0.0
 11
6.6757730919
 21
4.2621674464
 31
0.0
  0
SPLINE
  5
4A5
100
AcDbEntity
  8
0
100
AcDbSpline
 62
7
  6
CONTINUOUS
 70
0
 71
3
 72
13
 73
9
 74
7
 42
0.0000001
 43
0.0000001
 44
0.0000000001
 12
0.0882144429
 22
0.0
 32
0.0
 13
0.0341860429
 23
0.0816540871
 33
0.0
 40
0.0
 40
0.0
 40
0.0
 40
0.0
 40
0.1846543413
 40
0.3826411455
 40
0.5740868203
 40
0.7486227521
 40
0.913118262
 40
1.0
 40
1.0
 40
1.0
 40
1.0
 10
6.5977730918
 20
3.9647345261
 30
0.0
 10
6.6032028184
 20
3.9647345261
 30
0.0
 10
6.6144690264
 20
3.9654906975
 30
0.0
 10
6.6310344556
 20
3.9691055471
 30
0.0
 10
6.646435655
 20
3.9755592964
 30
0.0
 10
6.6592613436
 20
3.9846996583
 30
0.0
 10
6.6673473464
 20
3.9944697829
 30
0.0
 10
6.6707245887
 20
4.0010970664
 30
0.0
 10
6.6717146363
 20
4.003461816
 30
0.0
 11
6.5977730918
 21
3.9647345261
 31
0.0
 11
6.6140240778
 21
3.9658493511
 31
0.0
 11
6.631067522
 21
3.969664788
 31
0.0
 11
6.6465838836
 21
3.9763323445
 31
0.0
 11
6.6590375342
 21
3.9853856074
 31
0.0
 11
6.6682234226
 21
3.9966188209
 31
0.0
 11
6.6717146363
 21
4.003461816
 31
0.0
  0
SPLINE
  5
4A6
100
AcDbEntity
  8
0
100
AcDbSpline
 62
7
  6
CONTINUOUS
 70
0
 71
3
 72
13
 73
9
 74
7
 42
0.0000001
 43
0.0000001
 44
0.0000000001
 12
-0.0882147068
 22
0.0
 32
0.0
 13
-0.034185622
 23
-0.0816547152
 33
0.0
 40
0.0
 40
0.0
 40
0.0
 40
0.0
 40
0.1845762676
 40
0.3825894891
 40
0.5740728115
 40
0.7486014173
 40
0.9131487907
 40
1.0
 40
1.0
 40
1.0
 40
1.0
 10
6.5977730918
 20
4.2791003531
 30
0.0
 10
6.5923456447
 20
4.2791003531
 30
0.0
 10
6.5810809442
 20
4.278344592
 30
0.0
 10
6.5645156596
 20
4.2747307212
 30
0.0
 10
6.549112592
 20
4.2682768314
 30
0.0
 10
6.5362847097
 20
4.2591353241
 30
0.0
 10
6.5281984337
 20
4.249364689
 30
0.0
 10
6.5248211189
 20
4.2427367139
 30
0.0
 10
6.5238314314
 20
4.240372777
 30
0.0
 11
6.5977730918
 21
4.2791003531
 31
0.0
 11
6.5815288955
 21
4.277986474
 31
0.0
 11
6.5644829189
 21
4.2741714427
 31
0.0
 11
6.5489632407
 21
4.2675030648
 31
0.0
 11
6.5365098793
 21
4.2584504247
 31
0.0
 11
6.5273212116
 21
4.2472135178
 31
0.0
 11
6.5238314314
 21
4.240372777
 31
0.0
  0
SPLINE
  5
4A7
100
AcDbEntity
  8
0
100
AcDbSpline
 62
7
  6
CONTINUOUS
 70
0
 71
3
 72
20
 73
16
 74
14
 42
0.0000001
 43
0.0000001
 44
0.0000000001
 12
0.1496411203
 22
0.0401292502
 32
0.0
 13
0.1492633134
 23
-0.0415064292
 33
0.0
 40
0.0
 40
0.0
 40
0.0
 40
0.0
 40
0.0321030844
 40
0.094107507
 40
0.1736468675
 40
0.270376232
 40
0.3786277002
 40
0.4900444876
 40
0.6013603763
 40
0.7094919082
 40
0.8062860384
 40
0.8858634162
 40
0.9477721658
 40
0.986972724
 40
1.0
 40
1.0
 40
1.0
 40
1.0
 10
6.5227709701
 20
3.8422362491
 30
0.0
 10
6.524372284
 20
3.8426656733
 30
0.0
 10
6.5290757958
 20
3.8438896001
 30
0.0
 10
6.5378039659
 20
3.8459536239
 30
0.0
 10
6.5498741865
 20
3.8483629628
 30
0.0
 10
6.5644070487
 20
3.8505728153
 30
0.0
 10
6.5806836232
 20
3.8521168652
 30
0.0
 10
6.597779361
 20
3.8526651791
 30
0.0
 10
6.6148688493
 20
3.8521161071
 30
0.0
 10
6.6311373828
 20
3.850572949
 30
0.0
 10
6.6456694276
 20
3.8483635386
 30
0.0
 10
6.6577399976
 20
3.8459540562
 30
0.0
 10
6.6668220312
 20
3.8438064398
 30
0.0
 10
6.6725242044
 20
3.8423125628
 30
0.0
 10
6.675124927
 20
3.8415976782
 30
0.0
 10
6.6757730918
 20
3.8414174396
 30
0.0
 11
6.5227709701
 21
3.8422362491
 31
0.0
 11
6.527584428
 21
3.8434884567
 31
0.0
 11
6.5369332704
 21
3.8456969953
 31
0.0
 11
6.5490185164
 21
3.8481049881
 31
0.0
 11
6.5638351744
 21
3.8503515503
 31
0.0
 11
6.5805318743
 21
3.8519294592
 31
0.0
 11
6.5977845634
 21
3.8524805265
 31
0.0
 11
6.6150215976
 21
3.8519289937
 31
0.0
 11
6.6316998096
 21
3.8503529497
 31
0.0
 11
6.6465264373
 21
3.8481052071
 31
0.0
 11
6.6586174463
 21
3.8456959968
 31
0.0
 11
6.6679518823
 21
3.8434909455
 31
0.0
 11
6.6738269906
 21
3.8419523605
 31
0.0
 11
6.6757730918
 21
3.8414174396
 31
0.0
  0
SPLINE
  5
4A8
100
AcDbEntity
  8
0
100
AcDbSpline
 62
7
  6
CONTINUOUS
 70
0
 71
3
 72
14
 73
10
 74
8
 42
0.0000001
 43
0.0000001
 44
0.0000000001
 12
0.0000210723
 22
0.1180734724
 32
0.0
 13
-0.1177589022
 23
0.0
 33
0.0
 40
0.0
 40
0.0
 40
0.0
 40
0.0
 40
0.129310506
 40
0.2655365738
 40
0.4087990204
 40
0.5567820643
 40
0.7059464135
 40
0.8537603894
 40
1.0
 40
1.0
 40
1.0
 40
1.0
 10
6.6757730919
 20
3.9816674337
 30
0.0
 10
6.6757740002
 20
3.9867568139
 30
0.0
 10
6.6744010295
 20
3.9971957898
 30
0.0
 10
6.6685827135
 20
4.0123001963
 30
0.0
 10
6.6591823851
 20
4.0263590784
 30
0.0
 10
6.6466406709
 20
4.0384483033
 30
0.0
 10
6.6316567711
 20
4.0476896409
 30
0.0
 10
6.6150964673
 20
4.0534473945
 30
0.0
 10
6.6035134304
 20
4.0547489647
 30
0.0
 10
6.5977730918
 20
4.0547489647
 30
0.0
 11
6.6757730919
 21
3.9816674337
 31
0.0
 11
6.6738661304
 21
3.9967750231
 31
0.0
 11
6.6681677541
 21
4.0117706521
 31
0.0
 11
6.658829065
 21
4.0258205717
 31
0.0
 11
6.6462912886
 21
4.0379234978
 31
0.0
 11
6.6313348992
 21
4.0471349443
 31
0.0
 11
6.6148870233
 21
4.0528314819
 31
0.0
 11
6.5977730918
 21
4.0547489647
 31
0.0
  0
SPLINE
  5
4A9
100
AcDbEntity
  8
0
100
AcDbSpline
 62
7
  6
CONTINUOUS
 70
0
 71
3
 72
13
 73
9
 74
7
 42
0.0000001
 43
0.0000001
 44
0.0000000001
 12
0.0341861457
 22
-0.0816578182
 32
0.0
 13
0.0882161027
 23
0.0
 33
0.0
 40
0.0
 40
0.0
 40
0.0
 40
0.0
 40
0.0881870968
 40
0.2531529746
 40
0.4281183269
 40
0.6201099665
 40
0.8173865462
 40
1.0
 40
1.0
 40
1.0
 40
1.0
 10
6.5238308534
 20
4.0034635811
 30
0.0
 10
6.5248357791
 20
4.0010631925
 30
0.0
 10
6.5282446922
 20
3.9943919473
 30
0.0
 10
6.5363983764
 20
3.9845916262
 30
0.0
 10
6.549284384
 20
3.9754617382
 30
0.0
 10
6.5647100398
 20
3.9690455969
 30
0.0
 10
6.5812182594
 20
3.9654771425
 30
0.0
 10
6.592403276
 20
3.9647345261
 30
0.0
 10
6.5977730918
 20
3.9647345261
 30
0.0
 11
6.5238308534
 21
4.0034635811
 31
0.0
 11
6.5273822096
 21
3.9965215932
 31
0.0
 11
6.5366226202
 21
3.9852790694
 31
0.0
 11
6.549131681
 21
3.9762372078
 31
0.0
 11
6.5647101841
 21
3.9695916165
 31
0.0
 11
6.5817005697
 21
3.965824629
 31
0.0
 11
6.5977730918
 21
3.9647345261
 31
0.0
  0
SPLINE
  5
4AA
100
AcDbEntity
  8
0
100
AcDbSpline
 62
7
  6
CONTINUOUS
 70
0
 71
3
 72
13
 73
9
 74
7
 42
0.0000001
 43
0.0000001
 44
0.0000000001
 12
-0.0341857038
 22
0.0816584795
 32
0.0
 13
-0.0882163816
 23
0.0
 33
0.0
 40
0.0
 40
0.0
 40
0.0
 40
0.0
 40
0.0881602155
 40
0.2531889841
 40
0.4281431326
 40
0.620179955
 40
0.8174812399
 40
1.0
 40
1.0
 40
1.0
 40
1.0
 10
6.6717154538
 20
4.2403709932
 30
0.0
 10
6.6707108474
 20
4.2427706696
 30
0.0
 10
6.6673016449
 20
4.2494429881
 30
0.0
 10
6.6591473108
 20
4.2592439581
 30
0.0
 10
6.6462586052
 20
4.2683750076
 30
0.0
 10
6.6308309177
 20
4.2747910707
 30
0.0
 10
6.6143231081
 20
4.2783582456
 30
0.0
 10
6.60314014
 20
4.2791003531
 30
0.0
 10
6.5977730918
 20
4.2791003531
 30
0.0
 11
6.6717154538
 21
4.2403709932
 31
0.0
 11
6.6681653694
 21
4.2473110094
 31
0.0
 11
6.6589213871
 21
4.2585578386
 31
0.0
 11
6.6464127347
 21
4.2675986613
 31
0.0
 11
6.6308301965
 21
4.2742450883
 31
0.0
 11
6.6138373691
 21
4.2780113854
 31
0.0
 11
6.5977730918
 21
4.2791003531
 31
0.0
  0
SPLINE
  5
4AB
100
AcDbEntity
  8
0
100
AcDbSpline
 62
7
  6
CONTINUOUS
 70
0
 71
3
 72
13
 73
9
 74
7
 42
0.0000001
 43
0.0000001
 44
0.0000000001
 12
0.028704596
 22
-0.0954566937
 32
0.0
 13
0.0994678568
 23
0.0
 33
0.0
 40
0.0
 40
0.0
 40
0.0
 40
0.0
 40
0.1304768582
 40
0.3000836612
 40
0.4752791294
 40
0.6518731274
 40
0.8268684622
 40
1.0
 40
1.0
 40
1.0
 40
1.0
 10
6.5224964989
 20
4.244100283
 30
0.0
 10
6.5237449274
 20
4.2399486532
 30
0.0
 10
6.5275355702
 20
4.2306790649
 30
0.0
 10
6.5363637988
 20
4.2174758008
 30
0.0
 10
6.5489055104
 20
4.205386578
 30
0.0
 10
6.5638894075
 20
4.1961452409
 30
0.0
 10
6.5804497117
 20
4.1903874855
 30
0.0
 10
6.5920327508
 20
4.1890859146
 30
0.0
 10
6.5977730918
 20
4.1890859146
 30
0.0
 11
6.5224964989
 21
4.244100283
 31
0.0
 11
6.5273784311
 21
4.2320642241
 31
0.0
 11
6.5367171187
 21
4.2180143074
 31
0.0
 11
6.5492548927
 21
4.2059113832
 31
0.0
 11
6.5642112786
 21
4.1966999377
 31
0.0
 11
6.5806591534
 21
4.1910033989
 31
0.0
 11
6.5977730918
 21
4.1890859146
 31
0.0
  0
SPLINE
  5
4AC
100
AcDbEntity
  8
0
100
AcDbSpline
 62
7
  6
CONTINUOUS
 70
0
 71
3
 72
20
 73
16
 74
14
 42
0.0000001
 43
0.0000001
 44
0.0000000001
 12
-0.1492633127
 22
-0.0415064283
 32
0.0
 13
-0.1496411203
 23
0.0401292471
 33
0.0
 40
0.0
 40
0.0
 40
0.0
 40
0.0
 40
0.0129958962
 40
0.0521621154
 40
0.1141665401
 40
0.1937059032
 40
0.290435271
 40
0.3986867429
 40
0.510103534
 40
0.6214194264
 40
0.729550962
 40
0.8263450954
 40
0.9059224758
 40
0.9678312275
 40
1.0
 40
1.0
 40
1.0
 40
1.0
 10
6.6757730918
 20
4.4024174396
 30
0.0
 10
6.6751264883
 20
4.4022376352
 30
0.0
 10
6.6725290435
 20
4.4015236317
 30
0.0
 10
6.6668254085
 20
4.4000292339
 30
0.0
 10
6.6577422177
 20
4.3978812554
 30
0.0
 10
6.6456719971
 20
4.3954719164
 30
0.0
 10
6.6311391348
 20
4.393262064
 30
0.0
 10
6.6148625604
 20
4.391718014
 30
0.0
 10
6.5977668225
 20
4.3911697002
 30
0.0
 10
6.5806773342
 20
4.3917187722
 30
0.0
 10
6.5644088007
 20
4.3932619302
 30
0.0
 10
6.5498767559
 20
4.3954713407
 30
0.0
 10
6.5378061859
 20
4.397880823
 30
0.0
 10
6.5290775981
 20
4.3999448606
 30
0.0
 10
6.5243755656
 20
4.401168326
 30
0.0
 10
6.5227709752
 20
4.4015986288
 30
0.0
 11
6.6757730918
 21
4.4024174396
 31
0.0
 11
6.6738316822
 21
4.4018837933
 31
0.0
 11
6.6679617556
 21
4.4003464225
 31
0.0
 11
6.6586129131
 21
4.398137884
 31
0.0
 11
6.6465276672
 21
4.3957298912
 31
0.0
 11
6.6317110091
 21
4.3934833289
 31
0.0
 11
6.6150143092
 21
4.3919054201
 31
0.0
 11
6.5977616202
 21
4.3913543527
 31
0.0
 11
6.5805245859
 21
4.3919058856
 31
0.0
 11
6.563846374
 21
4.3934819295
 31
0.0
 11
6.5490197463
 21
4.3957296722
 31
0.0
 11
6.5369287372
 21
4.3981388825
 31
0.0
 11
6.5275943013
 21
4.4003439338
 31
0.0
 11
6.5227709752
 21
4.4015986288
 31
0.0
  0
SPLINE
  5
4AD
100
AcDbEntity
  8
0
100
AcDbSpline
 62
7
  6
CONTINUOUS
 70
0
 71
3
 72
14
 73
10
 74
8
 42
0.0000001
 43
0.0000001
 44
0.0000000001
 12
-0.0000198402
 22
0.1111601306
 32
0.0
 13
-0.1108639814
 23
-0.0
 33
0.0
 40
0.0
 40
0.0
 40
0.0
 40
0.0
 40
0.1326680082
 40
0.2648209937
 40
0.4008139968
 40
0.5432855226
 40
0.6920961384
 40
0.8451365035
 40
1.0
 40
1.0
 40
1.0
 40
1.0
 10
6.6757730919
 20
4.2621674464
 30
0.0
 10
6.6757722146
 20
4.2670832441
 30
0.0
 10
6.6745236336
 20
4.2769066142
 30
0.0
 10
6.6686823162
 20
4.2907231635
 30
0.0
 10
6.6591094672
 20
4.3027254831
 30
0.0
 10
6.6463874597
 20
4.3123217968
 30
0.0
 10
6.6313546426
 20
4.3191975483
 30
0.0
 10
6.6148963091
 20
4.323286611
 30
0.0
 10
6.6034960197
 20
4.3241858775
 30
0.0
 10
6.5977730918
 20
4.3241858775
 30
0.0
 11
6.6757730919
 21
4.2621674464
 31
0.0
 11
6.6738659582
 21
4.276751376
 31
0.0
 11
6.6681690629
 21
4.2902494264
 31
0.0
 11
6.6588313691
 21
4.3020864503
 31
0.0
 11
6.6462933945
 21
4.3116926968
 31
0.0
 11
6.6313361117
 21
4.3186536616
 31
0.0
 11
6.6148867694
 21
4.3228114053
 31
0.0
 11
6.5977730918
 21
4.3241858775
 31
0.0
  0
SPLINE
  5
4AE
100
AcDbEntity
  8
0
100
AcDbSpline
 62
7
  6
CONTINUOUS
 70
0
 71
3
 72
13
 73
9
 74
7
 42
0.0000001
 43
0.0000001
 44
0.0000000001
 12
-0.0933620908
 22
0.0
 32
0.0
 13
-0.02907338
 23
-0.0890167568
 33
0.0
 40
0.0
 40
0.0
 40
0.0
 40
0.0
 40
0.1838991131
 40
0.3656299329
 40
0.5423351073
 40
0.7115141196
 40
0.8730002914
 40
1.0
 40
1.0
 40
1.0
 40
1.0
 10
6.5977730918
 20
4.3241858775
 30
0.0
 10
6.5920500232
 20
4.3241858775
 30
0.0
 10
6.5806495564
 20
4.3232865753
 30
0.0
 10
6.5641911258
 20
4.3191974043
 30
0.0
 10
6.5491583848
 20
4.3123215884
 30
0.0
 10
6.5364364956
 20
4.3027252661
 30
0.0
 10
6.5274512752
 20
4.2914595934
 30
0.0
 10
6.5237111914
 20
4.283204706
 30
0.0
 10
6.5224804211
 20
4.2794363386
 30
0.0
 11
6.5977730918
 21
4.3241858775
 31
0.0
 11
6.5806589963
 21
4.3228113371
 31
0.0
 11
6.5642095727
 21
4.3186534864
 31
0.0
 11
6.5492524841
 21
4.311692514
 31
0.0
 11
6.5367145993
 21
4.3020862396
 31
0.0
 11
6.5273769872
 21
4.290249201
 31
0.0
 11
6.5224804211
 21
4.2794363386
 31
0.0
  0
SPLINE
  5
4AF
100
AcDbEntity
  8
0
100
AcDbSpline
 62
7
  6
CONTINUOUS
 70
0
 71
3
 72
14
 73
10
 74
8
 42
0.0000001
 43
0.0000001
 44
0.0000000001
 12
0.1108639829
 22
0.0
 32
0.0
 13
0.0000198385
 23
0.1111601346
 33
0.0
 40
0.0
 40
0.0
 40
0.0
 40
0.0
 40
0.154867469
 40
0.3079087774
 40
0.4567177831
 40
0.5991888093
 40
0.7351815581
 40
0.8673337184
 40
1.0
 40
1.0
 40
1.0
 40
1.0
 10
6.5977730918
 20
3.9196490017
 30
0.0
 10
6.6034961666
 20
3.9196490017
 30
0.0
 10
6.6148966396
 20
3.9205483055
 30
0.0
 10
6.6313550737
 20
3.9246374806
 30
0.0
 10
6.6463878113
 20
3.9315132985
 30
0.0
 10
6.6591097
 20
3.9411096241
 30
0.0
 10
6.6686824493
 20
3.9531119483
 30
0.0
 10
6.6745236626
 20
3.9669284252
 30
0.0
 10
6.6757722146
 20
3.9767516998
 30
0.0
 10
6.6757730919
 20
3.9816674337
 30
0.0
 11
6.5977730918
 21
3.9196490017
 31
0.0
 11
6.6148872058
 21
3.9210235451
 31
0.0
 11
6.6313366283
 21
3.925181399
 31
0.0
 11
6.6462937106
 21
3.932142372
 31
0.0
 11
6.658831593
 21
3.9417486482
 31
0.0
 11
6.6681692082
 21
3.9535856983
 31
0.0
 11
6.6738660084
 21
3.9670836898
 31
0.0
 11
6.6757730919
 21
3.9816674337
 31
0.0
  0
SPLINE
  5
4B0
100
AcDbEntity
  8
0
100
AcDbSpline
 62
7
  6
CONTINUOUS
 70
0
 71
3
 72
13
 73
9
 74
7
 42
0.0000001
 43
0.0000001
 44
0.0000000001
 12
0.0290734126
 22
-0.0890167246
 32
0.0
 13
0.0933620676
 23
0.0
 33
0.0
 40
0.0
 40
0.0
 40
0.0
 40
0.0
 40
0.1270019996
 40
0.288488754
 40
0.4576683734
 40
0.6343753809
 40
0.8161051313
 40
1.0
 40
1.0
 40
1.0
 40
1.0
 10
6.5224804282
 20
3.9643985188
 30
0.0
 10
6.5237112221
 20
3.9606300848
 30
0.0
 10
6.5274513634
 20
3.9523751241
 30
0.0
 10
6.5364367018
 20
3.9411094095
 30
0.0
 10
6.5491587082
 20
3.931513092
 30
0.0
 10
6.5641915217
 20
3.9246373377
 30
0.0
 10
6.5806498597
 20
3.9205482699
 30
0.0
 10
6.5920501567
 20
3.9196490017
 30
0.0
 10
6.5977730918
 20
3.9196490017
 30
0.0
 11
6.5224804282
 21
3.9643985188
 31
0.0
 11
6.527377107
 21
3.953585476
 31
0.0
 11
6.5367148036
 21
3.9417484396
 31
0.0
 11
6.5492527747
 21
3.9321421911
 31
0.0
 11
6.5642100506
 21
3.9251812252
 31
0.0
 11
6.580659393
 21
3.9210234774
 31
0.0
 11
6.5977730918
 21
3.9196490017
 31
0.0
  0
SPLINE
  5
4B1
100
AcDbEntity
  8
0
100
AcDbSpline
 62
7
  6
CONTINUOUS
 70
0
 71
3
 72
14
 73
10
 74
8
 42
0.0000001
 43
0.0000001
 44
0.0000000001
 12
-0.1046826132
 22
0.2029792199
 32
0.0
 13
0.1046826132
 23
0.2029792199
 33
0.0
 40
0.0
 40
0.0
 40
0.0
 40
0.0
 40
0.1530438599
 40
0.2956043717
 40
0.4324922324
 40
0.5675957362
 40
0.7044780411
 40
0.8469906498
 40
1.0
 40
1.0
 40
1.0
 40
1.0
 10
4.6818367577
 20
3.6338149671
 30
0.0
 10
4.6764964139
 20
3.6441698749
 30
0.0
 10
4.6670914205
 20
3.6646696033
 30
0.0
 10
4.6570498024
 20
3.6961251276
 30
0.0
 10
4.6519060923
 20
3.7273927964
 30
0.0
 10
4.6519077854
 20
3.7586618205
 30
0.0
 10
4.6570538659
 20
3.7899249256
 30
0.0
 10
4.6670950483
 20
3.8213734405
 30
0.0
 10
4.6764976181
 20
3.8418673393
 30
0.0
 10
4.6818367577
 20
3.8522199121
 30
0.0
 11
4.6818367577
 21
3.6338149671
 31
0.0
 11
4.6674391589
 21
3.665664608
 31
0.0
 11
4.6577042867
 21
3.6967336592
 31
0.0
 11
4.6527390529
 21
3.7275997731
 31
0.0
 11
4.6527406837
 21
3.7584551812
 31
0.0
 11
4.6577086726
 21
3.7893195665
 31
0.0
 11
4.667441995
 21
3.8203776385
 31
0.0
 11
4.6818367577
 21
3.8522199121
 31
0.0
  0
SPLINE
  5
4B2
100
AcDbEntity
  8
0
100
AcDbSpline
 62
7
  6
CONTINUOUS
 70
0
 71
3
 72
15
 73
11
 74
9
 42
0.0000001
 43
0.0000001
 44
0.0000000001
 12
0.1643031241
 22
0.1839340856
 32
0.0
 13
-0.1643031241
 23
0.1839340856
 33
0.0
 40
0.0
 40
0.0
 40
0.0
 40
0.0
 40
0.1498215377
 40
0.2783315905
 40
0.3927788038
 40
0.5000592815
 40
0.6073304266
 40
0.7217569014
 40
0.8502022558
 40
1.0
 40
1.0
 40
1.0
 40
1.0
 10
5.0552730918
 20
3.6338149671
 30
0.0
 10
5.063478474
 20
3.6430007296
 30
0.0
 10
5.0779102535
 20
3.6608436882
 30
0.0
 10
5.0945079823
 20
3.6887021024
 30
0.0
 10
5.1044930892
 20
3.7159291764
 30
0.0
 10
5.1078541123
 20
3.743031532
 30
0.0
 10
5.1044863386
 20
3.7701311958
 30
0.0
 10
5.0944992214
 20
3.7973489724
 30
0.0
 10
5.0779044918
 20
3.8251984328
 30
0.0
 10
5.0634771709
 20
3.8430356084
 30
0.0
 10
5.0552730918
 20
3.8522199121
 30
0.0
 11
5.0552730918
 21
3.6338149671
 31
0.0
 11
5.0782415656
 21
3.6627598801
 31
0.0
 11
5.0941677504
 21
3.6901625952
 31
0.0
 11
5.1036167478
 21
3.7167603765
 31
0.0
 11
5.1067570568
 21
3.7430321405
 31
0.0
 11
5.1036104686
 21
3.769300835
 31
0.0
 11
5.0941584364
 21
3.7958921098
 31
0.0
 11
5.0782382289
 21
3.8232798428
 31
0.0
 11
5.0552730918
 21
3.8522199121
 31
0.0
  0
SPLINE
  5
4B3
100
AcDbEntity
  8
0
100
AcDbSpline
 62
7
  6
CONTINUOUS
 70
0
 71
3
 72
14
 73
10
 74
8
 42
0.0000001
 43
0.0000001
 44
0.0000000001
 12
-0.1103507163
 22
0.4279393037
 32
0.0
 13
0.1103507163
 23
0.4279393037
 33
0.0
 40
0.0
 40
0.0
 40
0.0
 40
0.0
 40
0.1477720816
 40
0.2900907235
 40
0.430227046
 40
0.569863817
 40
0.7099928421
 40
0.8522618536
 40
1.0
 40
1.0
 40
1.0
 40
1.0
 10
4.6818367577
 20
3.9035124946
 30
0.0
 10
4.6764011726
 20
3.9245916552
 30
0.0
 10
4.6668858205
 20
3.9662856942
 30
0.0
 10
4.6569587372
 20
4.0289343332
 30
0.0
 10
4.6519041943
 20
4.0909737681
 30
0.0
 10
4.651905853
 20
4.152900229
 30
0.0
 10
4.6569627709
 20
4.2149310354
 30
0.0
 10
4.6668895464
 20
4.2775661109
 30
0.0
 10
4.6764024209
 20
4.3192480648
 30
0.0
 10
4.6818367577
 20
4.3403223846
 30
0.0
 11
4.6818367577
 21
3.9035124946
 31
0.0
 11
4.6674391589
 21
3.9672117764
 31
0.0
 11
4.6577042867
 21
4.0293498788
 31
0.0
 11
4.6527390529
 21
4.0910821065
 31
0.0
 11
4.6527406837
 21
4.1527929227
 31
0.0
 11
4.6577086726
 21
4.2145216933
 31
0.0
 11
4.667441995
 21
4.2766378374
 31
0.0
 11
4.6818367577
 21
4.3403223846
 31
0.0
  0
SPLINE
  5
4B4
100
AcDbEntity
  8
0
100
AcDbSpline
 62
7
  6
CONTINUOUS
 70
0
 71
3
 72
15
 73
11
 74
9
 42
0.0000001
 43
0.0000001
 44
0.0000000001
 12
0.1843202379
 22
0.4126856942
 32
0.0
 13
-0.1843202379
 23
0.4126856942
 33
0.0
 40
0.0
 40
0.0
 40
0.0
 40
0.0
 40
0.1377942686
 40
0.2640673782
 40
0.3836049145
 40
0.5000649493
 40
0.6165122554
 40
0.736022619
 40
0.8622283762
 40
1.0
 40
1.0
 40
1.0
 40
1.0
 10
5.0552730918
 20
3.9035124946
 30
0.0
 10
5.0637391826
 20
3.9224677358
 30
0.0
 10
5.0785707253
 20
3.9594486746
 30
0.0
 10
5.0949078406
 20
4.0149849557
 30
0.0
 10
5.10460101
 20
4.068815695
 30
0.0
 10
5.1078226665
 20
4.1219449979
 30
0.0
 10
5.1045944764
 20
4.1750697485
 30
0.0
 10
5.0948989548
 20
4.2288835312
 30
0.0
 10
5.0785645054
 20
4.2844020264
 30
0.0
 10
5.0637377913
 20
4.3213702586
 30
0.0
 10
5.0552730918
 20
4.3403223846
 30
0.0
 11
5.0552730918
 21
3.9035124946
 31
0.0
 11
5.0782415656
 21
3.9614023206
 31
0.0
 11
5.0941677504
 21
4.0162077507
 31
0.0
 11
5.1036167478
 21
4.0694033133
 31
0.0
 11
5.1067570568
 21
4.1219468413
 31
0.0
 11
5.1036104686
 21
4.1744842303
 31
0.0
 11
5.0941584364
 21
4.2276667799
 31
0.0
 11
5.0782382289
 21
4.2824422459
 31
0.0
 11
5.0552730918
 21
4.3403223846
 31
0.0
  0
SPLINE
  5
4B5
100
AcDbEntity
  8
0
100
AcDbSpline
 62
7
  6
CONTINUOUS
 70
0
 71
3
 72
14
 73
10
 74
8
 42
0.0000001
 43
0.0000001
 44
0.0000000001
 12
-0.1046826132
 22
0.2029792199
 32
0.0
 13
0.1046826132
 23
0.2029792199
 33
0.0
 40
0.0
 40
0.0
 40
0.0
 40
0.0
 40
0.1530438599
 40
0.2956043717
 40
0.4324922324
 40
0.5675957362
 40
0.7044780411
 40
0.8469906498
 40
1.0
 40
1.0
 40
1.0
 40
1.0
 10
4.6818367577
 20
4.3916149671
 30
0.0
 10
4.6764964139
 20
4.4019698749
 30
0.0
 10
4.6670914205
 20
4.4224696033
 30
0.0
 10
4.6570498024
 20
4.4539251276
 30
0.0
 10
4.6519060923
 20
4.4851927964
 30
0.0
 10
4.6519077854
 20
4.5164618205
 30
0.0
 10
4.6570538659
 20
4.5477249256
 30
0.0
 10
4.6670950483
 20
4.5791734405
 30
0.0
 10
4.6764976181
 20
4.5996673393
 30
0.0
 10
4.6818367577
 20
4.6100199121
 30
0.0
 11
4.6818367577
 21
4.3916149671
 31
0.0
 11
4.6674391589
 21
4.423464608
 31
0.0
 11
4.6577042867
 21
4.4545336592
 31
0.0
 11
4.6527390529
 21
4.4853997731
 31
0.0
 11
4.6527406837
 21
4.5162551812
 31
0.0
 11
4.6577086726
 21
4.5471195665
 31
0.0
 11
4.667441995
 21
4.5781776385
 31
0.0
 11
4.6818367577
 21
4.6100199121
 31
0.0
  0
SPLINE
  5
4B6
100
AcDbEntity
  8
0
100
AcDbSpline
 62
7
  6
CONTINUOUS
 70
0
 71
3
 72
15
 73
11
 74
9
 42
0.0000001
 43
0.0000001
 44
0.0000000001
 12
0.1643031241
 22
0.1839340856
 32
0.0
 13
-0.1643031241
 23
0.1839340856
 33
0.0
 40
0.0
 40
0.0
 40
0.0
 40
0.0
 40
0.1498215377
 40
0.2783315905
 40
0.3927788038
 40
0.5000592815
 40
0.6073304266
 40
0.7217569014
 40
0.8502022558
 40
1.0
 40
1.0
 40
1.0
 40
1.0
 10
5.0552730918
 20
4.3916149671
 30
0.0
 10
5.063478474
 20
4.4008007296
 30
0.0
 10
5.0779102535
 20
4.4186436882
 30
0.0
 10
5.0945079823
 20
4.4465021024
 30
0.0
 10
5.1044930892
 20
4.4737291764
 30
0.0
 10
5.1078541123
 20
4.500831532
 30
0.0
 10
5.1044863386
 20
4.5279311958
 30
0.0
 10
5.0944992214
 20
4.5551489724
 30
0.0
 10
5.0779044918
 20
4.5829984328
 30
0.0
 10
5.0634771709
 20
4.6008356084
 30
0.0
 10
5.0552730918
 20
4.6100199121
 30
0.0
 11
5.0552730918
 21
4.3916149671
 31
0.0
 11
5.0782415656
 21
4.4205598801
 31
0.0
 11
5.0941677504
 21
4.4479625952
 31
0.0
 11
5.1036167478
 21
4.4745603765
 31
0.0
 11
5.1067570568
 21
4.5008321405
 31
0.0
 11
5.1036104686
 21
4.527100835
 31
0.0
 11
5.0941584364
 21
4.5536921098
 31
0.0
 11
5.0782382289
 21
4.5810798428
 31
0.0
 11
5.0552730918
 21
4.6100199121
 31
0.0
  0
ENDSEC
  0
SECTION
  2
OBJECTS
  0
DICTIONARY
  5
C
100
AcDbDictionary
280
0
281
1
  3
ACAD_GROUP
350
D
  3
ACAD_MLINESTYLE
350
17
  3
ACAD_LAYOUT
350
1A
  3
ACAD_PLOTSETTINGS
350
19
  3
ACAD_PLOTSTYLENAME
350
E
  0
DICTIONARY
  5
D
102
{ACAD_REACTORS
330
C
102
}
100
AcDbDictionary
280
0
281
1
  0
ACDBDICTIONARYWDFLT
  5
E
102
{ACAD_REACTORS
330
C
102
}
100
AcDbDictionary
281
1
  3
Normal
350
F
100
AcDbDictionaryWithDefault
340
F
  0
DICTIONARY
  5
17
102
{ACAD_REACTORS
330
C
102
}
100
AcDbDictionary
280
0
281
1
  3
Standard
350
18
  0
DICTIONARY
  5
19
102
{ACAD_REACTORS
330
C
102
}
100
AcDbDictionary
281
1
  0
DICTIONARY
  5
1A
102
{ACAD_REACTORS
330
C
102
}
100
AcDbDictionary
281
1
  3
Layout1
350
1E
  3
Model
350
22
  0
ACDBPLACEHOLDER
  5
F
102
{ACAD_REACTORS
330
E
102
}
  0
MLINESTYLE
  5
18
102
{ACAD_REACTORS
330
17
102
}
100
AcDbMlineStyle
  2
STANDARD
 70
0
  3

 62
256
 51
90.0
 52
90.0
 71
2
 49
0.5
 62
256
  6
BYLAYER
 49
-0.5
 62
256
  6
BYLAYER
  0
LAYOUT
  5
1E
102
{ACAD_REACTORS
330
1A
102
}
100
AcDbPlotSettings
  1

  2

  4

  6

 40
0.0
 41
0.0
 42
0.0
 43
0.0
 44
0.0
 45
0.0
 46
0.0
 47
0.0
 48
0.0
 49
0.0
140
0.0
141
0.0
142
1.0
143
1.0
 70
0
 72
0
 73
0
 74
0
  7

 75
0
147
1.0
148
0.0
149
0.0
100
AcDbLayout
  1
Layout1
 70
0
 71
0
 10
0.0
 20
0.0
 11
0.0
 21
0.0
 12
0.0
 22
0.0
 32
0.0
 14
0.0
 24
0.0
 34
0.0
 15
0.0
 25
0.0
 35
0.0
146
0.0
 13
0.0
 23
0.0
 33
0.0
 16
0.0
 26
0.0
 36
0.0
 17
0.0
 27
0.0
 37
0.0
 76
0
330
1B
331
0
345
0
346
0
  0
LAYOUT
  5
22
102
{ACAD_REACTORS
330
1A
102
}
100
AcDbPlotSettings
  1

  2

  4

  6

 40
0.0
 41
0.0
 42
0.0
 43
0.0
 44
0.0
 45
0.0
 46
0.0
 47
0.0
 48
0.0
 49
0.0
140
0.0
141
0.0
142
1.0
143
1.0
 70
0
 72
0
 73
0
 74
0
  7

 75
0
147
1.0
148
0.0
149
0.0
100
AcDbLayout
  1
Model
 70
0
 71
0
 10
0.0
 20
0.0
 11
0.0
 21
0.0
 12
0.0
 22
0.0
 32
0.0
 14
0.0
 24
0.0
 34
0.0
 15
0.0
 25
0.0
 35
0.0
146
0.0
 13
0.0
 23
0.0
 33
0.0
 16
0.0
 26
0.0
 36
0.0
 17
0.0
 27
0.0
 37
0.0
 76
0
330
1F
331
0
345
0
346
0
  0
ENDSEC
  0
EOF
