999
DXF file: CBBA-LIN.dxf
999
Pro/ENGINEER 2006240 by Parametric Technology Corporation
  0
SECTION
  2
HEADER
  9
$ACADVER
  1
AC1015
  9
$DWGCODEPAGE
  3
ANSI_1252
  9
$EXTMAX
 10
11.6929133858
 20
8.2677165354
 30
0.0
  9
$EXTMIN
 10
0.0
 20
0.0
 30
0.0
  9
$LIMMIN
 10
0.0
 20
0.0
  9
$LIMMAX
 10
11.6929133858
 20
8.2677165354
  9
$VIEWCTR
 10
5.8464566929
 20
4.1338582677
  9
$VIEWSIZE
 40
8.2677165354
  9
$CLAYER
  8
0
  9
$LTSCALE
 40
0.6431102362
  9
$CELTYPE
  6
BYLAYER
  9
$DIMSCALE
 40
1.0
  9
$DIMASZ
 40
0.1875
  9
$DIMEXO
 40
0.0730807087
  9
$DIMDLI
 40
0.4443307087
  9
$DIMEXE
 40
0.2104724409
  9
$DIMCEN
 40
0.1052362205
  9
$DIMLFAC
 40
1.0
  9
$DIMBLK
  1
_CLOSED
  9
$DIMTXT
 40
0.15625
  9
$DIMTOL
 70
0
  9
$DIMLIM
 70
0
  9
$DIMTFAC
 40
1.0
  9
$PDMODE
 70
3
  9
$PDSIZE
 40
0.3125
  9
$HANDSEED
  5
4C3
  9
$MEASUREMENT
 70
0
  9
$INSUNITS
 70
1
  0
ENDSEC
  0
SECTION
  2
CLASSES
  0
CLASS
  1
ACDBDICTIONARYWDFLT
  2
AcDbDictionaryWithDefault
  3
AutoCAD 2000
 90
0
280
0
281
0
  0
CLASS
  1
ACDBPLACEHOLDER
  2
AcDbPlaceHolder
  3
AutoCAD 2000
 90
0
280
0
281
0
  0
CLASS
  1
LAYOUT
  2
AcDbLayout
  3
AutoCAD 2000
 90
0
280
0
281
0
  0
ENDSEC
  0
SECTION
  2
TABLES
  0
TABLE
  2
VPORT
  5
8
100
AcDbSymbolTable
 70
2
  0
VPORT
  5
1F4
100
AcDbSymbolTableRecord
100
AcDbViewportTableRecord
  2
*ACTIVE
 70
0
 10
0.0
 20
0.0
 11
1.0
 21
1.0
 12
5.8464566929
 22
4.1338582677
 13
0.0
 23
0.0
 14
1.0
 24
1.0
 15
0.0
 25
0.0
 16
0.0
 26
0.0
 36
1.0
 17
0.0
 27
0.0
 37
0.0
 40
8.2677165354
 41
1.4142857143
 42
50.0
 43
0.0
 44
0.0
 50
0.0
 51
0.0
 71
0
 72
100
 73
1
 74
1
 75
0
 76
0
 77
0
 78
0
  0
ENDTAB
  0
TABLE
  2
LTYPE
  5
5
100
AcDbSymbolTable
 70
6
  0
LTYPE
  5
14
100
AcDbSymbolTableRecord
100
AcDbLinetypeTableRecord
  2
BYBLOCK
 70
0
  3

 72
65
 73
0
 40
0.0
  0
LTYPE
  5
15
100
AcDbSymbolTableRecord
100
AcDbLinetypeTableRecord
  2
BYLAYER
 70
0
  3

 72
65
 73
0
 40
0.0
  0
LTYPE
  5
16
100
AcDbSymbolTableRecord
100
AcDbLinetypeTableRecord
  2
CONTINUOUS
 70
64
  3
Solid line
 72
65
 73
0
 40
0.0
  0
LTYPE
  5
1F5
100
AcDbSymbolTableRecord
100
AcDbLinetypeTableRecord
  2
CENTER
 70
64
  3
____ _ ____ _ ____ _ ____ _ ____ _ ____ _ ____
 72
65
 73
4
 40
0.6
 49
0.375
 74
0
 49
-0.075
 74
0
 49
0.075
 74
0
 49
-0.075
 74
0
  0
LTYPE
  5
1F6
100
AcDbSymbolTableRecord
100
AcDbLinetypeTableRecord
  2
HIDDEN
 70
64
  3
- - - - - - - - - - - - - - - - - - - -
 72
65
 73
2
 40
0.2
 49
0.1
 74
0
 49
-0.1
 74
0
  0
LTYPE
  5
1F7
100
AcDbSymbolTableRecord
100
AcDbLinetypeTableRecord
  2
PHANTOM
 70
64
  3
_____ _ _ _____ _ _ _____ _ _ _____
 72
65
 73
6
 40
0.8
 49
0.45
 74
0
 49
-0.05
 74
0
 49
0.1
 74
0
 49
-0.05
 74
0
 49
0.1
 74
0
 49
-0.05
 74
0
  0
LTYPE
  5
1F8
100
AcDbSymbolTableRecord
100
AcDbLinetypeTableRecord
  2
DOT
 70
64
  3
. . . . . . . . . . . . . . . . . . . .
 72
65
 73
2
 40
0.2
 49
0.1
 74
0
 49
-0.1
 74
0
  0
LTYPE
  5
1F9
100
AcDbSymbolTableRecord
100
AcDbLinetypeTableRecord
  2
DASHED
 70
64
  3
- - - - - - - - - - - - - - - - - - - -
 72
65
 73
2
 40
0.2
 49
0.1
 74
0
 49
-0.1
 74
0
  0
ENDTAB
  0
TABLE
  2
LAYER
  5
2
100
AcDbSymbolTable
 70
36
  0
LAYER
  5
10
100
AcDbSymbolTableRecord
100
AcDbLayerTableRecord
  2
0
 70
0
 62
7
  6
CONTINUOUS
370
-3
390
F
  0
LAYER
  5
1FA
100
AcDbSymbolTableRecord
100
AcDbLayerTableRecord
  2
DEFAULT_1
 70
0
 62
7
  6
CENTER
370
-3
390
F
  0
LAYER
  5
1FB
100
AcDbSymbolTableRecord
100
AcDbLayerTableRecord
  2
DEFAULT_2
 70
0
 62
8
  6
HIDDEN
370
-3
390
F
  0
LAYER
  5
1FC
100
AcDbSymbolTableRecord
100
AcDbLayerTableRecord
  2
DEFAULT_3
 70
0
 62
7
  6
PHANTOM
370
-3
390
F
  0
LAYER
  5
1FD
100
AcDbSymbolTableRecord
100
AcDbLayerTableRecord
  2
_BLACK_HOLE
 70
0
 62
7
  6
CONTINUOUS
370
-3
390
F
  0
LAYER
  5
1FE
100
AcDbSymbolTableRecord
100
AcDbLayerTableRecord
  2
01_ALL_DTM_PLN
 70
0
 62
7
  6
CONTINUOUS
370
-3
390
F
  0
LAYER
  5
1FF
100
AcDbSymbolTableRecord
100
AcDbLayerTableRecord
  2
01__ASM_ALL_DTM_PLN
 70
0
 62
7
  6
CONTINUOUS
370
-3
390
F
  0
LAYER
  5
200
100
AcDbSymbolTableRecord
100
AcDbLayerTableRecord
  2
01__ASM_DEF_DTM_PLN
 70
0
 62
7
  6
CONTINUOUS
370
-3
390
F
  0
LAYER
  5
201
100
AcDbSymbolTableRecord
100
AcDbLayerTableRecord
  2
01___PRT_ALL_DTM_PLN
 70
0
 62
7
  6
CONTINUOUS
370
-3
390
F
  0
LAYER
  5
202
100
AcDbSymbolTableRecord
100
AcDbLayerTableRecord
  2
01___PRT_DEF_DTM_PLN
 70
0
 62
7
  6
CONTINUOUS
370
-3
390
F
  0
LAYER
  5
203
100
AcDbSymbolTableRecord
100
AcDbLayerTableRecord
  2
02_ALL_AXES
 70
0
 62
7
  6
CONTINUOUS
370
-3
390
F
  0
LAYER
  5
204
100
AcDbSymbolTableRecord
100
AcDbLayerTableRecord
  2
02__ASM_ALL_AXES
 70
0
 62
7
  6
CONTINUOUS
370
-3
390
F
  0
LAYER
  5
205
100
AcDbSymbolTableRecord
100
AcDbLayerTableRecord
  2
02___PRT_ALL_AXES
 70
0
 62
7
  6
CONTINUOUS
370
-3
390
F
  0
LAYER
  5
206
100
AcDbSymbolTableRecord
100
AcDbLayerTableRecord
  2
03_ALL_CURVES
 70
0
 62
7
  6
CONTINUOUS
370
-3
390
F
  0
LAYER
  5
207
100
AcDbSymbolTableRecord
100
AcDbLayerTableRecord
  2
03__ASM_ALL_CURVES
 70
0
 62
7
  6
CONTINUOUS
370
-3
390
F
  0
LAYER
  5
208
100
AcDbSymbolTableRecord
100
AcDbLayerTableRecord
  2
03___PRT_ALL_CURVES
 70
0
 62
7
  6
CONTINUOUS
370
-3
390
F
  0
LAYER
  5
209
100
AcDbSymbolTableRecord
100
AcDbLayerTableRecord
  2
04_ALL_DTM_PNT
 70
0
 62
7
  6
CONTINUOUS
370
-3
390
F
  0
LAYER
  5
20A
100
AcDbSymbolTableRecord
100
AcDbLayerTableRecord
  2
04__ASM_ALL_DTM_PNT
 70
0
 62
7
  6
CONTINUOUS
370
-3
390
F
  0
LAYER
  5
20B
100
AcDbSymbolTableRecord
100
AcDbLayerTableRecord
  2
04___PRT_ALL_DTM_PNT
 70
0
 62
7
  6
CONTINUOUS
370
-3
390
F
  0
LAYER
  5
20C
100
AcDbSymbolTableRecord
100
AcDbLayerTableRecord
  2
05_ALL_DTM_CSYS
 70
0
 62
7
  6
CONTINUOUS
370
-3
390
F
  0
LAYER
  5
20D
100
AcDbSymbolTableRecord
100
AcDbLayerTableRecord
  2
05__ASM_ALL_DTM_CSYS
 70
0
 62
7
  6
CONTINUOUS
370
-3
390
F
  0
LAYER
  5
20E
100
AcDbSymbolTableRecord
100
AcDbLayerTableRecord
  2
05__ASM_DEF_DTM_CSYS
 70
0
 62
7
  6
CONTINUOUS
370
-3
390
F
  0
LAYER
  5
20F
100
AcDbSymbolTableRecord
100
AcDbLayerTableRecord
  2
05___PRT_ALL_DTM_CSYS
 70
0
 62
7
  6
CONTINUOUS
370
-3
390
F
  0
LAYER
  5
210
100
AcDbSymbolTableRecord
100
AcDbLayerTableRecord
  2
05___PRT_DEF_DTM_CSYS
 70
0
 62
7
  6
CONTINUOUS
370
-3
390
F
  0
LAYER
  5
211
100
AcDbSymbolTableRecord
100
AcDbLayerTableRecord
  2
06_ALL_SURFS
 70
0
 62
7
  6
CONTINUOUS
370
-3
390
F
  0
LAYER
  5
212
100
AcDbSymbolTableRecord
100
AcDbLayerTableRecord
  2
06__ASM_ALL_SURFS
 70
0
 62
7
  6
CONTINUOUS
370
-3
390
F
  0
LAYER
  5
213
100
AcDbSymbolTableRecord
100
AcDbLayerTableRecord
  2
06___PRT_ALL_SURFS
 70
0
 62
7
  6
CONTINUOUS
370
-3
390
F
  0
LAYER
  5
214
100
AcDbSymbolTableRecord
100
AcDbLayerTableRecord
  2
07__ASM_ALL_SKELETONS
 70
0
 62
7
  6
CONTINUOUS
370
-3
390
F
  0
LAYER
  5
215
100
AcDbSymbolTableRecord
100
AcDbLayerTableRecord
  2
126-001_HEX_FEATURES
 70
0
 62
7
  6
CONTINUOUS
370
-3
390
F
  0
LAYER
  5
216
100
AcDbSymbolTableRecord
100
AcDbLayerTableRecord
  2
126-001_REF_GEOMETRY
 70
0
 62
7
  6
CONTINUOUS
370
-3
390
F
  0
LAYER
  5
217
100
AcDbSymbolTableRecord
100
AcDbLayerTableRecord
  2
126-004_HEX_FEATURES
 70
0
 62
7
  6
CONTINUOUS
370
-3
390
F
  0
LAYER
  5
218
100
AcDbSymbolTableRecord
100
AcDbLayerTableRecord
  2
126-004_REF_GEOMETRY
 70
0
 62
7
  6
CONTINUOUS
370
-3
390
F
  0
LAYER
  5
219
100
AcDbSymbolTableRecord
100
AcDbLayerTableRecord
  2
126-400_HEX_FEATURES
 70
0
 62
7
  6
CONTINUOUS
370
-3
390
F
  0
LAYER
  5
21A
100
AcDbSymbolTableRecord
100
AcDbLayerTableRecord
  2
126-400_REF_GEOMETRY
 70
0
 62
7
  6
CONTINUOUS
370
-3
390
F
  0
LAYER
  5
21B
100
AcDbSymbolTableRecord
100
AcDbLayerTableRecord
  2
126-401_HEX_FEATURES
 70
0
 62
7
  6
CONTINUOUS
370
-3
390
F
  0
LAYER
  5
21C
100
AcDbSymbolTableRecord
100
AcDbLayerTableRecord
  2
126-401_REF_GEOMETRY
 70
0
 62
7
  6
CONTINUOUS
370
-3
390
F
  0
LAYER
  5
21D
100
AcDbSymbolTableRecord
100
AcDbLayerTableRecord
  2
126-402_HEX_FEATURES
 70
0
 62
7
  6
CONTINUOUS
370
-3
390
F
  0
LAYER
  5
21E
100
AcDbSymbolTableRecord
100
AcDbLayerTableRecord
  2
126-402_REF_GEOMETRY
 70
0
 62
7
  6
CONTINUOUS
370
-3
390
F
  0
LAYER
  5
21F
100
AcDbSymbolTableRecord
100
AcDbLayerTableRecord
  2
126-403_HEX_FEATURES
 70
0
 62
7
  6
CONTINUOUS
370
-3
390
F
  0
LAYER
  5
220
100
AcDbSymbolTableRecord
100
AcDbLayerTableRecord
  2
126-403_REF_GEOMETRY
 70
0
 62
7
  6
CONTINUOUS
370
-3
390
F
  0
LAYER
  5
221
100
AcDbSymbolTableRecord
100
AcDbLayerTableRecord
  2
126-404_HEX_FEATURES
 70
0
 62
7
  6
CONTINUOUS
370
-3
390
F
  0
LAYER
  5
222
100
AcDbSymbolTableRecord
100
AcDbLayerTableRecord
  2
126-404_REF_GEOMETRY
 70
0
 62
7
  6
CONTINUOUS
370
-3
390
F
  0
LAYER
  5
223
100
AcDbSymbolTableRecord
100
AcDbLayerTableRecord
  2
126-405_HEX_FEATURES
 70
0
 62
7
  6
CONTINUOUS
370
-3
390
F
  0
LAYER
  5
224
100
AcDbSymbolTableRecord
100
AcDbLayerTableRecord
  2
126-405_REF_GEOMETRY
 70
0
 62
7
  6
CONTINUOUS
370
-3
390
F
  0
LAYER
  5
225
100
AcDbSymbolTableRecord
100
AcDbLayerTableRecord
  2
126-406_HEX_FEATURES
 70
0
 62
7
  6
CONTINUOUS
370
-3
390
F
  0
LAYER
  5
226
100
AcDbSymbolTableRecord
100
AcDbLayerTableRecord
  2
126-406_REF_GEOMETRY
 70
0
 62
7
  6
CONTINUOUS
370
-3
390
F
  0
LAYER
  5
227
100
AcDbSymbolTableRecord
100
AcDbLayerTableRecord
  2
A00_SLOT
 70
0
 62
7
  6
CONTINUOUS
370
-3
390
F
  0
LAYER
  5
228
100
AcDbSymbolTableRecord
100
AcDbLayerTableRecord
  2
ANGLE_HOLE_DTM
 70
0
 62
7
  6
CONTINUOUS
370
-3
390
F
  0
LAYER
  5
229
100
AcDbSymbolTableRecord
100
AcDbLayerTableRecord
  2
AXIS
 70
0
 62
7
  6
CONTINUOUS
370
-3
390
F
  0
LAYER
  5
22A
100
AcDbSymbolTableRecord
100
AcDbLayerTableRecord
  2
COPY_GEO_FET
 70
0
 62
7
  6
CONTINUOUS
370
-3
390
F
  0
LAYER
  5
22B
100
AcDbSymbolTableRecord
100
AcDbLayerTableRecord
  2
COSMETIC
 70
0
 62
7
  6
CONTINUOUS
370
-3
390
F
  0
LAYER
  5
22C
100
AcDbSymbolTableRecord
100
AcDbLayerTableRecord
  2
CURVES
 70
0
 62
7
  6
CONTINUOUS
370
-3
390
F
  0
LAYER
  5
22D
100
AcDbSymbolTableRecord
100
AcDbLayerTableRecord
  2
CUT_REF_SURF
 70
0
 62
7
  6
CONTINUOUS
370
-3
390
F
  0
LAYER
  5
22E
100
AcDbSymbolTableRecord
100
AcDbLayerTableRecord
  2
DATUM
 70
0
 62
7
  6
CONTINUOUS
370
-3
390
F
  0
LAYER
  5
22F
100
AcDbSymbolTableRecord
100
AcDbLayerTableRecord
  2
DATUMCURVES
 70
0
 62
7
  6
CONTINUOUS
370
-3
390
F
  0
LAYER
  5
230
100
AcDbSymbolTableRecord
100
AcDbLayerTableRecord
  2
DATUM_B
 70
0
 62
7
  6
CONTINUOUS
370
-3
390
F
  0
LAYER
  5
231
100
AcDbSymbolTableRecord
100
AcDbLayerTableRecord
  2
DIMENSIONS
 70
0
 62
7
  6
CONTINUOUS
370
-3
390
F
  0
LAYER
  5
232
100
AcDbSymbolTableRecord
100
AcDbLayerTableRecord
  2
DRAWINGNOTES
 70
0
 62
7
  6
CONTINUOUS
370
-3
390
F
  0
LAYER
  5
233
100
AcDbSymbolTableRecord
100
AcDbLayerTableRecord
  2
DTM
 70
0
 62
7
  6
CONTINUOUS
370
-3
390
F
  0
LAYER
  5
234
100
AcDbSymbolTableRecord
100
AcDbLayerTableRecord
  2
DTM230
 70
0
 62
7
  6
CONTINUOUS
370
-3
390
F
  0
LAYER
  5
235
100
AcDbSymbolTableRecord
100
AcDbLayerTableRecord
  2
DTM_300-001-___
 70
0
 62
7
  6
CONTINUOUS
370
-3
390
F
  0
LAYER
  5
236
100
AcDbSymbolTableRecord
100
AcDbLayerTableRecord
  2
DTM_350-012
 70
0
 62
7
  6
CONTINUOUS
370
-3
390
F
  0
LAYER
  5
237
100
AcDbSymbolTableRecord
100
AcDbLayerTableRecord
  2
DTM_500001
 70
0
 62
7
  6
CONTINUOUS
370
-3
390
F
  0
LAYER
  5
238
100
AcDbSymbolTableRecord
100
AcDbLayerTableRecord
  2
DTM_500002
 70
0
 62
7
  6
CONTINUOUS
370
-3
390
F
  0
LAYER
  5
239
100
AcDbSymbolTableRecord
100
AcDbLayerTableRecord
  2
DTM_515002
 70
0
 62
7
  6
CONTINUOUS
370
-3
390
F
  0
LAYER
  5
23A
100
AcDbSymbolTableRecord
100
AcDbLayerTableRecord
  2
DTM_LAYOUT
 70
0
 62
7
  6
CONTINUOUS
370
-3
390
F
  0
LAYER
  5
23B
100
AcDbSymbolTableRecord
100
AcDbLayerTableRecord
  2
DTM_SPRING_RH
 70
0
 62
7
  6
CONTINUOUS
370
-3
390
F
  0
LAYER
  5
23C
100
AcDbSymbolTableRecord
100
AcDbLayerTableRecord
  2
DTM_SP_RH_CONSTR
 70
0
 62
7
  6
CONTINUOUS
370
-3
390
F
  0
LAYER
  5
23D
100
AcDbSymbolTableRecord
100
AcDbLayerTableRecord
  2
DTP325-083
 70
0
 62
7
  6
CONTINUOUS
370
-3
390
F
  0
LAYER
  5
23E
100
AcDbSymbolTableRecord
100
AcDbLayerTableRecord
  2
GEOMETRICTOLERANCES
 70
0
 62
7
  6
CONTINUOUS
370
-3
390
F
  0
LAYER
  5
23F
100
AcDbSymbolTableRecord
100
AcDbLayerTableRecord
  2
NPTF_PORT_PER_S-164
 70
0
 62
7
  6
CONTINUOUS
370
-3
390
F
  0
LAYER
  5
240
100
AcDbSymbolTableRecord
100
AcDbLayerTableRecord
  2
PARAMETERDIMENSIONS
 70
0
 62
7
  6
CONTINUOUS
370
-3
390
F
  0
LAYER
  5
241
100
AcDbSymbolTableRecord
100
AcDbLayerTableRecord
  2
PLANE
 70
0
 62
7
  6
CONTINUOUS
370
-3
390
F
  0
LAYER
  5
242
100
AcDbSymbolTableRecord
100
AcDbLayerTableRecord
  2
REF
 70
0
 62
7
  6
CONTINUOUS
370
-3
390
F
  0
LAYER
  5
243
100
AcDbSymbolTableRecord
100
AcDbLayerTableRecord
  2
SPEC_SAE-4_PORT
 70
0
 62
7
  6
CONTINUOUS
370
-3
390
F
  0
LAYER
  5
244
100
AcDbSymbolTableRecord
100
AcDbLayerTableRecord
  2
STD_SAE-4_PORT
 70
0
 62
7
  6
CONTINUOUS
370
-3
390
F
  0
LAYER
  5
245
100
AcDbSymbolTableRecord
100
AcDbLayerTableRecord
  2
TEXT
 70
0
 62
7
  6
CONTINUOUS
370
-3
390
F
  0
LAYER
  5
246
100
AcDbSymbolTableRecord
100
AcDbLayerTableRecord
  2
THREAD
 70
0
 62
7
  6
CONTINUOUS
370
-3
390
F
  0
LAYER
  5
247
100
AcDbSymbolTableRecord
100
AcDbLayerTableRecord
  2
WIRE_GRV-SLOT_DRW_REF
 70
0
 62
7
  6
CONTINUOUS
370
-3
390
F
  0
LAYER
  5
248
100
AcDbSymbolTableRecord
100
AcDbLayerTableRecord
  2
XSEC_DATUMS
 70
0
 62
7
  6
CONTINUOUS
370
-3
390
F
  0
ENDTAB
  0
TABLE
  2
STYLE
  5
3
100
AcDbSymbolTable
 70
1
  0
STYLE
  5
11
100
AcDbSymbolTableRecord
100
AcDbTextStyleTableRecord
  2
STANDARD
 70
0
 40
0.0
 41
0.8
 50
0.0
 71
0
 42
0.2
  3
txt
  4

  0
ENDTAB
  0
TABLE
  2
VIEW
  5
6
100
AcDbSymbolTable
 70
0
  0
ENDTAB
  0
TABLE
  2
UCS
  5
7
100
AcDbSymbolTable
 70
0
  0
ENDTAB
  0
TABLE
  2
APPID
  5
9
100
AcDbSymbolTable
 70
1
  0
APPID
  5
249
100
AcDbSymbolTableRecord
100
AcDbRegAppTableRecord
  2
ACAD
 70
0
  0
ENDTAB
  0
TABLE
  2
BLOCK_RECORD
  5
1
100
AcDbSymbolTable
 70
0
  0
BLOCK_RECORD
  5
1F
100
AcDbSymbolTableRecord
100
AcDbBlockTableRecord
  2
*MODEL_SPACE
  0
BLOCK_RECORD
  5
1B
100
AcDbSymbolTableRecord
100
AcDbBlockTableRecord
  2
*PAPER_SPACE
  0
ENDTAB
  0
TABLE
  2
DIMSTYLE
  5
A
100
AcDbSymbolTable
 70
1
100
AcDbDimStyleTable
 71
0
  0
DIMSTYLE
105
24A
100
AcDbSymbolTableRecord
100
AcDbDimStyleTableRecord
  2
STANDARD
 70
0
  3

  4

 40
1.0
 41
0.1875
 42
0.0625
 43
0.38
 44
0.18
 45
0.0
 46
0.0
 47
0.01
 48
0.01
140
0.15625
141
0.09
142
0.0
143
25.4
144
1.0
145
0.0
146
1.0
147
0.09
 71
0.0
 72
0.0
 73
1
 74
1
 75
0
 76
0
 77
0
 78
4
170
0
171
2
172
0
173
0
174
0
175
0
176
0
177
0
178
0
270
2
271
2
272
2
273
2
274
2
275
0
280
0
281
0
282
0
283
1
284
4
285
0
286
0
287
3
288
0
340
11
  0
ENDTAB
  0
ENDSEC
  0
SECTION
  2
BLOCKS
  0
BLOCK
  5
20
100
AcDbEntity
  8
0
100
AcDbBlockBegin
  2
*MODEL_SPACE
 70
0
 10
0.0
 20
0.0
 30
0.0
  3
*MODEL_SPACE
  1

  0
ENDBLK
  5
21
100
AcDbEntity
  8
0
100
AcDbBlockEnd
  0
BLOCK
  5
1C
100
AcDbEntity
  8
0
100
AcDbBlockBegin
  2
*PAPER_SPACE
 70
0
 10
0.0
 20
0.0
 30
0.0
  3
*PAPER_SPACE
  1

  0
ENDBLK
  5
1D
100
AcDbEntity
  8
0
100
AcDbBlockEnd
  0
ENDSEC
  0
SECTION
  2
ENTITIES
  0
LINE
  5
24B
100
AcDbEntity
  8
0
100
AcDbLine
 62
7
  6
CONTINUOUS
 10
3.86582872
 20
3.96840884
 11
3.86582872
 21
4.27540884
  0
LINE
  5
24C
100
AcDbEntity
  8
03__ASM_ALL_CURVES
100
AcDbLine
 62
40
  6
CONTINUOUS
 10
3.86582872
 20
4.27540884
 11
3.86582872
 21
5.1207422919
  0
LINE
  5
24D
100
AcDbEntity
  8
0
100
AcDbLine
 62
7
  6
CONTINUOUS
 10
3.89682872
 20
3.93740884
 11
3.89682872
 21
4.30640884
  0
LINE
  5
24E
100
AcDbEntity
  8
0
100
AcDbLine
 62
7
  6
CONTINUOUS
 10
3.92882872
 20
4.400409174
 11
3.92882872
 21
3.843408506
  0
LINE
  5
24F
100
AcDbEntity
  8
0
100
AcDbLine
 62
7
  6
CONTINUOUS
 10
3.92882872
 20
3.843408506
 11
3.9306077771
 21
3.8403270887
  0
LINE
  5
250
100
AcDbEntity
  8
03__ASM_ALL_CURVES
100
AcDbLine
 62
40
  6
CONTINUOUS
 10
3.9649170755
 20
5.1042275659
 11
3.9649170755
 21
5.0711981141
  0
LINE
  5
251
100
AcDbEntity
  8
0
100
AcDbLine
 62
7
  6
CONTINUOUS
 10
4.14782872
 20
3.79840884
 11
4.14782872
 21
4.44540884
  0
LINE
  5
252
100
AcDbEntity
  8
0
100
AcDbLine
 62
7
  6
CONTINUOUS
 10
4.19782872
 20
3.74840884
 11
4.19782872
 21
4.49540884
  0
LINE
  5
253
100
AcDbEntity
  8
0
100
AcDbLine
 62
7
  6
CONTINUOUS
 10
4.24882872
 20
3.74840884
 11
4.24882872
 21
4.49540884
  0
LINE
  5
254
100
AcDbEntity
  8
0
100
AcDbLine
 62
7
  6
CONTINUOUS
 10
3.92882872
 20
4.400409174
 11
3.9306077771
 21
4.4034905914
  0
LINE
  5
255
100
AcDbEntity
  8
0
100
AcDbLine
 62
7
  6
CONTINUOUS
 10
3.89682872
 20
3.93740884
 11
3.86582872
 21
3.96840884
  0
LINE
  5
256
100
AcDbEntity
  8
0
100
AcDbLine
 62
7
  6
CONTINUOUS
 10
4.25382872
 20
3.75340884
 11
4.25382872
 21
4.49040884
  0
LINE
  5
257
100
AcDbEntity
  8
0
100
AcDbLine
 62
7
  6
CONTINUOUS
 10
4.26182872
 20
3.77190884
 11
4.26182872
 21
4.47190884
  0
LINE
  5
258
100
AcDbEntity
  8
0
100
AcDbLine
 62
7
  6
CONTINUOUS
 10
4.28382872
 20
3.77190884
 11
4.28382872
 21
4.47190884
  0
LINE
  5
259
100
AcDbEntity
  8
0
100
AcDbLine
 62
7
  6
CONTINUOUS
 10
4.29182872
 20
3.75340884
 11
4.29182872
 21
4.49040884
  0
LINE
  5
25A
100
AcDbEntity
  8
0
100
AcDbLine
 62
7
  6
CONTINUOUS
 10
4.29682872
 20
3.74840884
 11
4.29682872
 21
4.49540884
  0
LINE
  5
25B
100
AcDbEntity
  8
03__ASM_ALL_CURVES
100
AcDbLine
 62
40
  6
CONTINUOUS
 10
4.5819644237
 20
5.1757913799
 11
4.5871252756
 21
5.1895536482
  0
LINE
  5
25C
100
AcDbEntity
  8
03__ASM_ALL_CURVES
100
AcDbLine
 62
40
  6
CONTINUOUS
 10
4.6232512385
 20
5.1757913799
 11
4.6180903867
 21
5.1620291067
  0
LINE
  5
25D
100
AcDbEntity
  8
03__ASM_ALL_CURVES
100
AcDbLine
 62
40
  6
CONTINUOUS
 10
4.5871252756
 20
5.1895536482
 11
4.5922861274
 21
5.1964347873
  0
LINE
  5
25E
100
AcDbEntity
  8
03__ASM_ALL_CURVES
100
AcDbLine
 62
40
  6
CONTINUOUS
 10
4.6180903867
 20
5.1345045639
 11
4.6129295348
 21
5.1276234279
  0
LINE
  5
25F
100
AcDbEntity
  8
03__ASM_ALL_CURVES
100
AcDbLine
 62
40
  6
CONTINUOUS
 10
4.6696989052
 20
5.1895536482
 11
4.6748597571
 21
5.1964347873
  0
LINE
  5
260
100
AcDbEntity
  8
03__ASM_ALL_CURVES
100
AcDbLine
 62
40
  6
CONTINUOUS
 10
4.5922861274
 20
5.1964347873
 11
4.6026078311
 21
5.2033159215
  0
LINE
  5
261
100
AcDbEntity
  8
0
100
AcDbLine
 62
7
  6
CONTINUOUS
 10
4.19782872
 20
3.74840884
 11
4.14782872
 21
3.79840884
  0
LINE
  5
262
100
AcDbEntity
  8
03__ASM_ALL_CURVES
100
AcDbLine
 62
40
  6
CONTINUOUS
 10
4.4374605719
 20
5.2033159215
 11
4.4374605719
 21
5.1207422919
  0
LINE
  5
263
100
AcDbEntity
  8
03__ASM_ALL_CURVES
100
AcDbLine
 62
40
  6
CONTINUOUS
 10
4.5148733497
 20
5.1207422919
 11
4.5148733497
 21
5.1276234279
  0
LINE
  5
264
100
AcDbEntity
  8
03__ASM_ALL_CURVES
100
AcDbLine
 62
40
  6
CONTINUOUS
 10
4.6232512385
 20
5.1482668359
 11
4.6180903867
 21
5.1345045639
  0
LINE
  5
265
100
AcDbEntity
  8
03__ASM_ALL_CURVES
100
AcDbLine
 62
40
  6
CONTINUOUS
 10
4.6645380534
 20
5.1757913799
 11
4.6696989052
 21
5.1895536482
  0
LINE
  5
266
100
AcDbEntity
  8
03__ASM_ALL_CURVES
100
AcDbLine
 62
40
  6
CONTINUOUS
 10
4.6645380534
 20
5.1482668359
 11
4.6696989052
 21
5.1620291067
  0
LINE
  5
267
100
AcDbEntity
  8
03__ASM_ALL_CURVES
100
AcDbLine
 62
40
  6
CONTINUOUS
 10
4.7058248682
 20
5.1482668359
 11
4.7006640163
 21
5.1345045639
  0
LINE
  5
268
100
AcDbEntity
  8
03__ASM_ALL_CURVES
100
AcDbLine
 62
40
  6
CONTINUOUS
 10
4.8658112756
 20
5.2033159215
 11
4.8296853126
 21
5.1413856993
  0
LINE
  5
269
100
AcDbEntity
  8
03__ASM_ALL_CURVES
100
AcDbLine
 62
40
  6
CONTINUOUS
 10
4.7006640163
 20
5.1345045639
 11
4.6955031645
 21
5.1276234279
  0
LINE
  5
26A
100
AcDbEntity
  8
03__ASM_ALL_CURVES
100
AcDbLine
 62
40
  6
CONTINUOUS
 10
4.7729159422
 20
5.2033159215
 11
4.7625942385
 21
5.1895536482
  0
LINE
  5
26B
100
AcDbEntity
  8
0
100
AcDbLine
 62
7
  6
CONTINUOUS
 10
3.89682872
 20
4.30640884
 11
3.86582872
 21
4.27540884
  0
LINE
  5
26C
100
AcDbEntity
  8
0
100
AcDbLine
 62
7
  6
CONTINUOUS
 10
4.19782872
 20
4.49540884
 11
4.14782872
 21
4.44540884
  0
LINE
  5
26D
100
AcDbEntity
  8
03__ASM_ALL_CURVES
100
AcDbLine
 62
40
  6
CONTINUOUS
 10
4.6748597571
 20
5.1964347873
 11
4.6851814608
 21
5.2033159215
  0
LINE
  5
26E
100
AcDbEntity
  8
03__ASM_ALL_CURVES
100
AcDbLine
 62
40
  6
CONTINUOUS
 10
4.6129295348
 20
5.1276234279
 11
4.6026078311
 21
5.1207422919
  0
LINE
  5
26F
100
AcDbEntity
  8
03__ASM_ALL_CURVES
100
AcDbLine
 62
40
  6
CONTINUOUS
 10
4.6955031645
 20
5.1276234279
 11
4.6851814608
 21
5.1207422919
  0
LINE
  5
270
100
AcDbEntity
  8
03__ASM_ALL_CURVES
100
AcDbLine
 62
40
  6
CONTINUOUS
 10
4.6180903867
 20
5.1620291067
 11
4.6026078311
 21
5.15514797
  0
LINE
  5
271
100
AcDbEntity
  8
0
100
AcDbLine
 62
7
  6
CONTINUOUS
 10
4.6818923859
 20
3.63290884
 11
4.64782872
 21
3.69190884
  0
LINE
  5
272
100
AcDbEntity
  8
03__ASM_ALL_CURVES
100
AcDbLine
 62
40
  6
CONTINUOUS
 10
4.6232512385
 20
5.1757913799
 11
4.6232512385
 21
5.1482668359
  0
LINE
  5
273
100
AcDbEntity
  8
0
100
AcDbLine
 62
7
  6
CONTINUOUS
 10
4.64782872
 20
3.69190884
 11
4.64782872
 21
4.55190884
  0
LINE
  5
274
100
AcDbEntity
  8
03__ASM_ALL_CURVES
100
AcDbLine
 62
40
  6
CONTINUOUS
 10
4.6645380534
 20
5.1482668359
 11
4.6645380534
 21
5.1757913799
  0
LINE
  5
275
100
AcDbEntity
  8
03__ASM_ALL_CURVES
100
AcDbLine
 62
40
  6
CONTINUOUS
 10
4.7625942385
 20
5.1895536482
 11
4.7574333867
 21
5.1689102408
  0
LINE
  5
276
100
AcDbEntity
  8
03__ASM_ALL_CURVES
100
AcDbLine
 62
40
  6
CONTINUOUS
 10
4.9122589422
 20
5.1757913799
 11
4.9174197941
 21
5.1895536482
  0
LINE
  5
277
100
AcDbEntity
  8
0
100
AcDbLine
 62
7
  6
CONTINUOUS
 10
4.6815037451
 20
4.6102356944
 11
4.64782872
 21
4.55190884
  0
LINE
  5
278
100
AcDbEntity
  8
03__ASM_ALL_CURVES
100
AcDbLine
 62
40
  6
CONTINUOUS
 10
4.9174197941
 20
5.1895536482
 11
4.9225806459
 21
5.1964347873
  0
LINE
  5
279
100
AcDbEntity
  8
03__ASM_ALL_CURVES
100
AcDbLine
 62
40
  6
CONTINUOUS
 10
4.9483849052
 20
5.1345045639
 11
4.9432240533
 21
5.1276234279
  0
LINE
  5
27A
100
AcDbEntity
  8
03__ASM_ALL_CURVES
100
AcDbLine
 62
40
  6
CONTINUOUS
 10
4.9225806459
 20
5.1964347873
 11
4.9329023496
 21
5.2033159215
  0
LINE
  5
27B
100
AcDbEntity
  8
03__ASM_ALL_CURVES
100
AcDbLine
 62
40
  6
CONTINUOUS
 10
4.9432240533
 20
5.1276234279
 11
4.9329023496
 21
5.1207422919
  0
LINE
  5
27C
100
AcDbEntity
  8
03__ASM_ALL_CURVES
100
AcDbLine
 62
40
  6
CONTINUOUS
 10
4.6696989052
 20
5.1620291067
 11
4.6851814608
 21
5.1689102408
  0
LINE
  5
27D
100
AcDbEntity
  8
03__ASM_ALL_CURVES
100
AcDbLine
 62
40
  6
CONTINUOUS
 10
4.9483849052
 20
5.1620291067
 11
4.9329023496
 21
5.15514797
  0
LINE
  5
27E
100
AcDbEntity
  8
0
100
AcDbLine
 62
7
  6
CONTINUOUS
 10
4.6818923859
 20
3.63290884
 11
4.6818923859
 21
3.6338063675
  0
LINE
  5
27F
100
AcDbEntity
  8
0
100
AcDbLine
 62
7
  6
CONTINUOUS
 10
4.6818923859
 20
3.8522113125
 11
4.6818923859
 21
3.903503895
  0
LINE
  5
280
100
AcDbEntity
  8
0
100
AcDbLine
 62
7
  6
CONTINUOUS
 10
4.6818923859
 20
4.340313785
 11
4.6818923859
 21
4.3916063675
  0
LINE
  5
281
100
AcDbEntity
  8
0
100
AcDbLine
 62
7
  6
CONTINUOUS
 10
4.6818923859
 20
4.6100113125
 11
4.6818923859
 21
4.61090884
  0
LINE
  5
282
100
AcDbEntity
  8
03__ASM_ALL_CURVES
100
AcDbLine
 62
40
  6
CONTINUOUS
 10
4.7574333867
 20
5.1689102408
 11
4.7574333867
 21
5.15514797
  0
LINE
  5
283
100
AcDbEntity
  8
03__ASM_ALL_CURVES
100
AcDbLine
 62
40
  6
CONTINUOUS
 10
4.953545757
 20
5.1757913799
 11
4.9483849052
 21
5.1620291067
  0
LINE
  5
284
100
AcDbEntity
  8
03__ASM_ALL_CURVES
100
AcDbLine
 62
40
  6
CONTINUOUS
 10
4.953545757
 20
5.1482668359
 11
4.9483849052
 21
5.1345045639
  0
LINE
  5
285
100
AcDbEntity
  8
03__ASM_ALL_CURVES
100
AcDbLine
 62
40
  6
CONTINUOUS
 10
5.1599798311
 20
5.1895536482
 11
5.1651406829
 21
5.1964347873
  0
LINE
  5
286
100
AcDbEntity
  8
03__ASM_ALL_CURVES
100
AcDbLine
 62
40
  6
CONTINUOUS
 10
5.1548189792
 20
5.1482668359
 11
5.1651406829
 21
5.1620291067
  0
LINE
  5
287
100
AcDbEntity
  8
03__ASM_ALL_CURVES
100
AcDbLine
 62
40
  6
CONTINUOUS
 10
5.2012666459
 20
5.1826725141
 11
5.196105794
 21
5.1757913799
  0
LINE
  5
288
100
AcDbEntity
  8
03__ASM_ALL_CURVES
100
AcDbLine
 62
40
  6
CONTINUOUS
 10
5.2064274977
 20
5.1413856993
 11
5.196105794
 21
5.1276234279
  0
LINE
  5
289
100
AcDbEntity
  8
03__ASM_ALL_CURVES
100
AcDbLine
 62
40
  6
CONTINUOUS
 10
5.1651406829
 20
5.1964347873
 11
5.1754623866
 21
5.2033159215
  0
LINE
  5
28A
100
AcDbEntity
  8
03__ASM_ALL_CURVES
100
AcDbLine
 62
40
  6
CONTINUOUS
 10
5.1651406829
 20
5.1620291067
 11
5.1754623866
 21
5.1689102408
  0
LINE
  5
28B
100
AcDbEntity
  8
03__ASM_ALL_CURVES
100
AcDbLine
 62
40
  6
CONTINUOUS
 10
5.196105794
 20
5.1757913799
 11
5.1857840903
 21
5.1689102408
  0
LINE
  5
28C
100
AcDbEntity
  8
03__ASM_ALL_CURVES
100
AcDbLine
 62
40
  6
CONTINUOUS
 10
5.196105794
 20
5.1276234279
 11
5.1857840903
 21
5.1207422919
  0
LINE
  5
28D
100
AcDbEntity
  8
03__ASM_ALL_CURVES
100
AcDbLine
 62
40
  6
CONTINUOUS
 10
4.8658112756
 20
5.1207422919
 11
4.8658112756
 21
5.2033159215
  0
LINE
  5
28E
100
AcDbEntity
  8
03__ASM_ALL_CURVES
100
AcDbLine
 62
40
  6
CONTINUOUS
 10
4.953545757
 20
5.1757913799
 11
4.953545757
 21
5.1482668359
  0
LINE
  5
28F
100
AcDbEntity
  8
03__ASM_ALL_CURVES
100
AcDbLine
 62
40
  6
CONTINUOUS
 10
5.1032104607
 20
5.15514797
 11
5.1083713126
 21
5.1757913799
  0
LINE
  5
290
100
AcDbEntity
  8
03__ASM_ALL_CURVES
100
AcDbLine
 62
40
  6
CONTINUOUS
 10
5.1083713126
 20
5.1757913799
 11
5.1186930163
 21
5.2033159215
  0
LINE
  5
291
100
AcDbEntity
  8
03__ASM_ALL_CURVES
100
AcDbLine
 62
40
  6
CONTINUOUS
 10
5.26835772
 20
5.1345045639
 11
5.2580360163
 21
5.1207422919
  0
LINE
  5
292
100
AcDbEntity
  8
03__ASM_ALL_CURVES
100
AcDbLine
 62
40
  6
CONTINUOUS
 10
6.8951419156
 20
3.3710189437
 11
6.8641768045
 21
3.3710189437
  0
LINE
  5
293
100
AcDbEntity
  8
03__ASM_ALL_CURVES
100
AcDbLine
 62
40
  6
CONTINUOUS
 10
6.6977393323
 20
3.3710189437
 11
6.6899980545
 21
3.3710189437
  0
LINE
  5
294
100
AcDbEntity
  8
03__ASM_ALL_CURVES
100
AcDbLine
 62
40
  6
CONTINUOUS
 10
6.6358091101
 20
3.3710189437
 11
6.6280678323
 21
3.3710189437
  0
LINE
  5
295
100
AcDbEntity
  8
03__ASM_ALL_CURVES
100
AcDbLine
 62
40
  6
CONTINUOUS
 10
5.6286942662
 20
3.3710189437
 11
5.6209529884
 21
3.3710189437
  0
LINE
  5
296
100
AcDbEntity
  8
03__ASM_ALL_CURVES
100
AcDbLine
 62
40
  6
CONTINUOUS
 10
5.5474108495
 20
3.3710189437
 11
5.5783759606
 21
3.3710189437
  0
LINE
  5
297
100
AcDbEntity
  8
03__ASM_ALL_CURVES
100
AcDbLine
 62
40
  6
CONTINUOUS
 10
6.8022465823
 20
3.3710189437
 11
6.8332116934
 21
3.3710189437
  0
LINE
  5
298
100
AcDbEntity
  8
03__ASM_ALL_CURVES
100
AcDbLine
 62
40
  6
CONTINUOUS
 10
5.4429035995
 20
3.4019840548
 11
5.4235504051
 21
3.4019840548
  0
LINE
  5
299
100
AcDbEntity
  8
03__ASM_ALL_CURVES
100
AcDbLine
 62
40
  6
CONTINUOUS
 10
6.8641768045
 20
3.4019840548
 11
6.883529999
 21
3.4019840548
  0
LINE
  5
29A
100
AcDbEntity
  8
03__ASM_ALL_CURVES
100
AcDbLine
 62
40
  6
CONTINUOUS
 10
5.4235504051
 20
3.4329491659
 11
5.4429035995
 21
3.4329491659
  0
LINE
  5
29B
100
AcDbEntity
  8
03__ASM_ALL_CURVES
100
AcDbLine
 62
40
  6
CONTINUOUS
 10
5.6209529884
 20
3.4329491659
 11
5.6286942662
 21
3.4329491659
  0
LINE
  5
29C
100
AcDbEntity
  8
03__ASM_ALL_CURVES
100
AcDbLine
 62
40
  6
CONTINUOUS
 10
5.6674006551
 20
3.4329491659
 11
5.7061070439
 21
3.4329491659
  0
LINE
  5
29D
100
AcDbEntity
  8
03__ASM_ALL_CURVES
100
AcDbLine
 62
40
  6
CONTINUOUS
 10
6.6280678323
 20
3.4329491659
 11
6.6358091101
 21
3.4329491659
  0
LINE
  5
29E
100
AcDbEntity
  8
03__ASM_ALL_CURVES
100
AcDbLine
 62
40
  6
CONTINUOUS
 10
6.7364457212
 20
3.4329491659
 11
6.7751521101
 21
3.4329491659
  0
LINE
  5
29F
100
AcDbEntity
  8
03__ASM_ALL_CURVES
100
AcDbLine
 62
40
  6
CONTINUOUS
 10
6.8641768045
 20
3.4329491659
 11
6.8951419156
 21
3.4329491659
  0
LINE
  5
2A0
100
AcDbEntity
  8
03__ASM_ALL_CURVES
100
AcDbLine
 62
40
  6
CONTINUOUS
 10
6.9222363878
 20
3.4329491659
 11
6.9609427767
 21
3.4329491659
  0
LINE
  5
2A1
100
AcDbEntity
  8
03__ASM_ALL_CURVES
100
AcDbLine
 62
40
  6
CONTINUOUS
 10
5.4429035995
 20
3.4329491659
 11
5.4506448773
 21
3.4277883153
  0
LINE
  5
2A2
100
AcDbEntity
  8
03__ASM_ALL_CURVES
100
AcDbLine
 62
40
  6
CONTINUOUS
 10
5.6209529884
 20
3.3710189437
 11
5.6132117106
 21
3.3761797957
  0
LINE
  5
2A3
100
AcDbEntity
  8
03__ASM_ALL_CURVES
100
AcDbLine
 62
40
  6
CONTINUOUS
 10
5.497092544
 20
3.4659786178
 11
5.4893512662
 21
3.4711394698
  0
LINE
  5
2A4
100
AcDbEntity
  8
03__ASM_ALL_CURVES
100
AcDbLine
 62
40
  6
CONTINUOUS
 10
5.0103151274
 20
5.1207422919
 11
5.0103151274
 21
5.1276234279
  0
LINE
  5
2A5
100
AcDbEntity
  8
0
100
AcDbLine
 62
7
  6
CONTINUOUS
 10
5.05532872
 20
3.63290884
 11
5.05532872
 21
3.6338063675
  0
LINE
  5
2A6
100
AcDbEntity
  8
0
100
AcDbLine
 62
7
  6
CONTINUOUS
 10
5.05532872
 20
3.8522113125
 11
5.05532872
 21
3.903503895
  0
LINE
  5
2A7
100
AcDbEntity
  8
0
100
AcDbLine
 62
7
  6
CONTINUOUS
 10
5.05532872
 20
4.340313785
 11
5.05532872
 21
4.3916063675
  0
LINE
  5
2A8
100
AcDbEntity
  8
0
100
AcDbLine
 62
7
  6
CONTINUOUS
 10
5.05532872
 20
4.6100113125
 11
5.05532872
 21
4.61090884
  0
LINE
  5
2A9
100
AcDbEntity
  8
03__ASM_ALL_CURVES
100
AcDbLine
 62
40
  6
CONTINUOUS
 10
5.0980496089
 20
5.1207422919
 11
5.1032104607
 21
5.15514797
  0
LINE
  5
2AA
100
AcDbEntity
  8
03__ASM_ALL_CURVES
100
AcDbLine
 62
40
  6
CONTINUOUS
 10
5.2735185718
 20
5.15514797
 11
5.26835772
 21
5.1345045639
  0
LINE
  5
2AB
100
AcDbEntity
  8
03__ASM_ALL_CURVES
100
AcDbLine
 62
40
  6
CONTINUOUS
 10
6.7267691436
 20
3.4659786178
 11
6.7190278658
 21
3.4659786178
  0
LINE
  5
2AC
100
AcDbEntity
  8
03__ASM_ALL_CURVES
100
AcDbLine
 62
40
  6
CONTINUOUS
 10
5.6906244884
 20
3.4659786178
 11
5.6828832106
 21
3.4659786178
  0
LINE
  5
2AD
100
AcDbEntity
  8
03__ASM_ALL_CURVES
100
AcDbLine
 62
40
  6
CONTINUOUS
 10
5.5048338217
 20
3.4659786178
 11
5.497092544
 21
3.4659786178
  0
LINE
  5
2AE
100
AcDbEntity
  8
03__ASM_ALL_CURVES
100
AcDbLine
 62
40
  6
CONTINUOUS
 10
6.8932066158
 20
3.4659786178
 11
6.9241717269
 21
3.4659786178
  0
LINE
  5
2AF
100
AcDbEntity
  8
03__ASM_ALL_CURVES
100
AcDbLine
 62
40
  6
CONTINUOUS
 10
6.7886993658
 20
3.4969437289
 11
6.7693461713
 21
3.4969437289
  0
LINE
  5
2B0
100
AcDbEntity
  8
03__ASM_ALL_CURVES
100
AcDbLine
 62
40
  6
CONTINUOUS
 10
6.6648389214
 20
3.4969437289
 11
6.6454857269
 21
3.4969437289
  0
LINE
  5
2B1
100
AcDbEntity
  8
03__ASM_ALL_CURVES
100
AcDbLine
 62
40
  6
CONTINUOUS
 10
5.566764044
 20
3.4969437289
 11
5.5474108495
 21
3.4969437289
  0
LINE
  5
2B2
100
AcDbEntity
  8
03__ASM_ALL_CURVES
100
AcDbLine
 62
40
  6
CONTINUOUS
 10
5.4429035995
 20
3.4969437289
 11
5.4235504051
 21
3.4969437289
  0
LINE
  5
2B3
100
AcDbEntity
  8
03__ASM_ALL_CURVES
100
AcDbLine
 62
40
  6
CONTINUOUS
 10
5.6828832106
 20
3.5021045795
 11
5.6906244884
 21
3.5021045795
  0
LINE
  5
2B4
100
AcDbEntity
  8
03__ASM_ALL_CURVES
100
AcDbLine
 62
40
  6
CONTINUOUS
 10
5.4235504051
 20
3.52790884
 11
5.4429035995
 21
3.52790884
  0
LINE
  5
2B5
100
AcDbEntity
  8
03__ASM_ALL_CURVES
100
AcDbLine
 62
40
  6
CONTINUOUS
 10
5.497092544
 20
3.52790884
 11
5.5048338217
 21
3.52790884
  0
LINE
  5
2B6
100
AcDbEntity
  8
03__ASM_ALL_CURVES
100
AcDbLine
 62
40
  6
CONTINUOUS
 10
5.5474108495
 20
3.52790884
 11
5.566764044
 21
3.52790884
  0
LINE
  5
2B7
100
AcDbEntity
  8
03__ASM_ALL_CURVES
100
AcDbLine
 62
40
  6
CONTINUOUS
 10
5.6054704328
 20
3.52790884
 11
5.6441768217
 21
3.52790884
  0
LINE
  5
2B8
100
AcDbEntity
  8
03__ASM_ALL_CURVES
100
AcDbLine
 62
40
  6
CONTINUOUS
 10
5.6828832106
 20
3.52790884
 11
5.6906244884
 21
3.52790884
  0
LINE
  5
2B9
100
AcDbEntity
  8
03__ASM_ALL_CURVES
100
AcDbLine
 62
40
  6
CONTINUOUS
 10
6.6454857269
 20
3.52790884
 11
6.6648389214
 21
3.52790884
  0
LINE
  5
2BA
100
AcDbEntity
  8
03__ASM_ALL_CURVES
100
AcDbLine
 62
40
  6
CONTINUOUS
 10
6.7190278658
 20
3.52790884
 11
6.7267691436
 21
3.52790884
  0
LINE
  5
2BB
100
AcDbEntity
  8
03__ASM_ALL_CURVES
100
AcDbLine
 62
40
  6
CONTINUOUS
 10
6.7693461713
 20
3.52790884
 11
6.7886993658
 21
3.52790884
  0
LINE
  5
2BC
100
AcDbEntity
  8
03__ASM_ALL_CURVES
100
AcDbLine
 62
40
  6
CONTINUOUS
 10
6.8274057547
 20
3.52790884
 11
6.8661121436
 21
3.52790884
  0
LINE
  5
2BD
100
AcDbEntity
  8
03__ASM_ALL_CURVES
100
AcDbLine
 62
40
  6
CONTINUOUS
 10
6.9048185324
 20
3.52790884
 11
6.9125598102
 21
3.52790884
  0
LINE
  5
2BE
100
AcDbEntity
  8
03__ASM_ALL_CURVES
100
AcDbLine
 62
40
  6
CONTINUOUS
 10
5.4429035995
 20
3.52790884
 11
5.4506448773
 21
3.5227479894
  0
LINE
  5
2BF
100
AcDbEntity
  8
03__ASM_ALL_CURVES
100
AcDbLine
 62
40
  6
CONTINUOUS
 10
5.6286942662
 20
3.4329491659
 11
5.6364355439
 21
3.4277883153
  0
LINE
  5
2C0
100
AcDbEntity
  8
03__ASM_ALL_CURVES
100
AcDbLine
 62
40
  6
CONTINUOUS
 10
5.5048338217
 20
3.52790884
 11
5.5125750995
 21
3.5227479894
  0
LINE
  5
2C1
100
AcDbEntity
  8
03__ASM_ALL_CURVES
100
AcDbLine
 62
40
  6
CONTINUOUS
 10
5.566764044
 20
3.52790884
 11
5.5745053217
 21
3.5227479894
  0
LINE
  5
2C2
100
AcDbEntity
  8
03__ASM_ALL_CURVES
100
AcDbLine
 62
40
  6
CONTINUOUS
 10
5.6828832106
 20
3.4659786178
 11
5.6751419328
 21
3.4711394698
  0
LINE
  5
2C3
100
AcDbEntity
  8
03__ASM_ALL_CURVES
100
AcDbLine
 62
40
  6
CONTINUOUS
 10
5.6906244884
 20
3.5021045795
 11
5.6983657662
 21
3.4969437289
  0
LINE
  5
2C4
100
AcDbEntity
  8
03__ASM_ALL_CURVES
100
AcDbLine
 62
40
  6
CONTINUOUS
 10
5.4506448773
 20
3.4277883153
 11
5.4545155162
 21
3.422627461
  0
LINE
  5
2C5
100
AcDbEntity
  8
03__ASM_ALL_CURVES
100
AcDbLine
 62
40
  6
CONTINUOUS
 10
5.4893512662
 20
3.4711394698
 11
5.4816099884
 21
3.4814611733
  0
LINE
  5
2C6
100
AcDbEntity
  8
03__ASM_ALL_CURVES
100
AcDbLine
 62
40
  6
CONTINUOUS
 10
5.4506448773
 20
3.5227479894
 11
5.4545155162
 21
3.5175871351
  0
LINE
  5
2C7
100
AcDbEntity
  8
03__ASM_ALL_CURVES
100
AcDbLine
 62
40
  6
CONTINUOUS
 10
5.6132117106
 20
3.3761797957
 11
5.6054704328
 21
3.3865014993
  0
LINE
  5
2C8
100
AcDbEntity
  8
03__ASM_ALL_CURVES
100
AcDbLine
 62
40
  6
CONTINUOUS
 10
4.5871252756
 20
5.1620291067
 11
4.5819644237
 21
5.1757913799
  0
LINE
  5
2C9
100
AcDbEntity
  8
03__ASM_ALL_CURVES
100
AcDbLine
 62
40
  6
CONTINUOUS
 10
4.6180903867
 20
5.1895536482
 11
4.6232512385
 21
5.1757913799
  0
LINE
  5
2CA
100
AcDbEntity
  8
03__ASM_ALL_CURVES
100
AcDbLine
 62
40
  6
CONTINUOUS
 10
4.6696989052
 20
5.1345045639
 11
4.6645380534
 21
5.1482668359
  0
LINE
  5
2CB
100
AcDbEntity
  8
03__ASM_ALL_CURVES
100
AcDbLine
 62
40
  6
CONTINUOUS
 10
4.7006640163
 20
5.1620291067
 11
4.7058248682
 21
5.1482668359
  0
LINE
  5
2CC
100
AcDbEntity
  8
03__ASM_ALL_CURVES
100
AcDbLine
 62
40
  6
CONTINUOUS
 10
4.7574333867
 20
5.15514797
 11
4.7625942385
 21
5.1345045639
  0
LINE
  5
2CD
100
AcDbEntity
  8
0
100
AcDbLine
 62
7
  6
CONTINUOUS
 10
5.11582872
 20
3.69340884
 11
5.11582872
 21
4.55040884
  0
LINE
  5
2CE
100
AcDbEntity
  8
03__ASM_ALL_CURVES
100
AcDbLine
 62
40
  6
CONTINUOUS
 10
5.1548189792
 20
5.1413856993
 11
5.1548189792
 21
5.1482668359
  0
LINE
  5
2CF
100
AcDbEntity
  8
03__ASM_ALL_CURVES
100
AcDbLine
 62
40
  6
CONTINUOUS
 10
5.1599798311
 20
5.1826725141
 11
5.1599798311
 21
5.1895536482
  0
LINE
  5
2D0
100
AcDbEntity
  8
03__ASM_ALL_CURVES
100
AcDbLine
 62
40
  6
CONTINUOUS
 10
5.2012666459
 20
5.1895536482
 11
5.2012666459
 21
5.1826725141
  0
LINE
  5
2D1
100
AcDbEntity
  8
03__ASM_ALL_CURVES
100
AcDbLine
 62
40
  6
CONTINUOUS
 10
5.2064274977
 20
5.1482668359
 11
5.2064274977
 21
5.1413856993
  0
LINE
  5
2D2
100
AcDbEntity
  8
0
100
AcDbLine
 62
7
  6
CONTINUOUS
 10
5.24082872
 20
3.69340884
 11
5.24082872
 21
4.55040884
  0
LINE
  5
2D3
100
AcDbEntity
  8
03__ASM_ALL_CURVES
100
AcDbLine
 62
40
  6
CONTINUOUS
 10
6.0546810088
 20
5.1964347873
 11
6.0650027125
 21
5.2033159215
  0
LINE
  5
2D4
100
AcDbEntity
  8
03__ASM_ALL_CURVES
100
AcDbLine
 62
40
  6
CONTINUOUS
 10
6.1372546384
 20
5.1964347873
 11
6.1475763421
 21
5.2033159215
  0
LINE
  5
2D5
100
AcDbEntity
  8
0
100
AcDbLine
 62
7
  6
CONTINUOUS
 10
5.05532872
 20
3.63290884
 11
4.6818923859
 21
3.63290884
  0
LINE
  5
2D6
100
AcDbEntity
  8
0
100
AcDbLine
 62
7
  6
CONTINUOUS
 10
5.05532872
 20
3.6338063675
 11
4.6818923859
 21
3.6338063675
  0
LINE
  5
2D7
100
AcDbEntity
  8
0
100
AcDbLine
 62
7
  6
CONTINUOUS
 10
5.43132872
 20
3.69340884
 11
5.38182872
 21
3.69340884
  0
LINE
  5
2D8
100
AcDbEntity
  8
0
100
AcDbLine
 62
7
  6
CONTINUOUS
 10
5.24082872
 20
3.69340884
 11
5.11582872
 21
3.69340884
  0
LINE
  5
2D9
100
AcDbEntity
  8
0
100
AcDbLine
 62
7
  6
CONTINUOUS
 10
5.24082872
 20
3.69390884
 11
5.29082872
 21
3.69390884
  0
LINE
  5
2DA
100
AcDbEntity
  8
0
100
AcDbLine
 62
7
  6
CONTINUOUS
 10
5.83182872
 20
3.69440884
 11
5.77982872
 21
3.69440884
  0
LINE
  5
2DB
100
AcDbEntity
  8
THREAD
100
AcDbLine
 62
7
  6
CONTINUOUS
 10
5.88182872
 20
3.71690884
 11
5.8595511519
 21
3.71690884
  0
LINE
  5
2DC
100
AcDbEntity
  8
0
100
AcDbLine
 62
7
  6
CONTINUOUS
 10
5.95182872
 20
3.71740884
 11
6.00182872
 21
3.71740884
  0
LINE
  5
2DD
100
AcDbEntity
  8
0
100
AcDbLine
 62
7
  6
CONTINUOUS
 10
5.7720581934
 20
3.72340884
 11
5.4393671958
 21
3.72340884
  0
LINE
  5
2DE
100
AcDbEntity
  8
THREAD
100
AcDbLine
 62
7
  6
CONTINUOUS
 10
6.29032872
 20
3.73440884
 11
6.04319068
 21
3.73440884
  0
LINE
  5
2DF
100
AcDbEntity
  8
03__ASM_ALL_CURVES
100
AcDbLine
 62
40
  6
CONTINUOUS
 10
5.6906244884
 20
3.52790884
 11
5.6983657662
 21
3.5227479894
  0
LINE
  5
2E0
100
AcDbEntity
  8
03__ASM_ALL_CURVES
100
AcDbLine
 62
40
  6
CONTINUOUS
 10
5.5125750995
 20
3.5227479894
 11
5.5203163773
 21
3.5124262844
  0
LINE
  5
2E1
100
AcDbEntity
  8
03__ASM_ALL_CURVES
100
AcDbLine
 62
40
  6
CONTINUOUS
 10
5.6364355439
 20
3.4277883153
 11
5.6441768217
 21
3.4174666104
  0
LINE
  5
2E2
100
AcDbEntity
  8
03__ASM_ALL_CURVES
100
AcDbLine
 62
40
  6
CONTINUOUS
 10
5.5745053217
 20
3.5227479894
 11
5.5783759606
 21
3.5175871351
  0
LINE
  5
2E3
100
AcDbEntity
  8
03__ASM_ALL_CURVES
100
AcDbLine
 62
40
  6
CONTINUOUS
 10
5.6751419328
 20
3.4711394698
 11
5.6712712939
 21
3.4763003218
  0
LINE
  5
2E4
100
AcDbEntity
  8
03__ASM_ALL_CURVES
100
AcDbLine
 62
40
  6
CONTINUOUS
 10
5.6983657662
 20
3.4969437289
 11
5.7061070439
 21
3.4866220258
  0
LINE
  5
2E5
100
AcDbEntity
  8
03__ASM_ALL_CURVES
100
AcDbLine
 62
40
  6
CONTINUOUS
 10
5.2735185718
 20
5.1689102408
 11
5.2735185718
 21
5.15514797
  0
LINE
  5
2E6
100
AcDbEntity
  8
0
100
AcDbLine
 62
7
  6
CONTINUOUS
 10
5.29082872
 20
3.6939094907
 11
5.29082872
 21
4.5499081893
  0
LINE
  5
2E7
100
AcDbEntity
  8
0
100
AcDbLine
 62
7
  6
CONTINUOUS
 10
5.36082872
 20
4.53090884
 11
5.36082872
 21
3.71290884
  0
LINE
  5
2E8
100
AcDbEntity
  8
0
100
AcDbLine
 62
7
  6
CONTINUOUS
 10
5.36882872
 20
3.74790884
 11
5.36882872
 21
4.49590884
  0
LINE
  5
2E9
100
AcDbEntity
  8
0
100
AcDbLine
 62
7
  6
CONTINUOUS
 10
5.38182872
 20
3.69340884
 11
5.38182872
 21
4.55040884
  0
LINE
  5
2EA
100
AcDbEntity
  8
03__ASM_ALL_CURVES
100
AcDbLine
 62
40
  6
CONTINUOUS
 10
6.0856461199
 20
5.1276234279
 11
6.0753244162
 21
5.1207422919
  0
LINE
  5
2EB
100
AcDbEntity
  8
03__ASM_ALL_CURVES
100
AcDbLine
 62
40
  6
CONTINUOUS
 10
6.1682197495
 20
5.1276234279
 11
6.1578980458
 21
5.1207422919
  0
LINE
  5
2EC
100
AcDbEntity
  8
0
100
AcDbLine
 62
7
  6
CONTINUOUS
 10
5.36882872
 20
3.74790884
 11
5.36082872
 21
3.74790884
  0
LINE
  5
2ED
100
AcDbEntity
  8
0
100
AcDbLine
 62
7
  6
CONTINUOUS
 10
4.64782872
 20
3.74840884
 11
4.29682872
 21
3.74840884
  0
LINE
  5
2EE
100
AcDbEntity
  8
0
100
AcDbLine
 62
7
  6
CONTINUOUS
 10
4.24882872
 20
3.74840884
 11
4.19782872
 21
3.74840884
  0
LINE
  5
2EF
100
AcDbEntity
  8
THREAD
100
AcDbLine
 62
7
  6
CONTINUOUS
 10
6.0143231665
 20
3.77140884
 11
6.00182872
 21
3.77140884
  0
LINE
  5
2F0
100
AcDbEntity
  8
0
100
AcDbLine
 62
7
  6
CONTINUOUS
 10
4.28382872
 20
3.77190884
 11
4.26182872
 21
3.77190884
  0
LINE
  5
2F1
100
AcDbEntity
  8
THREAD
100
AcDbLine
 62
7
  6
CONTINUOUS
 10
6.51282872
 20
3.77890884
 11
6.33482872
 21
3.77890884
  0
LINE
  5
2F2
100
AcDbEntity
  8
0
100
AcDbLine
 62
7
  6
CONTINUOUS
 10
7.19282872
 20
3.77940884
 11
7.14182872
 21
3.77940884
  0
LINE
  5
2F3
100
AcDbEntity
  8
0
100
AcDbLine
 62
7
  6
CONTINUOUS
 10
7.00082872
 20
3.77940884
 11
6.92782872
 21
3.77940884
  0
LINE
  5
2F4
100
AcDbEntity
  8
0
100
AcDbLine
 62
7
  6
CONTINUOUS
 10
7.00082872
 20
3.77990884
 11
7.05082872
 21
3.77990884
  0
LINE
  5
2F5
100
AcDbEntity
  8
0
100
AcDbLine
 62
7
  6
CONTINUOUS
 10
7.12082872
 20
3.83390884
 11
7.14182872
 21
3.83390884
  0
LINE
  5
2F6
100
AcDbEntity
  8
0
100
AcDbLine
 62
7
  6
CONTINUOUS
 10
4.1478260391
 20
3.8408835965
 11
3.9302892529
 21
3.8408835965
  0
LINE
  5
2F7
100
AcDbEntity
  8
0
100
AcDbLine
 62
7
  6
CONTINUOUS
 10
6.67582872
 20
3.84140884
 11
6.87032872
 21
3.84140884
  0
LINE
  5
2F8
100
AcDbEntity
  8
0
100
AcDbLine
 62
7
  6
CONTINUOUS
 10
6.88532872
 20
3.84140884
 11
6.92782872
 21
3.84140884
  0
LINE
  5
2F9
100
AcDbEntity
  8
0
100
AcDbLine
 62
7
  6
CONTINUOUS
 10
6.88232872
 20
3.85140884
 11
6.87332872
 21
3.85140884
  0
LINE
  5
2FA
100
AcDbEntity
  8
0
100
AcDbLine
 62
7
  6
CONTINUOUS
 10
5.05532872
 20
3.8522113125
 11
4.6818923859
 21
3.8522113125
  0
LINE
  5
2FB
100
AcDbEntity
  8
03__ASM_ALL_CURVES
100
AcDbLine
 62
40
  6
CONTINUOUS
 10
5.6983657662
 20
3.5227479894
 11
5.7022364051
 21
3.5175871351
  0
LINE
  5
2FC
100
AcDbEntity
  8
03__ASM_ALL_CURVES
100
AcDbLine
 62
40
  6
CONTINUOUS
 10
4.5148733497
 20
5.1276234279
 11
4.5200342015
 21
5.1207422919
  0
LINE
  5
2FD
100
AcDbEntity
  8
03__ASM_ALL_CURVES
100
AcDbLine
 62
40
  6
CONTINUOUS
 10
4.5922861274
 20
5.1276234279
 11
4.5871252756
 21
5.1345045639
  0
LINE
  5
2FE
100
AcDbEntity
  8
03__ASM_ALL_CURVES
100
AcDbLine
 62
40
  6
CONTINUOUS
 10
4.9174197941
 20
5.1620291067
 11
4.9122589422
 21
5.1757913799
  0
LINE
  5
2FF
100
AcDbEntity
  8
03__ASM_ALL_CURVES
100
AcDbLine
 62
40
  6
CONTINUOUS
 10
5.566764044
 20
3.4969437289
 11
5.5783759606
 21
3.4659786178
  0
LINE
  5
300
100
AcDbEntity
  8
03__ASM_ALL_CURVES
100
AcDbLine
 62
40
  6
CONTINUOUS
 10
4.9483849052
 20
5.1895536482
 11
4.953545757
 21
5.1757913799
  0
LINE
  5
301
100
AcDbEntity
  8
03__ASM_ALL_CURVES
100
AcDbLine
 62
40
  6
CONTINUOUS
 10
5.4816099884
 20
3.4814611733
 11
5.4777393495
 21
3.4969437289
  0
LINE
  5
302
100
AcDbEntity
  8
03__ASM_ALL_CURVES
100
AcDbLine
 62
40
  6
CONTINUOUS
 10
5.5203163773
 20
3.5124262844
 11
5.5241870162
 21
3.4969437289
  0
LINE
  5
303
100
AcDbEntity
  8
03__ASM_ALL_CURVES
100
AcDbLine
 62
40
  6
CONTINUOUS
 10
5.4235504051
 20
3.3710189437
 11
5.4235504051
 21
3.4329491659
  0
LINE
  5
304
100
AcDbEntity
  8
03__ASM_ALL_CURVES
100
AcDbLine
 62
40
  6
CONTINUOUS
 10
5.4235504051
 20
3.4659786178
 11
5.4235504051
 21
3.52790884
  0
LINE
  5
305
100
AcDbEntity
  8
0
100
AcDbLine
 62
7
  6
CONTINUOUS
 10
5.43132872
 20
3.69340884
 11
5.43132872
 21
4.55040884
  0
LINE
  5
306
100
AcDbEntity
  8
0
100
AcDbLine
 62
7
  6
CONTINUOUS
 10
5.4393671958
 20
3.72340884
 11
5.4393671958
 21
4.52040884
  0
LINE
  5
307
100
AcDbEntity
  8
03__ASM_ALL_CURVES
100
AcDbLine
 62
40
  6
CONTINUOUS
 10
5.4545155162
 20
3.5175871351
 11
5.4545155162
 21
3.5072654338
  0
LINE
  5
308
100
AcDbEntity
  8
03__ASM_ALL_CURVES
100
AcDbLine
 62
40
  6
CONTINUOUS
 10
5.4545155162
 20
3.422627461
 11
5.4545155162
 21
3.4123057598
  0
LINE
  5
309
100
AcDbEntity
  8
03__ASM_ALL_CURVES
100
AcDbLine
 62
40
  6
CONTINUOUS
 10
5.5009631828
 20
3.4329491659
 11
5.5009631828
 21
3.3710189437
  0
LINE
  5
30A
100
AcDbEntity
  8
03__ASM_ALL_CURVES
100
AcDbLine
 62
40
  6
CONTINUOUS
 10
6.0443593051
 20
5.1826725141
 11
6.0546810088
 21
5.1964347873
  0
LINE
  5
30B
100
AcDbEntity
  8
03__ASM_ALL_CURVES
100
AcDbLine
 62
40
  6
CONTINUOUS
 10
6.0959678236
 20
5.1413856993
 11
6.0856461199
 21
5.1276234279
  0
LINE
  5
30C
100
AcDbEntity
  8
03__ASM_ALL_CURVES
100
AcDbLine
 62
40
  6
CONTINUOUS
 10
6.1269329347
 20
5.1826725141
 11
6.1372546384
 21
5.1964347873
  0
LINE
  5
30D
100
AcDbEntity
  8
03__ASM_ALL_CURVES
100
AcDbLine
 62
40
  6
CONTINUOUS
 10
6.5501227865
 20
5.1964347873
 11
6.5604444902
 21
5.2033159215
  0
LINE
  5
30E
100
AcDbEntity
  8
03__ASM_ALL_CURVES
100
AcDbLine
 62
40
  6
CONTINUOUS
 10
6.5810878976
 20
5.1276234279
 11
6.5707661939
 21
5.1207422919
  0
LINE
  5
30F
100
AcDbEntity
  8
0
100
AcDbLine
 62
7
  6
CONTINUOUS
 10
5.05532872
 20
3.903503895
 11
4.6818923859
 21
3.903503895
  0
LINE
  5
310
100
AcDbEntity
  8
0
100
AcDbLine
 62
7
  6
CONTINUOUS
 10
3.92882872
 20
3.93740884
 11
3.89682872
 21
3.93740884
  0
LINE
  5
311
100
AcDbEntity
  8
03__ASM_ALL_CURVES
100
AcDbLine
 62
40
  6
CONTINUOUS
 10
6.6280678323
 20
3.3710189437
 11
6.6203265545
 21
3.3761797957
  0
LINE
  5
312
100
AcDbEntity
  8
03__ASM_ALL_CURVES
100
AcDbLine
 62
40
  6
CONTINUOUS
 10
6.6899980545
 20
3.3710189437
 11
6.6822567768
 21
3.3761797957
  0
LINE
  5
313
100
AcDbEntity
  8
0
100
AcDbLine
 62
7
  6
CONTINUOUS
 10
5.11582872
 20
4.55040884
 11
5.0557774838
 21
4.6104600763
  0
LINE
  5
314
100
AcDbEntity
  8
03__ASM_ALL_CURVES
100
AcDbLine
 62
40
  6
CONTINUOUS
 10
4.6129295348
 20
5.1964347873
 11
4.6180903867
 21
5.1895536482
  0
LINE
  5
315
100
AcDbEntity
  8
03__ASM_ALL_CURVES
100
AcDbLine
 62
40
  6
CONTINUOUS
 10
4.6748597571
 20
5.1276234279
 11
4.6696989052
 21
5.1345045639
  0
LINE
  5
316
100
AcDbEntity
  8
03__ASM_ALL_CURVES
100
AcDbLine
 62
40
  6
CONTINUOUS
 10
4.6955031645
 20
5.1964347873
 11
4.7006640163
 21
5.1895536482
  0
LINE
  5
317
100
AcDbEntity
  8
03__ASM_ALL_CURVES
100
AcDbLine
 62
40
  6
CONTINUOUS
 10
4.7625942385
 20
5.1345045639
 11
4.7729159422
 21
5.1207422919
  0
LINE
  5
318
100
AcDbEntity
  8
0
100
AcDbLine
 62
7
  6
CONTINUOUS
 10
5.4393671958
 20
4.52040884
 11
5.43132872
 21
4.55040884
  0
LINE
  5
319
100
AcDbEntity
  8
03__ASM_ALL_CURVES
100
AcDbLine
 62
40
  6
CONTINUOUS
 10
5.6054704328
 20
3.3865014993
 11
5.6015997939
 21
3.4019840548
  0
LINE
  5
31A
100
AcDbEntity
  8
03__ASM_ALL_CURVES
100
AcDbLine
 62
40
  6
CONTINUOUS
 10
5.6441768217
 20
3.4174666104
 11
5.6480474606
 21
3.4019840548
  0
LINE
  5
31B
100
AcDbEntity
  8
03__ASM_ALL_CURVES
100
AcDbLine
 62
40
  6
CONTINUOUS
 10
5.26835772
 20
5.1895536482
 11
5.2735185718
 21
5.1689102408
  0
LINE
  5
31C
100
AcDbEntity
  8
03__ASM_ALL_CURVES
100
AcDbLine
 62
40
  6
CONTINUOUS
 10
5.5474108495
 20
3.4329491659
 11
5.5474108495
 21
3.3710189437
  0
LINE
  5
31D
100
AcDbEntity
  8
03__ASM_ALL_CURVES
100
AcDbLine
 62
40
  6
CONTINUOUS
 10
5.5474108495
 20
3.4659786178
 11
5.5474108495
 21
3.52790884
  0
LINE
  5
31E
100
AcDbEntity
  8
03__ASM_ALL_CURVES
100
AcDbLine
 62
40
  6
CONTINUOUS
 10
5.5783759606
 20
3.5175871351
 11
5.5783759606
 21
3.5072654338
  0
LINE
  5
31F
100
AcDbEntity
  8
03__ASM_ALL_CURVES
100
AcDbLine
 62
40
  6
CONTINUOUS
 10
5.6248236273
 20
3.52790884
 11
5.6248236273
 21
3.4659786178
  0
LINE
  5
320
100
AcDbEntity
  8
0
100
AcDbLine
 62
7
  6
CONTINUOUS
 10
5.4393671958
 20
3.72340884
 11
5.43132872
 21
3.69340884
  0
LINE
  5
321
100
AcDbEntity
  8
03__ASM_ALL_CURVES
100
AcDbLine
 62
40
  6
CONTINUOUS
 10
6.1733806014
 20
5.1345045639
 11
6.1682197495
 21
5.1276234279
  0
LINE
  5
322
100
AcDbEntity
  8
03__ASM_ALL_CURVES
100
AcDbLine
 62
40
  6
CONTINUOUS
 10
6.7255917495
 20
5.2033159215
 11
6.7152700458
 21
5.1964347873
  0
LINE
  5
323
100
AcDbEntity
  8
03__ASM_ALL_CURVES
100
AcDbLine
 62
40
  6
CONTINUOUS
 10
6.7462351569
 20
5.1276234279
 11
6.7359134532
 21
5.1207422919
  0
LINE
  5
324
100
AcDbEntity
  8
03__ASM_ALL_CURVES
100
AcDbLine
 62
40
  6
CONTINUOUS
 10
6.880417305
 20
5.1964347873
 11
6.8907390087
 21
5.2033159215
  0
LINE
  5
325
100
AcDbEntity
  8
03__ASM_ALL_CURVES
100
AcDbLine
 62
40
  6
CONTINUOUS
 10
7.671101943
 20
4.0434638919
 11
7.6401368319
 21
4.0434638919
  0
LINE
  5
326
100
AcDbEntity
  8
03__ASM_ALL_CURVES
100
AcDbLine
 62
40
  6
CONTINUOUS
 10
7.5782066097
 20
4.0434638919
 11
7.6091717208
 21
4.0434638919
  0
LINE
  5
327
100
AcDbEntity
  8
03__ASM_ALL_CURVES
100
AcDbLine
 62
40
  6
CONTINUOUS
 10
7.6401368319
 20
4.074429003
 11
7.6594900264
 21
4.074429003
  0
LINE
  5
328
100
AcDbEntity
  8
03__ASM_ALL_CURVES
100
AcDbLine
 62
40
  6
CONTINUOUS
 10
7.6401368319
 20
4.1053941141
 11
7.671101943
 21
4.1053941141
  0
LINE
  5
329
100
AcDbEntity
  8
03__ASM_ALL_CURVES
100
AcDbLine
 62
40
  6
CONTINUOUS
 10
7.6981964152
 20
4.1053941141
 11
7.7369028041
 21
4.1053941141
  0
LINE
  5
32A
100
AcDbEntity
  8
0
100
AcDbLine
 62
7
  6
CONTINUOUS
 10
4.1227139833
 20
4.12190884
 11
3.9553866395
 21
4.12190884
  0
LINE
  5
32B
100
AcDbEntity
  8
03__ASM_ALL_CURVES
100
AcDbLine
 62
40
  6
CONTINUOUS
 10
7.5511121371
 20
4.1384235659
 11
7.5433708593
 21
4.1384235659
  0
LINE
  5
32C
100
AcDbEntity
  8
03__ASM_ALL_CURVES
100
AcDbLine
 62
40
  6
CONTINUOUS
 10
6.6358091101
 20
3.4329491659
 11
6.6435503879
 21
3.4277883153
  0
LINE
  5
32D
100
AcDbEntity
  8
03__ASM_ALL_CURVES
100
AcDbLine
 62
40
  6
CONTINUOUS
 10
6.7190278658
 20
3.4659786178
 11
6.711286588
 21
3.4711394698
  0
LINE
  5
32E
100
AcDbEntity
  8
03__ASM_ALL_CURVES
100
AcDbLine
 62
40
  6
CONTINUOUS
 10
6.6648389214
 20
3.52790884
 11
6.6725801991
 21
3.5227479894
  0
LINE
  5
32F
100
AcDbEntity
  8
03__ASM_ALL_CURVES
100
AcDbLine
 62
40
  6
CONTINUOUS
 10
4.9225806459
 20
5.1276234279
 11
4.9174197941
 21
5.1345045639
  0
LINE
  5
330
100
AcDbEntity
  8
03__ASM_ALL_CURVES
100
AcDbLine
 62
40
  6
CONTINUOUS
 10
4.9432240533
 20
5.1964347873
 11
4.9483849052
 21
5.1895536482
  0
LINE
  5
331
100
AcDbEntity
  8
03__ASM_ALL_CURVES
100
AcDbLine
 62
40
  6
CONTINUOUS
 10
5.0103151274
 20
5.1276234279
 11
5.0154759792
 21
5.1207422919
  0
LINE
  5
332
100
AcDbEntity
  8
0
100
AcDbLine
 62
7
  6
CONTINUOUS
 10
5.77982872
 20
3.69440884
 11
5.7720581934
 21
3.72340884
  0
LINE
  5
333
100
AcDbEntity
  8
03__ASM_ALL_CURVES
100
AcDbLine
 62
40
  6
CONTINUOUS
 10
5.6867538495
 20
3.4329491659
 11
5.6867538495
 21
3.3710189437
  0
LINE
  5
334
100
AcDbEntity
  8
03__ASM_ALL_CURVES
100
AcDbLine
 62
40
  6
CONTINUOUS
 10
5.7022364051
 20
3.5175871351
 11
5.7022364051
 21
3.5124262844
  0
LINE
  5
335
100
AcDbEntity
  8
03__ASM_ALL_CURVES
100
AcDbLine
 62
40
  6
CONTINUOUS
 10
5.7061070439
 20
3.4866220258
 11
5.7061070439
 21
3.4814611733
  0
LINE
  5
336
100
AcDbEntity
  8
03__ASM_ALL_CURVES
100
AcDbLine
 62
40
  6
CONTINUOUS
 10
5.7357403645
 20
5.1042275659
 11
5.7357403645
 21
5.0711981141
  0
LINE
  5
337
100
AcDbEntity
  8
0
100
AcDbLine
 62
7
  6
CONTINUOUS
 10
5.7720581934
 20
3.72340884
 11
5.7720581934
 21
4.52040884
  0
LINE
  5
338
100
AcDbEntity
  8
0
100
AcDbLine
 62
7
  6
CONTINUOUS
 10
5.77982872
 20
3.69440884
 11
5.77982872
 21
4.54940884
  0
LINE
  5
339
100
AcDbEntity
  8
03__ASM_ALL_CURVES
100
AcDbLine
 62
40
  6
CONTINUOUS
 10
5.4777393495
 20
3.4969437289
 11
5.4816099884
 21
3.5124262844
  0
LINE
  5
33A
100
AcDbEntity
  8
03__ASM_ALL_CURVES
100
AcDbLine
 62
40
  6
CONTINUOUS
 10
5.5241870162
 20
3.4969437289
 11
5.5203163773
 21
3.4814611733
  0
LINE
  5
33B
100
AcDbEntity
  8
03__ASM_ALL_CURVES
100
AcDbLine
 62
40
  6
CONTINUOUS
 10
6.0391984532
 20
5.1620291067
 11
6.0443593051
 21
5.1826725141
  0
LINE
  5
33C
100
AcDbEntity
  8
0
100
AcDbLine
 62
7
  6
CONTINUOUS
 10
5.77982872
 20
4.54940884
 11
5.7720581934
 21
4.52040884
  0
LINE
  5
33D
100
AcDbEntity
  8
0
100
AcDbLine
 62
7
  6
CONTINUOUS
 10
5.11582872
 20
3.69340884
 11
5.0557774838
 21
3.6333576038
  0
LINE
  5
33E
100
AcDbEntity
  8
03__ASM_ALL_CURVES
100
AcDbLine
 62
40
  6
CONTINUOUS
 10
6.9113824161
 20
5.1276234279
 11
6.9010607124
 21
5.1207422919
  0
LINE
  5
33F
100
AcDbEntity
  8
03__ASM_ALL_CURVES
100
AcDbLine
 62
40
  6
CONTINUOUS
 10
6.9939560458
 20
5.1276234279
 11
6.9836343421
 21
5.1207422919
  0
LINE
  5
340
100
AcDbEntity
  8
03__ASM_ALL_CURVES
100
AcDbLine
 62
40
  6
CONTINUOUS
 10
7.6130423593
 20
4.169388677
 11
7.5936891648
 21
4.169388677
  0
LINE
  5
341
100
AcDbEntity
  8
03__ASM_ALL_CURVES
100
AcDbLine
 62
40
  6
CONTINUOUS
 10
7.4891819149
 20
4.169388677
 11
7.4698287204
 21
4.169388677
  0
LINE
  5
342
100
AcDbEntity
  8
03__ASM_ALL_CURVES
100
AcDbLine
 62
40
  6
CONTINUOUS
 10
7.4698287204
 20
4.2003537881
 11
7.4891819149
 21
4.2003537881
  0
LINE
  5
343
100
AcDbEntity
  8
03__ASM_ALL_CURVES
100
AcDbLine
 62
40
  6
CONTINUOUS
 10
7.5433708593
 20
4.2003537881
 11
7.5511121371
 21
4.2003537881
  0
LINE
  5
344
100
AcDbEntity
  8
03__ASM_ALL_CURVES
100
AcDbLine
 62
40
  6
CONTINUOUS
 10
7.5936891648
 20
4.2003537881
 11
7.6130423593
 21
4.2003537881
  0
LINE
  5
345
100
AcDbEntity
  8
03__ASM_ALL_CURVES
100
AcDbLine
 62
40
  6
CONTINUOUS
 10
7.6517487482
 20
4.2003537881
 11
7.6904551371
 21
4.2003537881
  0
LINE
  5
346
100
AcDbEntity
  8
03__ASM_ALL_CURVES
100
AcDbLine
 62
40
  6
CONTINUOUS
 10
6.7267691436
 20
3.52790884
 11
6.7345104214
 21
3.5227479894
  0
LINE
  5
347
100
AcDbEntity
  8
03__ASM_ALL_CURVES
100
AcDbLine
 62
40
  6
CONTINUOUS
 10
6.7886993658
 20
3.52790884
 11
6.7964406436
 21
3.5227479894
  0
LINE
  5
348
100
AcDbEntity
  8
03__ASM_ALL_CURVES
100
AcDbLine
 62
40
  6
CONTINUOUS
 10
6.9125598102
 20
3.52790884
 11
6.920301088
 21
3.5227479894
  0
LINE
  5
349
100
AcDbEntity
  8
03__ASM_ALL_CURVES
100
AcDbLine
 62
40
  6
CONTINUOUS
 10
5.1651406829
 20
5.1276234279
 11
5.1548189792
 21
5.1413856993
  0
LINE
  5
34A
100
AcDbEntity
  8
THREAD
100
AcDbLine
 62
7
  6
CONTINUOUS
 10
6.04319068
 20
3.73440884
 11
6.0255814968
 21
3.76490884
  0
LINE
  5
34B
100
AcDbEntity
  8
0
100
AcDbLine
 62
7
  6
CONTINUOUS
 10
5.83182872
 20
4.54940884
 11
5.83182872
 21
3.69440884
  0
LINE
  5
34C
100
AcDbEntity
  8
0
100
AcDbLine
 62
7
  6
CONTINUOUS
 10
5.83482872
 20
4.54640884
 11
5.83482872
 21
3.69740884
  0
LINE
  5
34D
100
AcDbEntity
  8
03__ASM_ALL_CURVES
100
AcDbLine
 62
40
  6
CONTINUOUS
 10
5.83482872
 20
4.5669235659
 11
5.83482872
 21
5.1207422919
  0
LINE
  5
34E
100
AcDbEntity
  8
0
100
AcDbLine
 62
7
  6
CONTINUOUS
 10
5.83732872
 20
3.7048522157
 11
5.83732872
 21
4.5389654643
  0
LINE
  5
34F
100
AcDbEntity
  8
0
100
AcDbLine
 62
7
  6
CONTINUOUS
 10
5.8570511519
 20
3.716238967
 11
5.8570511519
 21
4.527578713
  0
LINE
  5
350
100
AcDbEntity
  8
0
100
AcDbLine
 62
7
  6
CONTINUOUS
 10
5.8595511519
 20
3.71690884
 11
5.8595511519
 21
4.52690884
  0
LINE
  5
351
100
AcDbEntity
  8
0
100
AcDbLine
 62
7
  6
CONTINUOUS
 10
5.88182872
 20
4.53090884
 11
5.88182872
 21
3.71290884
  0
LINE
  5
352
100
AcDbEntity
  8
THREAD
100
AcDbLine
 62
7
  6
CONTINUOUS
 10
5.88182872
 20
3.71690884
 11
5.88182872
 21
4.52690884
  0
LINE
  5
353
100
AcDbEntity
  8
03__ASM_ALL_CURVES
100
AcDbLine
 62
40
  6
CONTINUOUS
 10
5.9339170755
 20
5.1042275659
 11
5.9339170755
 21
5.0711981141
  0
LINE
  5
354
100
AcDbEntity
  8
0
100
AcDbLine
 62
7
  6
CONTINUOUS
 10
5.95182872
 20
4.53090884
 11
5.95182872
 21
3.71290884
  0
LINE
  5
355
100
AcDbEntity
  8
03__ASM_ALL_CURVES
100
AcDbLine
 62
40
  6
CONTINUOUS
 10
5.6015997939
 20
3.4019840548
 11
5.6054704328
 21
3.4174666104
  0
LINE
  5
356
100
AcDbEntity
  8
03__ASM_ALL_CURVES
100
AcDbLine
 62
40
  6
CONTINUOUS
 10
5.6480474606
 20
3.4019840548
 11
5.6441768217
 21
3.3865014993
  0
LINE
  5
357
100
AcDbEntity
  8
03__ASM_ALL_CURVES
100
AcDbLine
 62
40
  6
CONTINUOUS
 10
6.1011286755
 20
5.1620291067
 11
6.0959678236
 21
5.1413856993
  0
LINE
  5
358
100
AcDbEntity
  8
03__ASM_ALL_CURVES
100
AcDbLine
 62
40
  6
CONTINUOUS
 10
6.1217720829
 20
5.1620291067
 11
6.1269329347
 21
5.1826725141
  0
LINE
  5
359
100
AcDbEntity
  8
03__ASM_ALL_CURVES
100
AcDbLine
 62
40
  6
CONTINUOUS
 10
6.2095065643
 20
5.1207422919
 11
6.2353108236
 21
5.2033159215
  0
LINE
  5
35A
100
AcDbEntity
  8
THREAD
100
AcDbLine
 62
7
  6
CONTINUOUS
 10
6.04319068
 20
4.50940884
 11
6.0255814968
 21
4.47890884
  0
LINE
  5
35B
100
AcDbEntity
  8
03__ASM_ALL_CURVES
100
AcDbLine
 62
40
  6
CONTINUOUS
 10
6.5398010828
 20
5.1826725141
 11
6.5501227865
 21
5.1964347873
  0
LINE
  5
35C
100
AcDbEntity
  8
03__ASM_ALL_CURVES
100
AcDbLine
 62
40
  6
CONTINUOUS
 10
6.5862487495
 20
5.1345045639
 11
6.5810878976
 21
5.1276234279
  0
LINE
  5
35D
100
AcDbEntity
  8
03__ASM_ALL_CURVES
100
AcDbLine
 62
40
  6
CONTINUOUS
 10
7.1539424531
 20
5.1276234279
 11
7.1436207494
 21
5.1207422919
  0
LINE
  5
35E
100
AcDbEntity
  8
03__ASM_ALL_CURVES
100
AcDbLine
 62
40
  6
CONTINUOUS
 10
7.3242505642
 20
5.1689102408
 11
7.3139288605
 21
5.1620291067
  0
LINE
  5
35F
100
AcDbEntity
  8
0
100
AcDbLine
 62
7
  6
CONTINUOUS
 10
3.92882872
 20
4.30640884
 11
3.89682872
 21
4.30640884
  0
LINE
  5
360
100
AcDbEntity
  8
0
100
AcDbLine
 62
7
  6
CONTINUOUS
 10
5.05532872
 20
4.340313785
 11
4.6818923859
 21
4.340313785
  0
LINE
  5
361
100
AcDbEntity
  8
0
100
AcDbLine
 62
7
  6
CONTINUOUS
 10
5.05532872
 20
4.3916063675
 11
4.6818923859
 21
4.3916063675
  0
LINE
  5
362
100
AcDbEntity
  8
0
100
AcDbLine
 62
7
  6
CONTINUOUS
 10
6.88232872
 20
4.39240884
 11
6.87332872
 21
4.39240884
  0
LINE
  5
363
100
AcDbEntity
  8
0
100
AcDbLine
 62
7
  6
CONTINUOUS
 10
6.67582872
 20
4.40240884
 11
6.87032872
 21
4.40240884
  0
LINE
  5
364
100
AcDbEntity
  8
0
100
AcDbLine
 62
7
  6
CONTINUOUS
 10
6.88532872
 20
4.40240884
 11
6.92782872
 21
4.40240884
  0
LINE
  5
365
100
AcDbEntity
  8
0
100
AcDbLine
 62
7
  6
CONTINUOUS
 10
3.9302892529
 20
4.4029340835
 11
4.1478279194
 21
4.4029340835
  0
LINE
  5
366
100
AcDbEntity
  8
0
100
AcDbLine
 62
7
  6
CONTINUOUS
 10
7.12082872
 20
4.40990884
 11
7.14182872
 21
4.40990884
  0
LINE
  5
367
100
AcDbEntity
  8
03__ASM_ALL_CURVES
100
AcDbLine
 62
40
  6
CONTINUOUS
 10
4.6026078311
 20
5.1207422919
 11
4.5922861274
 21
5.1276234279
  0
LINE
  5
368
100
AcDbEntity
  8
03__ASM_ALL_CURVES
100
AcDbLine
 62
40
  6
CONTINUOUS
 10
4.6851814608
 20
5.1207422919
 11
4.6748597571
 21
5.1276234279
  0
LINE
  5
369
100
AcDbEntity
  8
03__ASM_ALL_CURVES
100
AcDbLine
 62
40
  6
CONTINUOUS
 10
4.6026078311
 20
5.2033159215
 11
4.6129295348
 21
5.1964347873
  0
LINE
  5
36A
100
AcDbEntity
  8
03__ASM_ALL_CURVES
100
AcDbLine
 62
40
  6
CONTINUOUS
 10
4.6851814608
 20
5.2033159215
 11
4.6955031645
 21
5.1964347873
  0
LINE
  5
36B
100
AcDbEntity
  8
03__ASM_ALL_CURVES
100
AcDbLine
 62
40
  6
CONTINUOUS
 10
5.1651406829
 20
5.1757913799
 11
5.1599798311
 21
5.1826725141
  0
LINE
  5
36C
100
AcDbEntity
  8
03__ASM_ALL_CURVES
100
AcDbLine
 62
40
  6
CONTINUOUS
 10
5.196105794
 20
5.1620291067
 11
5.2064274977
 21
5.1482668359
  0
LINE
  5
36D
100
AcDbEntity
  8
03__ASM_ALL_CURVES
100
AcDbLine
 62
40
  6
CONTINUOUS
 10
5.196105794
 20
5.1964347873
 11
5.2012666459
 21
5.1895536482
  0
LINE
  5
36E
100
AcDbEntity
  8
03__ASM_ALL_CURVES
100
AcDbLine
 62
40
  6
CONTINUOUS
 10
6.6203265545
 20
3.3761797957
 11
6.6125852768
 21
3.3865014993
  0
LINE
  5
36F
100
AcDbEntity
  8
03__ASM_ALL_CURVES
100
AcDbLine
 62
40
  6
CONTINUOUS
 10
5.2580360163
 20
5.2033159215
 11
5.26835772
 21
5.1895536482
  0
LINE
  5
370
100
AcDbEntity
  8
03__ASM_ALL_CURVES
100
AcDbLine
 62
40
  6
CONTINUOUS
 10
6.6822567768
 20
3.3761797957
 11
6.6783861379
 21
3.3813406477
  0
LINE
  5
371
100
AcDbEntity
  8
03__ASM_ALL_CURVES
100
AcDbLine
 62
40
  6
CONTINUOUS
 10
6.6435503879
 20
3.4277883153
 11
6.6512916656
 21
3.4174666104
  0
LINE
  5
372
100
AcDbEntity
  8
03__ASM_ALL_CURVES
100
AcDbLine
 62
40
  6
CONTINUOUS
 10
5.9669465273
 20
5.2033159215
 11
5.9669465273
 21
5.1207422919
  0
LINE
  5
373
100
AcDbEntity
  8
0
100
AcDbLine
 62
7
  6
CONTINUOUS
 10
6.00182872
 20
3.717409455
 11
6.00182872
 21
4.526408225
  0
LINE
  5
374
100
AcDbEntity
  8
0
100
AcDbLine
 62
7
  6
CONTINUOUS
 10
6.0143231665
 20
3.77140884
 11
6.0143231665
 21
4.47240884
  0
LINE
  5
375
100
AcDbEntity
  8
0
100
AcDbLine
 62
7
  6
CONTINUOUS
 10
6.0255814968
 20
3.76490884
 11
6.0255814968
 21
4.47890884
  0
LINE
  5
376
100
AcDbEntity
  8
THREAD
100
AcDbLine
 62
7
  6
CONTINUOUS
 10
6.04319068
 20
3.73440884
 11
6.04319068
 21
4.50940884
  0
LINE
  5
377
100
AcDbEntity
  8
03__ASM_ALL_CURVES
100
AcDbLine
 62
40
  6
CONTINUOUS
 10
6.7152700458
 20
5.1964347873
 11
6.7101091939
 21
5.1895536482
  0
LINE
  5
378
100
AcDbEntity
  8
03__ASM_ALL_CURVES
100
AcDbLine
 62
40
  6
CONTINUOUS
 10
5.4545155162
 20
3.5072654338
 11
5.4506448773
 21
3.5021045795
  0
LINE
  5
379
100
AcDbEntity
  8
03__ASM_ALL_CURVES
100
AcDbLine
 62
40
  6
CONTINUOUS
 10
5.4816099884
 20
3.5124262844
 11
5.4893512662
 21
3.5227479894
  0
LINE
  5
37A
100
AcDbEntity
  8
03__ASM_ALL_CURVES
100
AcDbLine
 62
40
  6
CONTINUOUS
 10
5.4545155162
 20
3.4123057598
 11
5.4506448773
 21
3.4071449054
  0
LINE
  5
37B
100
AcDbEntity
  8
03__ASM_ALL_CURVES
100
AcDbLine
 62
40
  6
CONTINUOUS
 10
6.7513960087
 20
5.1345045639
 11
6.7462351569
 21
5.1276234279
  0
LINE
  5
37C
100
AcDbEntity
  8
03__ASM_ALL_CURVES
100
AcDbLine
 62
40
  6
CONTINUOUS
 10
5.5203163773
 20
3.4814611733
 11
5.5125750995
 21
3.4711394698
  0
LINE
  5
37D
100
AcDbEntity
  8
03__ASM_ALL_CURVES
100
AcDbLine
 62
40
  6
CONTINUOUS
 10
5.5783759606
 20
3.5072654338
 11
5.5745053217
 21
3.5021045795
  0
LINE
  5
37E
100
AcDbEntity
  8
0
100
AcDbLine
 62
7
  6
CONTINUOUS
 10
7.00082872
 20
4.46390884
 11
7.05082872
 21
4.46390884
  0
LINE
  5
37F
100
AcDbEntity
  8
0
100
AcDbLine
 62
7
  6
CONTINUOUS
 10
7.19282872
 20
4.46440884
 11
7.14182872
 21
4.46440884
  0
LINE
  5
380
100
AcDbEntity
  8
0
100
AcDbLine
 62
7
  6
CONTINUOUS
 10
7.00082872
 20
4.46440884
 11
6.92782872
 21
4.46440884
  0
LINE
  5
381
100
AcDbEntity
  8
THREAD
100
AcDbLine
 62
7
  6
CONTINUOUS
 10
6.51282872
 20
4.46490884
 11
6.33482872
 21
4.46490884
  0
LINE
  5
382
100
AcDbEntity
  8
0
100
AcDbLine
 62
7
  6
CONTINUOUS
 10
4.28382872
 20
4.47190884
 11
4.26182872
 21
4.47190884
  0
LINE
  5
383
100
AcDbEntity
  8
THREAD
100
AcDbLine
 62
7
  6
CONTINUOUS
 10
6.0143231665
 20
4.47240884
 11
6.00182872
 21
4.47240884
  0
LINE
  5
384
100
AcDbEntity
  8
0
100
AcDbLine
 62
7
  6
CONTINUOUS
 10
4.64782872
 20
4.49540884
 11
4.29682872
 21
4.49540884
  0
LINE
  5
385
100
AcDbEntity
  8
0
100
AcDbLine
 62
7
  6
CONTINUOUS
 10
4.24882872
 20
4.49540884
 11
4.19782872
 21
4.49540884
  0
LINE
  5
386
100
AcDbEntity
  8
0
100
AcDbLine
 62
7
  6
CONTINUOUS
 10
5.36882872
 20
4.49590884
 11
5.36082872
 21
4.49590884
  0
LINE
  5
387
100
AcDbEntity
  8
THREAD
100
AcDbLine
 62
7
  6
CONTINUOUS
 10
6.29032872
 20
4.50940884
 11
6.04319068
 21
4.50940884
  0
LINE
  5
388
100
AcDbEntity
  8
0
100
AcDbLine
 62
7
  6
CONTINUOUS
 10
5.7720581934
 20
4.52040884
 11
5.4393671958
 21
4.52040884
  0
LINE
  5
389
100
AcDbEntity
  8
0
100
AcDbLine
 62
7
  6
CONTINUOUS
 10
5.95182872
 20
4.52640884
 11
6.00182872
 21
4.52640884
  0
LINE
  5
38A
100
AcDbEntity
  8
THREAD
100
AcDbLine
 62
7
  6
CONTINUOUS
 10
5.88182872
 20
4.52690884
 11
5.8595511519
 21
4.52690884
  0
LINE
  5
38B
100
AcDbEntity
  8
0
100
AcDbLine
 62
7
  6
CONTINUOUS
 10
5.83182872
 20
4.54940884
 11
5.77982872
 21
4.54940884
  0
LINE
  5
38C
100
AcDbEntity
  8
0
100
AcDbLine
 62
7
  6
CONTINUOUS
 10
5.24082872
 20
4.54990884
 11
5.29082872
 21
4.54990884
  0
LINE
  5
38D
100
AcDbEntity
  8
0
100
AcDbLine
 62
7
  6
CONTINUOUS
 10
5.43132872
 20
4.55040884
 11
5.38182872
 21
4.55040884
  0
LINE
  5
38E
100
AcDbEntity
  8
0
100
AcDbLine
 62
7
  6
CONTINUOUS
 10
5.24082872
 20
4.55040884
 11
5.11582872
 21
4.55040884
  0
LINE
  5
38F
100
AcDbEntity
  8
THREAD
100
AcDbLine
 62
7
  6
CONTINUOUS
 10
5.8570511519
 20
4.527578713
 11
5.83732872
 21
4.5389654643
  0
LINE
  5
390
100
AcDbEntity
  8
03__ASM_ALL_CURVES
100
AcDbLine
 62
40
  6
CONTINUOUS
 10
4.9329023496
 20
5.1207422919
 11
4.9225806459
 21
5.1276234279
  0
LINE
  5
391
100
AcDbEntity
  8
03__ASM_ALL_CURVES
100
AcDbLine
 62
40
  6
CONTINUOUS
 10
4.9329023496
 20
5.2033159215
 11
4.9432240533
 21
5.1964347873
  0
LINE
  5
392
100
AcDbEntity
  8
03__ASM_ALL_CURVES
100
AcDbLine
 62
40
  6
CONTINUOUS
 10
6.711286588
 20
3.4711394698
 11
6.7035453102
 21
3.4814611733
  0
LINE
  5
393
100
AcDbEntity
  8
03__ASM_ALL_CURVES
100
AcDbLine
 62
40
  6
CONTINUOUS
 10
6.6725801991
 20
3.5227479894
 11
6.676450838
 21
3.5175871351
  0
LINE
  5
394
100
AcDbEntity
  8
03__ASM_ALL_CURVES
100
AcDbLine
 62
40
  6
CONTINUOUS
 10
6.7345104214
 20
3.5227479894
 11
6.7422516991
 21
3.5124262844
  0
LINE
  5
395
100
AcDbEntity
  8
03__ASM_ALL_CURVES
100
AcDbLine
 62
40
  6
CONTINUOUS
 10
6.8700956013
 20
5.1826725141
 11
6.880417305
 21
5.1964347873
  0
LINE
  5
396
100
AcDbEntity
  8
03__ASM_ALL_CURVES
100
AcDbLine
 62
40
  6
CONTINUOUS
 10
5.6054704328
 20
3.4174666104
 11
5.6132117106
 21
3.4277883153
  0
LINE
  5
397
100
AcDbEntity
  8
03__ASM_ALL_CURVES
100
AcDbLine
 62
40
  6
CONTINUOUS
 10
6.9217041198
 20
5.1413856993
 11
6.9113824161
 21
5.1276234279
  0
LINE
  5
398
100
AcDbEntity
  8
03__ASM_ALL_CURVES
100
AcDbLine
 62
40
  6
CONTINUOUS
 10
5.7022364051
 20
3.5124262844
 11
5.6983657662
 21
3.5072654338
  0
LINE
  5
399
100
AcDbEntity
  8
03__ASM_ALL_CURVES
100
AcDbLine
 62
40
  6
CONTINUOUS
 10
5.7061070439
 20
3.4814611733
 11
5.6983657662
 21
3.4711394698
  0
LINE
  5
39A
100
AcDbEntity
  8
03__ASM_ALL_CURVES
100
AcDbLine
 62
40
  6
CONTINUOUS
 10
5.6441768217
 20
3.3865014993
 11
5.6364355439
 21
3.3761797957
  0
LINE
  5
39B
100
AcDbEntity
  8
0
100
AcDbLine
 62
7
  6
CONTINUOUS
 10
5.05532872
 20
4.6100113125
 11
4.6818923859
 21
4.6100113125
  0
LINE
  5
39C
100
AcDbEntity
  8
0
100
AcDbLine
 62
7
  6
CONTINUOUS
 10
5.05532872
 20
4.61090884
 11
4.6818923859
 21
4.61090884
  0
LINE
  5
39D
100
AcDbEntity
  8
03__ASM_ALL_CURVES
100
AcDbLine
 62
40
  6
CONTINUOUS
 10
4.6026078311
 20
5.15514797
 11
4.5871252756
 21
5.1620291067
  0
LINE
  5
39E
100
AcDbEntity
  8
03__ASM_ALL_CURVES
100
AcDbLine
 62
40
  6
CONTINUOUS
 10
4.6851814608
 20
5.1689102408
 11
4.7006640163
 21
5.1620291067
  0
LINE
  5
39F
100
AcDbEntity
  8
03__ASM_ALL_CURVES
100
AcDbLine
 62
40
  6
CONTINUOUS
 10
4.9329023496
 20
5.15514797
 11
4.9174197941
 21
5.1620291067
  0
LINE
  5
3A0
100
AcDbEntity
  8
03__ASM_ALL_CURVES
100
AcDbLine
 62
40
  6
CONTINUOUS
 10
5.1754623866
 20
5.1207422919
 11
5.1651406829
 21
5.1276234279
  0
LINE
  5
3A1
100
AcDbEntity
  8
03__ASM_ALL_CURVES
100
AcDbLine
 62
40
  6
CONTINUOUS
 10
5.1754623866
 20
5.1689102408
 11
5.1651406829
 21
5.1757913799
  0
LINE
  5
3A2
100
AcDbEntity
  8
03__ASM_ALL_CURVES
100
AcDbLine
 62
40
  6
CONTINUOUS
 10
5.1857840903
 20
5.1689102408
 11
5.196105794
 21
5.1620291067
  0
LINE
  5
3A3
100
AcDbEntity
  8
03__ASM_ALL_CURVES
100
AcDbLine
 62
40
  6
CONTINUOUS
 10
5.1857840903
 20
5.2033159215
 11
5.196105794
 21
5.1964347873
  0
LINE
  5
3A4
100
AcDbEntity
  8
03__ASM_ALL_CURVES
100
AcDbLine
 62
40
  6
CONTINUOUS
 10
6.7964406436
 20
3.5227479894
 11
6.8003112825
 21
3.5175871351
  0
LINE
  5
3A5
100
AcDbEntity
  8
03__ASM_ALL_CURVES
100
AcDbLine
 62
40
  6
CONTINUOUS
 10
6.920301088
 20
3.5227479894
 11
6.9241717269
 21
3.5175871351
  0
LINE
  5
3A6
100
AcDbEntity
  8
03__ASM_ALL_CURVES
100
AcDbLine
 62
40
  6
CONTINUOUS
 10
6.0443593051
 20
5.1413856993
 11
6.0391984532
 21
5.1620291067
  0
LINE
  5
3A7
100
AcDbEntity
  8
THREAD
100
AcDbLine
 62
7
  6
CONTINUOUS
 10
6.29032872
 20
3.73440884
 11
6.29032872
 21
4.50940884
  0
LINE
  5
3A8
100
AcDbEntity
  8
03__ASM_ALL_CURVES
100
AcDbLine
 62
40
  6
CONTINUOUS
 10
6.3178844532
 20
5.2033159215
 11
6.3178844532
 21
5.1207422919
  0
LINE
  5
3A9
100
AcDbEntity
  8
THREAD
100
AcDbLine
 62
7
  6
CONTINUOUS
 10
6.33482872
 20
3.77890884
 11
6.33482872
 21
4.46490884
  0
LINE
  5
3AA
100
AcDbEntity
  8
03__ASM_ALL_CURVES
100
AcDbLine
 62
40
  6
CONTINUOUS
 10
6.534640231
 20
5.1620291067
 11
6.5398010828
 21
5.1826725141
  0
LINE
  5
3AB
100
AcDbEntity
  8
03__ASM_ALL_CURVES
100
AcDbLine
 62
40
  6
CONTINUOUS
 10
6.9991168976
 20
5.1345045639
 11
6.9939560458
 21
5.1276234279
  0
LINE
  5
3AC
100
AcDbEntity
  8
03__ASM_ALL_CURVES
100
AcDbLine
 62
40
  6
CONTINUOUS
 10
7.1642641568
 20
5.1413856993
 11
7.1539424531
 21
5.1276234279
  0
LINE
  5
3AD
100
AcDbEntity
  8
03__ASM_ALL_CURVES
100
AcDbLine
 62
40
  6
CONTINUOUS
 10
5.4506448773
 20
3.5021045795
 11
5.4429035995
 21
3.4969437289
  0
LINE
  5
3AE
100
AcDbEntity
  8
03__ASM_ALL_CURVES
100
AcDbLine
 62
40
  6
CONTINUOUS
 10
5.4893512662
 20
3.5227479894
 11
5.497092544
 21
3.52790884
  0
LINE
  5
3AF
100
AcDbEntity
  8
03__ASM_ALL_CURVES
100
AcDbLine
 62
40
  6
CONTINUOUS
 10
5.5125750995
 20
3.4711394698
 11
5.5048338217
 21
3.4659786178
  0
LINE
  5
3B0
100
AcDbEntity
  8
03__ASM_ALL_CURVES
100
AcDbLine
 62
40
  6
CONTINUOUS
 10
5.5745053217
 20
3.5021045795
 11
5.566764044
 21
3.4969437289
  0
LINE
  5
3B1
100
AcDbEntity
  8
03__ASM_ALL_CURVES
100
AcDbLine
 62
40
  6
CONTINUOUS
 10
5.4506448773
 20
3.4071449054
 11
5.4429035995
 21
3.4019840548
  0
LINE
  5
3B2
100
AcDbEntity
  8
03__ASM_ALL_CURVES
100
AcDbLine
 62
40
  6
CONTINUOUS
 10
5.6751419328
 20
3.5227479894
 11
5.6828832106
 21
3.52790884
  0
LINE
  5
3B3
100
AcDbEntity
  8
THREAD
100
AcDbLine
 62
7
  6
CONTINUOUS
 10
5.8570511519
 20
3.716238967
 11
5.83732872
 21
3.7048522157
  0
LINE
  5
3B4
100
AcDbEntity
  8
03__ASM_ALL_CURVES
100
AcDbLine
 62
40
  6
CONTINUOUS
 10
3.9649170755
 20
5.0767030227
 11
3.86582872
 21
5.08771284
  0
LINE
  5
3B5
100
AcDbEntity
  8
03__ASM_ALL_CURVES
100
AcDbLine
 62
40
  6
CONTINUOUS
 10
3.9649170755
 20
5.0739505684
 11
3.86582872
 21
5.08771284
  0
LINE
  5
3B6
100
AcDbEntity
  8
03__ASM_ALL_CURVES
100
AcDbLine
 62
40
  6
CONTINUOUS
 10
3.9649170755
 20
5.0711981141
 11
3.86582872
 21
5.08771284
  0
LINE
  5
3B7
100
AcDbEntity
  8
THREAD
100
AcDbLine
 62
7
  6
CONTINUOUS
 10
6.33482872
 20
4.46490884
 11
6.29032872
 21
4.50940884
  0
LINE
  5
3B8
100
AcDbEntity
  8
03__ASM_ALL_CURVES
100
AcDbLine
 62
40
  6
CONTINUOUS
 10
6.0959678236
 20
5.1826725141
 11
6.1011286755
 21
5.1620291067
  0
LINE
  5
3B9
100
AcDbEntity
  8
03__ASM_ALL_CURVES
100
AcDbLine
 62
40
  6
CONTINUOUS
 10
6.1269329347
 20
5.1413856993
 11
6.1217720829
 21
5.1620291067
  0
LINE
  5
3BA
100
AcDbEntity
  8
03__ASM_ALL_CURVES
100
AcDbLine
 62
40
  6
CONTINUOUS
 10
6.6125852768
 20
3.3865014993
 11
6.6087146379
 21
3.4019840548
  0
LINE
  5
3BB
100
AcDbEntity
  8
03__ASM_ALL_CURVES
100
AcDbLine
 62
40
  6
CONTINUOUS
 10
6.4004580828
 20
5.2033159215
 11
6.4004580828
 21
5.1207422919
  0
LINE
  5
3BC
100
AcDbEntity
  8
03__ASM_ALL_CURVES
100
AcDbLine
 62
40
  6
CONTINUOUS
 10
6.4623883051
 20
5.1207422919
 11
6.4623883051
 21
5.2033159215
  0
LINE
  5
3BD
100
AcDbEntity
  8
03__ASM_ALL_CURVES
100
AcDbLine
 62
40
  6
CONTINUOUS
 10
6.5036751199
 20
5.1207422919
 11
6.5036751199
 21
5.2033159215
  0
LINE
  5
3BE
100
AcDbEntity
  8
0
100
AcDbLine
 62
7
  6
CONTINUOUS
 10
6.51282872
 20
3.77890884
 11
6.51282872
 21
4.46490884
  0
LINE
  5
3BF
100
AcDbEntity
  8
0
100
AcDbLine
 62
7
  6
CONTINUOUS
 10
6.52282872
 20
3.78890884
 11
6.52282872
 21
4.45490884
  0
LINE
  5
3C0
100
AcDbEntity
  8
0
100
AcDbLine
 62
7
  6
CONTINUOUS
 10
6.52482872
 20
4.0025456881
 11
6.52482872
 21
4.0049059756
  0
LINE
  5
3C1
100
AcDbEntity
  8
0
100
AcDbLine
 62
7
  6
CONTINUOUS
 10
6.52482872
 20
4.2389117345
 11
6.52482872
 21
4.2412817328
  0
LINE
  5
3C2
100
AcDbEntity
  8
03__ASM_ALL_CURVES
100
AcDbLine
 62
40
  6
CONTINUOUS
 10
7.3294114161
 20
5.1757913799
 11
7.3242505642
 21
5.1689102408
  0
LINE
  5
3C3
100
AcDbEntity
  8
03__ASM_ALL_CURVES
100
AcDbLine
 62
40
  6
CONTINUOUS
 10
5.6983657662
 20
3.5072654338
 11
5.6906244884
 21
3.5021045795
  0
LINE
  5
3C4
100
AcDbEntity
  8
03__ASM_ALL_CURVES
100
AcDbLine
 62
40
  6
CONTINUOUS
 10
5.6132117106
 20
3.4277883153
 11
5.6209529884
 21
3.4329491659
  0
LINE
  5
3C5
100
AcDbEntity
  8
03__ASM_ALL_CURVES
100
AcDbLine
 62
40
  6
CONTINUOUS
 10
5.6983657662
 20
3.4711394698
 11
5.6906244884
 21
3.4659786178
  0
LINE
  5
3C6
100
AcDbEntity
  8
03__ASM_ALL_CURVES
100
AcDbLine
 62
40
  6
CONTINUOUS
 10
5.6364355439
 20
3.3761797957
 11
5.6286942662
 21
3.3710189437
  0
LINE
  5
3C7
100
AcDbEntity
  8
03__ASM_ALL_CURVES
100
AcDbLine
 62
40
  6
CONTINUOUS
 10
3.9649170755
 20
5.0822079314
 11
3.86582872
 21
5.08771284
  0
LINE
  5
3C8
100
AcDbEntity
  8
03__ASM_ALL_CURVES
100
AcDbLine
 62
40
  6
CONTINUOUS
 10
3.9649170755
 20
5.079455477
 11
3.86582872
 21
5.08771284
  0
LINE
  5
3C9
100
AcDbEntity
  8
0
100
AcDbLine
 62
7
  6
CONTINUOUS
 10
6.52282872
 20
4.45490884
 11
6.51282872
 21
4.46490884
  0
LINE
  5
3CA
100
AcDbEntity
  8
03__ASM_ALL_CURVES
100
AcDbLine
 62
40
  6
CONTINUOUS
 10
6.0546810088
 20
5.1276234279
 11
6.0443593051
 21
5.1413856993
  0
LINE
  5
3CB
100
AcDbEntity
  8
03__ASM_ALL_CURVES
100
AcDbLine
 62
40
  6
CONTINUOUS
 10
6.7886993658
 20
3.4969437289
 11
6.8003112825
 21
3.4659786178
  0
LINE
  5
3CC
100
AcDbEntity
  8
03__ASM_ALL_CURVES
100
AcDbLine
 62
40
  6
CONTINUOUS
 10
6.2353108236
 20
5.2033159215
 11
6.2611150829
 21
5.1207422919
  0
LINE
  5
3CD
100
AcDbEntity
  8
03__ASM_ALL_CURVES
100
AcDbLine
 62
40
  6
CONTINUOUS
 10
6.6512916656
 20
3.4174666104
 11
6.6551623045
 21
3.4019840548
  0
LINE
  5
3CE
100
AcDbEntity
  8
03__ASM_ALL_CURVES
100
AcDbLine
 62
40
  6
CONTINUOUS
 10
6.7035453102
 20
3.4814611733
 11
6.6996746714
 21
3.4969437289
  0
LINE
  5
3CF
100
AcDbEntity
  8
03__ASM_ALL_CURVES
100
AcDbLine
 62
40
  6
CONTINUOUS
 10
6.7422516991
 20
3.5124262844
 11
6.746122338
 21
3.4969437289
  0
LINE
  5
3D0
100
AcDbEntity
  8
03__ASM_ALL_CURVES
100
AcDbLine
 62
40
  6
CONTINUOUS
 10
6.5862487495
 20
5.1620291067
 11
6.5862487495
 21
5.1345045639
  0
LINE
  5
3D1
100
AcDbEntity
  8
03__ASM_ALL_CURVES
100
AcDbLine
 62
40
  6
CONTINUOUS
 10
6.6454857269
 20
3.4659786178
 11
6.6454857269
 21
3.52790884
  0
LINE
  5
3D2
100
AcDbEntity
  8
03__ASM_ALL_CURVES
100
AcDbLine
 62
40
  6
CONTINUOUS
 10
6.676450838
 20
3.5175871351
 11
6.676450838
 21
3.5072654338
  0
LINE
  5
3D3
100
AcDbEntity
  8
03__ASM_ALL_CURVES
100
AcDbLine
 62
40
  6
CONTINUOUS
 10
6.8649347495
 20
5.1620291067
 11
6.8700956013
 21
5.1826725141
  0
LINE
  5
3D4
100
AcDbEntity
  8
THREAD
100
AcDbLine
 62
7
  6
CONTINUOUS
 10
6.33482872
 20
3.77890884
 11
6.29032872
 21
3.73440884
  0
LINE
  5
3D5
100
AcDbEntity
  8
0
100
AcDbLine
 62
7
  6
CONTINUOUS
 10
6.52282872
 20
3.78890884
 11
6.51282872
 21
3.77890884
  0
LINE
  5
3D6
100
AcDbEntity
  8
03__ASM_ALL_CURVES
100
AcDbLine
 62
40
  6
CONTINUOUS
 10
5.7357403645
 20
5.0711981141
 11
5.9339170755
 21
5.1042275659
  0
LINE
  5
3D7
100
AcDbEntity
  8
03__ASM_ALL_CURVES
100
AcDbLine
 62
40
  6
CONTINUOUS
 10
5.7357403645
 20
5.0739505684
 11
5.9339170755
 21
5.1014751116
  0
LINE
  5
3D8
100
AcDbEntity
  8
03__ASM_ALL_CURVES
100
AcDbLine
 62
40
  6
CONTINUOUS
 10
5.7357403645
 20
5.0767030227
 11
5.9339170755
 21
5.0987226573
  0
LINE
  5
3D9
100
AcDbEntity
  8
03__ASM_ALL_CURVES
100
AcDbLine
 62
40
  6
CONTINUOUS
 10
5.7357403645
 20
5.079455477
 11
5.9339170755
 21
5.095970203
  0
LINE
  5
3DA
100
AcDbEntity
  8
03__ASM_ALL_CURVES
100
AcDbLine
 62
40
  6
CONTINUOUS
 10
5.7357403645
 20
5.0822079314
 11
5.9339170755
 21
5.0932177486
  0
LINE
  5
3DB
100
AcDbEntity
  8
03__ASM_ALL_CURVES
100
AcDbLine
 62
40
  6
CONTINUOUS
 10
5.7357403645
 20
5.0849603857
 11
5.9339170755
 21
5.0904652943
  0
LINE
  5
3DC
100
AcDbEntity
  8
03__ASM_ALL_CURVES
100
AcDbLine
 62
40
  6
CONTINUOUS
 10
3.9649170755
 20
5.0904652943
 11
3.86582872
 21
5.08771284
  0
LINE
  5
3DD
100
AcDbEntity
  8
03__ASM_ALL_CURVES
100
AcDbLine
 62
40
  6
CONTINUOUS
 10
3.86582872
 20
5.08771284
 11
7.4202424088
 21
5.08771284
  0
LINE
  5
3DE
100
AcDbEntity
  8
03__ASM_ALL_CURVES
100
AcDbLine
 62
40
  6
CONTINUOUS
 10
7.2468377865
 20
5.1207422919
 11
7.2055509717
 21
5.1207422919
  0
LINE
  5
3DF
100
AcDbEntity
  8
03__ASM_ALL_CURVES
100
AcDbLine
 62
40
  6
CONTINUOUS
 10
7.1436207494
 20
5.1207422919
 11
7.122977342
 21
5.1207422919
  0
LINE
  5
3E0
100
AcDbEntity
  8
03__ASM_ALL_CURVES
100
AcDbLine
 62
40
  6
CONTINUOUS
 10
6.9836343421
 20
5.1207422919
 11
6.9733126383
 21
5.1207422919
  0
LINE
  5
3E1
100
AcDbEntity
  8
03__ASM_ALL_CURVES
100
AcDbLine
 62
40
  6
CONTINUOUS
 10
6.9010607124
 20
5.1207422919
 11
6.8907390087
 21
5.1207422919
  0
LINE
  5
3E2
100
AcDbEntity
  8
03__ASM_ALL_CURVES
100
AcDbLine
 62
40
  6
CONTINUOUS
 10
6.7359134532
 20
5.1207422919
 11
6.7255917495
 21
5.1207422919
  0
LINE
  5
3E3
100
AcDbEntity
  8
03__ASM_ALL_CURVES
100
AcDbLine
 62
40
  6
CONTINUOUS
 10
6.5707661939
 20
5.1207422919
 11
6.5604444902
 21
5.1207422919
  0
LINE
  5
3E4
100
AcDbEntity
  8
03__ASM_ALL_CURVES
100
AcDbLine
 62
40
  6
CONTINUOUS
 10
6.1578980458
 20
5.1207422919
 11
6.1475763421
 21
5.1207422919
  0
LINE
  5
3E5
100
AcDbEntity
  8
03__ASM_ALL_CURVES
100
AcDbLine
 62
40
  6
CONTINUOUS
 10
6.0753244162
 20
5.1207422919
 11
6.0650027125
 21
5.1207422919
  0
LINE
  5
3E6
100
AcDbEntity
  8
03__ASM_ALL_CURVES
100
AcDbLine
 62
40
  6
CONTINUOUS
 10
5.1857840903
 20
5.1207422919
 11
5.1754623866
 21
5.1207422919
  0
LINE
  5
3E7
100
AcDbEntity
  8
03__ASM_ALL_CURVES
100
AcDbLine
 62
40
  6
CONTINUOUS
 10
5.0154759792
 20
5.1207422919
 11
5.0103151274
 21
5.1207422919
  0
LINE
  5
3E8
100
AcDbEntity
  8
03__ASM_ALL_CURVES
100
AcDbLine
 62
40
  6
CONTINUOUS
 10
4.5200342015
 20
5.1207422919
 11
4.5148733497
 21
5.1207422919
  0
LINE
  5
3E9
100
AcDbEntity
  8
03__ASM_ALL_CURVES
100
AcDbLine
 62
40
  6
CONTINUOUS
 10
5.9669465273
 20
5.1207422919
 11
6.0082333421
 21
5.1207422919
  0
LINE
  5
3EA
100
AcDbEntity
  8
03__ASM_ALL_CURVES
100
AcDbLine
 62
40
  6
CONTINUOUS
 10
7.0404037124
 20
5.1207422919
 11
7.0816905272
 21
5.1207422919
  0
LINE
  5
3EB
100
AcDbEntity
  8
03__ASM_ALL_CURVES
100
AcDbLine
 62
40
  6
CONTINUOUS
 10
4.8296853126
 20
5.1413856993
 11
4.8761329793
 21
5.1413856993
  0
LINE
  5
3EC
100
AcDbEntity
  8
03__ASM_ALL_CURVES
100
AcDbLine
 62
40
  6
CONTINUOUS
 10
6.219828268
 20
5.1482668359
 11
6.2507933792
 21
5.1482668359
  0
LINE
  5
3ED
100
AcDbEntity
  8
03__ASM_ALL_CURVES
100
AcDbLine
 62
40
  6
CONTINUOUS
 10
7.3139288605
 20
5.1620291067
 11
7.2881246013
 21
5.1620291067
  0
LINE
  5
3EE
100
AcDbEntity
  8
03__ASM_ALL_CURVES
100
AcDbLine
 62
40
  6
CONTINUOUS
 10
6.5656053421
 20
5.1620291067
 11
6.5862487495
 21
5.1620291067
  0
LINE
  5
3EF
100
AcDbEntity
  8
03__ASM_ALL_CURVES
100
AcDbLine
 62
40
  6
CONTINUOUS
 10
6.7926828235
 20
5.1620291067
 11
6.8339696384
 21
5.1620291067
  0
LINE
  5
3F0
100
AcDbEntity
  8
03__ASM_ALL_CURVES
100
AcDbLine
 62
40
  6
CONTINUOUS
 10
7.2055509717
 20
5.1620291067
 11
7.2313552309
 21
5.1620291067
  0
LINE
  5
3F1
100
AcDbEntity
  8
03__ASM_ALL_CURVES
100
AcDbLine
 62
40
  6
CONTINUOUS
 10
3.9649170755
 20
5.0849603857
 11
3.86582872
 21
5.08771284
  0
LINE
  5
3F2
100
AcDbEntity
  8
03__ASM_ALL_CURVES
100
AcDbLine
 62
40
  6
CONTINUOUS
 10
5.7357403645
 20
5.0904652943
 11
5.9339170755
 21
5.0849603857
  0
LINE
  5
3F3
100
AcDbEntity
  8
03__ASM_ALL_CURVES
100
AcDbLine
 62
40
  6
CONTINUOUS
 10
5.7357403645
 20
5.0932177486
 11
5.9339170755
 21
5.0822079314
  0
LINE
  5
3F4
100
AcDbEntity
  8
03__ASM_ALL_CURVES
100
AcDbLine
 62
40
  6
CONTINUOUS
 10
5.7357403645
 20
5.095970203
 11
5.9339170755
 21
5.079455477
  0
LINE
  5
3F5
100
AcDbEntity
  8
03__ASM_ALL_CURVES
100
AcDbLine
 62
40
  6
CONTINUOUS
 10
5.7357403645
 20
5.0987226573
 11
5.9339170755
 21
5.0767030227
  0
LINE
  5
3F6
100
AcDbEntity
  8
03__ASM_ALL_CURVES
100
AcDbLine
 62
40
  6
CONTINUOUS
 10
5.7357403645
 20
5.1014751116
 11
5.9339170755
 21
5.0739505684
  0
LINE
  5
3F7
100
AcDbEntity
  8
03__ASM_ALL_CURVES
100
AcDbLine
 62
40
  6
CONTINUOUS
 10
5.9339170755
 20
5.0711981141
 11
5.7357403645
 21
5.1042275659
  0
LINE
  5
3F8
100
AcDbEntity
  8
03__ASM_ALL_CURVES
100
AcDbLine
 62
40
  6
CONTINUOUS
 10
6.0650027125
 20
5.1207422919
 11
6.0546810088
 21
5.1276234279
  0
LINE
  5
3F9
100
AcDbEntity
  8
03__ASM_ALL_CURVES
100
AcDbLine
 62
40
  6
CONTINUOUS
 10
7.5433708593
 20
4.1384235659
 11
7.5356295815
 21
4.1435844179
  0
LINE
  5
3FA
100
AcDbEntity
  8
03__ASM_ALL_CURVES
100
AcDbLine
 62
40
  6
CONTINUOUS
 10
7.4891819149
 20
4.2003537881
 11
7.4969231926
 21
4.1951929375
  0
LINE
  5
3FB
100
AcDbEntity
  8
03__ASM_ALL_CURVES
100
AcDbLine
 62
40
  6
CONTINUOUS
 10
6.1372546384
 20
5.1276234279
 11
6.1269329347
 21
5.1413856993
  0
LINE
  5
3FC
100
AcDbEntity
  8
03__ASM_ALL_CURVES
100
AcDbLine
 62
40
  6
CONTINUOUS
 10
6.0856461199
 20
5.1964347873
 11
6.0959678236
 21
5.1826725141
  0
LINE
  5
3FD
100
AcDbEntity
  8
03__ASM_ALL_CURVES
100
AcDbLine
 62
40
  6
CONTINUOUS
 10
6.1682197495
 20
5.1964347873
 11
6.1733806014
 21
5.1895536482
  0
LINE
  5
3FE
100
AcDbEntity
  8
03__ASM_ALL_CURVES
100
AcDbLine
 62
40
  6
CONTINUOUS
 10
6.6783861379
 20
3.3813406477
 11
6.6783861379
 21
3.4329491659
  0
LINE
  5
3FF
100
AcDbEntity
  8
03__ASM_ALL_CURVES
100
AcDbLine
 62
40
  6
CONTINUOUS
 10
6.709351249
 20
3.4329491659
 11
6.709351249
 21
3.3813406477
  0
LINE
  5
400
100
AcDbEntity
  8
03__ASM_ALL_CURVES
100
AcDbLine
 62
40
  6
CONTINUOUS
 10
6.7101091939
 20
5.1895536482
 11
6.7101091939
 21
5.1826725141
  0
LINE
  5
401
100
AcDbEntity
  8
03__ASM_ALL_CURVES
100
AcDbLine
 62
40
  6
CONTINUOUS
 10
6.7513960087
 20
5.1482668359
 11
6.7513960087
 21
5.1345045639
  0
LINE
  5
402
100
AcDbEntity
  8
03__ASM_ALL_CURVES
100
AcDbLine
 62
40
  6
CONTINUOUS
 10
6.7557989156
 20
3.4329491659
 11
6.7557989156
 21
3.3710189437
  0
LINE
  5
403
100
AcDbEntity
  8
03__ASM_ALL_CURVES
100
AcDbLine
 62
40
  6
CONTINUOUS
 10
6.7693461713
 20
3.4659786178
 11
6.7693461713
 21
3.52790884
  0
LINE
  5
404
100
AcDbEntity
  8
03__ASM_ALL_CURVES
100
AcDbLine
 62
40
  6
CONTINUOUS
 10
6.7926828235
 20
5.2033159215
 11
6.7926828235
 21
5.1207422919
  0
LINE
  5
405
100
AcDbEntity
  8
03__ASM_ALL_CURVES
100
AcDbLine
 62
40
  6
CONTINUOUS
 10
6.8003112825
 20
3.5175871351
 11
6.8003112825
 21
3.5072654338
  0
LINE
  5
406
100
AcDbEntity
  8
03__ASM_ALL_CURVES
100
AcDbLine
 62
40
  6
CONTINUOUS
 10
6.8022465823
 20
3.4329491659
 11
6.8022465823
 21
3.3710189437
  0
LINE
  5
407
100
AcDbEntity
  8
03__ASM_ALL_CURVES
100
AcDbLine
 62
40
  6
CONTINUOUS
 10
6.9268649717
 20
5.1620291067
 11
6.9217041198
 21
5.1413856993
  0
LINE
  5
408
100
AcDbEntity
  8
03__ASM_ALL_CURVES
100
AcDbLine
 62
40
  6
CONTINUOUS
 10
6.6087146379
 20
3.4019840548
 11
6.6125852768
 21
3.4174666104
  0
LINE
  5
409
100
AcDbEntity
  8
03__ASM_ALL_CURVES
100
AcDbLine
 62
40
  6
CONTINUOUS
 10
3.9649170755
 20
5.0987226573
 11
3.86582872
 21
5.08771284
  0
LINE
  5
40A
100
AcDbEntity
  8
03__ASM_ALL_CURVES
100
AcDbLine
 62
40
  6
CONTINUOUS
 10
3.9649170755
 20
5.095970203
 11
3.86582872
 21
5.08771284
  0
LINE
  5
40B
100
AcDbEntity
  8
03__ASM_ALL_CURVES
100
AcDbLine
 62
40
  6
CONTINUOUS
 10
3.9649170755
 20
5.0932177486
 11
3.86582872
 21
5.08771284
  0
LINE
  5
40C
100
AcDbEntity
  8
03__ASM_ALL_CURVES
100
AcDbLine
 62
40
  6
CONTINUOUS
 10
5.1754623866
 20
5.1689102408
 11
5.1857840903
 21
5.1689102408
  0
LINE
  5
40D
100
AcDbEntity
  8
03__ASM_ALL_CURVES
100
AcDbLine
 62
40
  6
CONTINUOUS
 10
6.7359134532
 20
5.2033159215
 11
6.7255917495
 21
5.2033159215
  0
LINE
  5
40E
100
AcDbEntity
  8
03__ASM_ALL_CURVES
100
AcDbLine
 62
40
  6
CONTINUOUS
 10
5.1186930163
 20
5.2033159215
 11
5.0774062015
 21
5.2033159215
  0
LINE
  5
40F
100
AcDbEntity
  8
03__ASM_ALL_CURVES
100
AcDbLine
 62
40
  6
CONTINUOUS
 10
5.1754623866
 20
5.2033159215
 11
5.1857840903
 21
5.2033159215
  0
LINE
  5
410
100
AcDbEntity
  8
03__ASM_ALL_CURVES
100
AcDbLine
 62
40
  6
CONTINUOUS
 10
6.0650027125
 20
5.2033159215
 11
6.0753244162
 21
5.2033159215
  0
LINE
  5
411
100
AcDbEntity
  8
03__ASM_ALL_CURVES
100
AcDbLine
 62
40
  6
CONTINUOUS
 10
6.1475763421
 20
5.2033159215
 11
6.1578980458
 21
5.2033159215
  0
LINE
  5
412
100
AcDbEntity
  8
03__ASM_ALL_CURVES
100
AcDbLine
 62
40
  6
CONTINUOUS
 10
6.292080194
 20
5.2033159215
 11
6.3436887125
 21
5.2033159215
  0
LINE
  5
413
100
AcDbEntity
  8
03__ASM_ALL_CURVES
100
AcDbLine
 62
40
  6
CONTINUOUS
 10
6.5604444902
 20
5.2033159215
 11
6.5707661939
 21
5.2033159215
  0
LINE
  5
414
100
AcDbEntity
  8
03__ASM_ALL_CURVES
100
AcDbLine
 62
40
  6
CONTINUOUS
 10
6.8907390087
 20
5.2033159215
 11
6.9010607124
 21
5.2033159215
  0
LINE
  5
415
100
AcDbEntity
  8
03__ASM_ALL_CURVES
100
AcDbLine
 62
40
  6
CONTINUOUS
 10
7.122977342
 20
5.2033159215
 11
7.1436207494
 21
5.2033159215
  0
LINE
  5
416
100
AcDbEntity
  8
03__ASM_ALL_CURVES
100
AcDbLine
 62
40
  6
CONTINUOUS
 10
7.2055509717
 20
5.2033159215
 11
7.2468377865
 21
5.2033159215
  0
LINE
  5
417
100
AcDbEntity
  8
03__ASM_ALL_CURVES
100
AcDbLine
 62
40
  6
CONTINUOUS
 10
7.2881246013
 20
5.2033159215
 11
7.3139288605
 21
5.2033159215
  0
LINE
  5
418
100
AcDbEntity
  8
03__ASM_ALL_CURVES
100
AcDbLine
 62
40
  6
CONTINUOUS
 10
6.1475763421
 20
5.1207422919
 11
6.1372546384
 21
5.1276234279
  0
LINE
  5
419
100
AcDbEntity
  8
03__ASM_ALL_CURVES
100
AcDbLine
 62
40
  6
CONTINUOUS
 10
7.5511121371
 20
4.2003537881
 11
7.5588534148
 21
4.1951929375
  0
LINE
  5
41A
100
AcDbEntity
  8
03__ASM_ALL_CURVES
100
AcDbLine
 62
40
  6
CONTINUOUS
 10
6.0753244162
 20
5.2033159215
 11
6.0856461199
 21
5.1964347873
  0
LINE
  5
41B
100
AcDbEntity
  8
03__ASM_ALL_CURVES
100
AcDbLine
 62
40
  6
CONTINUOUS
 10
7.6130423593
 20
4.2003537881
 11
7.6207836371
 21
4.1951929375
  0
LINE
  5
41C
100
AcDbEntity
  8
03__ASM_ALL_CURVES
100
AcDbLine
 62
40
  6
CONTINUOUS
 10
6.1578980458
 20
5.2033159215
 11
6.1682197495
 21
5.1964347873
  0
LINE
  5
41D
100
AcDbEntity
  8
03__ASM_ALL_CURVES
100
AcDbLine
 62
40
  6
CONTINUOUS
 10
6.4623883051
 20
5.2033159215
 11
6.5036751199
 21
5.1207422919
  0
LINE
  5
41E
100
AcDbEntity
  8
03__ASM_ALL_CURVES
100
AcDbLine
 62
40
  6
CONTINUOUS
 10
6.5398010828
 20
5.1413856993
 11
6.534640231
 21
5.1620291067
  0
LINE
  5
41F
100
AcDbEntity
  8
03__ASM_ALL_CURVES
100
AcDbLine
 62
40
  6
CONTINUOUS
 10
6.8339696384
 20
5.2033159215
 11
6.8339696384
 21
5.1207422919
  0
LINE
  5
420
100
AcDbEntity
  8
03__ASM_ALL_CURVES
100
AcDbLine
 62
40
  6
CONTINUOUS
 10
6.8467589491
 20
3.52790884
 11
6.8467589491
 21
3.4659786178
  0
LINE
  5
421
100
AcDbEntity
  8
03__ASM_ALL_CURVES
100
AcDbLine
 62
40
  6
CONTINUOUS
 10
6.8641768045
 20
3.3710189437
 11
6.8641768045
 21
3.4329491659
  0
LINE
  5
422
100
AcDbEntity
  8
0
100
AcDbLine
 62
7
  6
CONTINUOUS
 10
6.87032872
 20
4.4024039373
 11
6.87032872
 21
3.8414137428
  0
LINE
  5
423
100
AcDbEntity
  8
0
100
AcDbLine
 62
7
  6
CONTINUOUS
 10
6.87332872
 20
3.85140884
 11
6.87332872
 21
4.39240884
  0
LINE
  5
424
100
AcDbEntity
  8
0
100
AcDbLine
 62
7
  6
CONTINUOUS
 10
6.88232872
 20
3.85140884
 11
6.88232872
 21
4.39240884
  0
LINE
  5
425
100
AcDbEntity
  8
0
100
AcDbLine
 62
7
  6
CONTINUOUS
 10
6.88532872
 20
4.4024039373
 11
6.88532872
 21
3.8414137428
  0
LINE
  5
426
100
AcDbEntity
  8
03__ASM_ALL_CURVES
100
AcDbLine
 62
40
  6
CONTINUOUS
 10
6.9241717269
 20
3.5175871351
 11
6.9241717269
 21
3.5072654338
  0
LINE
  5
427
100
AcDbEntity
  8
0
100
AcDbLine
 62
7
  6
CONTINUOUS
 10
6.92782872
 20
3.77940884
 11
6.92782872
 21
4.46440884
  0
LINE
  5
428
100
AcDbEntity
  8
03__ASM_ALL_CURVES
100
AcDbLine
 62
40
  6
CONTINUOUS
 10
6.9415895823
 20
3.4329491659
 11
6.9415895823
 21
3.3710189437
  0
LINE
  5
429
100
AcDbEntity
  8
03__ASM_ALL_CURVES
100
AcDbLine
 62
40
  6
CONTINUOUS
 10
6.9578300828
 20
5.1345045639
 11
6.9578300828
 21
5.2033159215
  0
LINE
  5
42A
100
AcDbEntity
  8
03__ASM_ALL_CURVES
100
AcDbLine
 62
40
  6
CONTINUOUS
 10
6.6551623045
 20
3.4019840548
 11
6.6512916656
 21
3.3865014993
  0
LINE
  5
42B
100
AcDbEntity
  8
03__ASM_ALL_CURVES
100
AcDbLine
 62
40
  6
CONTINUOUS
 10
6.6996746714
 20
3.4969437289
 11
6.7035453102
 21
3.5124262844
  0
LINE
  5
42C
100
AcDbEntity
  8
03__ASM_ALL_CURVES
100
AcDbLine
 62
40
  6
CONTINUOUS
 10
6.746122338
 20
3.4969437289
 11
6.7422516991
 21
3.4814611733
  0
LINE
  5
42D
100
AcDbEntity
  8
03__ASM_ALL_CURVES
100
AcDbLine
 62
40
  6
CONTINUOUS
 10
7.1694250087
 20
5.1620291067
 11
7.1642641568
 21
5.1413856993
  0
LINE
  5
42E
100
AcDbEntity
  8
03__ASM_ALL_CURVES
100
AcDbLine
 62
40
  6
CONTINUOUS
 10
7.4969231926
 20
4.1745495277
 11
7.4891819149
 21
4.169388677
  0
LINE
  5
42F
100
AcDbEntity
  8
03__ASM_ALL_CURVES
100
AcDbLine
 62
40
  6
CONTINUOUS
 10
7.5356295815
 20
4.1951929375
 11
7.5433708593
 21
4.2003537881
  0
LINE
  5
430
100
AcDbEntity
  8
03__ASM_ALL_CURVES
100
AcDbLine
 62
40
  6
CONTINUOUS
 10
7.5588534148
 20
4.1435844179
 11
7.5511121371
 21
4.1384235659
  0
LINE
  5
431
100
AcDbEntity
  8
03__ASM_ALL_CURVES
100
AcDbLine
 62
40
  6
CONTINUOUS
 10
7.6207836371
 20
4.1745495277
 11
7.6130423593
 21
4.169388677
  0
LINE
  5
432
100
AcDbEntity
  8
03__ASM_ALL_CURVES
100
AcDbLine
 62
40
  6
CONTINUOUS
 10
6.6725801991
 20
3.5021045795
 11
6.6648389214
 21
3.4969437289
  0
LINE
  5
433
100
AcDbEntity
  8
03__ASM_ALL_CURVES
100
AcDbLine
 62
40
  6
CONTINUOUS
 10
6.711286588
 20
3.5227479894
 11
6.7190278658
 21
3.52790884
  0
LINE
  5
434
100
AcDbEntity
  8
03__ASM_ALL_CURVES
100
AcDbLine
 62
40
  6
CONTINUOUS
 10
3.86582872
 20
5.08771284
 11
3.9649170755
 21
5.1042275659
  0
LINE
  5
435
100
AcDbEntity
  8
03__ASM_ALL_CURVES
100
AcDbLine
 62
40
  6
CONTINUOUS
 10
3.9649170755
 20
5.1014751116
 11
3.86582872
 21
5.08771284
  0
LINE
  5
436
100
AcDbEntity
  8
03__ASM_ALL_CURVES
100
AcDbLine
 62
40
  6
CONTINUOUS
 10
6.5604444902
 20
5.1207422919
 11
6.5501227865
 21
5.1276234279
  0
LINE
  5
437
100
AcDbEntity
  8
0
100
AcDbLine
 62
7
  6
CONTINUOUS
 10
7.20882872
 20
4.44840884
 11
7.19282872
 21
4.46440884
  0
LINE
  5
438
100
AcDbEntity
  8
03__ASM_ALL_CURVES
100
AcDbLine
 62
40
  6
CONTINUOUS
 10
6.5501227865
 20
5.1276234279
 11
6.5398010828
 21
5.1413856993
  0
LINE
  5
439
100
AcDbEntity
  8
03__ASM_ALL_CURVES
100
AcDbLine
 62
40
  6
CONTINUOUS
 10
6.9991168976
 20
5.2033159215
 11
6.9991168976
 21
5.1345045639
  0
LINE
  5
43A
100
AcDbEntity
  8
0
100
AcDbLine
 62
7
  6
CONTINUOUS
 10
7.00082872
 20
3.77940884
 11
7.00082872
 21
4.46440884
  0
LINE
  5
43B
100
AcDbEntity
  8
03__ASM_ALL_CURVES
100
AcDbLine
 62
40
  6
CONTINUOUS
 10
7.0404037124
 20
5.2033159215
 11
7.0404037124
 21
5.1207422919
  0
LINE
  5
43C
100
AcDbEntity
  8
0
100
AcDbLine
 62
7
  6
CONTINUOUS
 10
7.05082872
 20
3.77990936
 11
7.05082872
 21
4.46390832
  0
LINE
  5
43D
100
AcDbEntity
  8
03__ASM_ALL_CURVES
100
AcDbLine
 62
40
  6
CONTINUOUS
 10
6.8970772547
 20
3.4814611733
 11
6.8932066158
 21
3.4659786178
  0
LINE
  5
43E
100
AcDbEntity
  8
03__ASM_ALL_CURVES
100
AcDbLine
 62
40
  6
CONTINUOUS
 10
6.676450838
 20
3.5072654338
 11
6.6725801991
 21
3.5021045795
  0
LINE
  5
43F
100
AcDbEntity
  8
03__ASM_ALL_CURVES
100
AcDbLine
 62
40
  6
CONTINUOUS
 10
6.6125852768
 20
3.4174666104
 11
6.6203265545
 21
3.4277883153
  0
LINE
  5
440
100
AcDbEntity
  8
03__ASM_ALL_CURVES
100
AcDbLine
 62
40
  6
CONTINUOUS
 10
6.7035453102
 20
3.5124262844
 11
6.711286588
 21
3.5227479894
  0
LINE
  5
441
100
AcDbEntity
  8
03__ASM_ALL_CURVES
100
AcDbLine
 62
40
  6
CONTINUOUS
 10
6.6512916656
 20
3.3865014993
 11
6.6435503879
 21
3.3761797957
  0
LINE
  5
442
100
AcDbEntity
  8
03__ASM_ALL_CURVES
100
AcDbLine
 62
40
  6
CONTINUOUS
 10
6.7422516991
 20
3.4814611733
 11
6.7345104214
 21
3.4711394698
  0
LINE
  5
443
100
AcDbEntity
  8
03__ASM_ALL_CURVES
100
AcDbLine
 62
40
  6
CONTINUOUS
 10
6.8003112825
 20
3.5072654338
 11
6.7964406436
 21
3.5021045795
  0
LINE
  5
444
100
AcDbEntity
  8
03__ASM_ALL_CURVES
100
AcDbLine
 62
40
  6
CONTINUOUS
 10
6.709351249
 20
3.3813406477
 11
6.7054806101
 21
3.3761797957
  0
LINE
  5
445
100
AcDbEntity
  8
03__ASM_ALL_CURVES
100
AcDbLine
 62
40
  6
CONTINUOUS
 10
6.6203265545
 20
3.4277883153
 11
6.6280678323
 21
3.4329491659
  0
LINE
  5
446
100
AcDbEntity
  8
03__ASM_ALL_CURVES
100
AcDbLine
 62
40
  6
CONTINUOUS
 10
6.7345104214
 20
3.4711394698
 11
6.7267691436
 21
3.4659786178
  0
LINE
  5
447
100
AcDbEntity
  8
03__ASM_ALL_CURVES
100
AcDbLine
 62
40
  6
CONTINUOUS
 10
6.7964406436
 20
3.5021045795
 11
6.7886993658
 21
3.4969437289
  0
LINE
  5
448
100
AcDbEntity
  8
03__ASM_ALL_CURVES
100
AcDbLine
 62
40
  6
CONTINUOUS
 10
6.6435503879
 20
3.3761797957
 11
6.6358091101
 21
3.3710189437
  0
LINE
  5
449
100
AcDbEntity
  8
03__ASM_ALL_CURVES
100
AcDbLine
 62
40
  6
CONTINUOUS
 10
6.8970772547
 20
3.5227479894
 11
6.9048185324
 21
3.52790884
  0
LINE
  5
44A
100
AcDbEntity
  8
03__ASM_ALL_CURVES
100
AcDbLine
 62
40
  6
CONTINUOUS
 10
6.7054806101
 20
3.3761797957
 11
6.6977393323
 21
3.3710189437
  0
LINE
  5
44B
100
AcDbEntity
  8
03__ASM_ALL_CURVES
100
AcDbLine
 62
40
  6
CONTINUOUS
 10
6.920301088
 20
3.5021045795
 11
6.9048185324
 21
3.4917828764
  0
LINE
  5
44C
100
AcDbEntity
  8
03__ASM_ALL_CURVES
100
AcDbLine
 62
40
  6
CONTINUOUS
 10
6.5707661939
 20
5.2033159215
 11
6.5810878976
 21
5.1964347873
  0
LINE
  5
44D
100
AcDbEntity
  8
03__ASM_ALL_CURVES
100
AcDbLine
 62
40
  6
CONTINUOUS
 10
6.7255917495
 20
5.1207422919
 11
6.7152700458
 21
5.1276234279
  0
LINE
  5
44E
100
AcDbEntity
  8
03__ASM_ALL_CURVES
100
AcDbLine
 62
40
  6
CONTINUOUS
 10
6.7152700458
 20
5.1757913799
 11
6.7462351569
 21
5.15514797
  0
LINE
  5
44F
100
AcDbEntity
  8
03__ASM_ALL_CURVES
100
AcDbLine
 62
40
  6
CONTINUOUS
 10
6.7462351569
 20
5.1964347873
 11
6.7359134532
 21
5.2033159215
  0
LINE
  5
450
100
AcDbEntity
  8
03__ASM_ALL_CURVES
100
AcDbLine
 62
40
  6
CONTINUOUS
 10
6.8907390087
 20
5.1207422919
 11
6.880417305
 21
5.1276234279
  0
LINE
  5
451
100
AcDbEntity
  8
03__ASM_ALL_CURVES
100
AcDbLine
 62
40
  6
CONTINUOUS
 10
6.5810878976
 20
5.1964347873
 11
6.5862487495
 21
5.1895536482
  0
LINE
  5
452
100
AcDbEntity
  8
03__ASM_ALL_CURVES
100
AcDbLine
 62
40
  6
CONTINUOUS
 10
6.7152700458
 20
5.1276234279
 11
6.7049483421
 21
5.1413856993
  0
LINE
  5
453
100
AcDbEntity
  8
03__ASM_ALL_CURVES
100
AcDbLine
 62
40
  6
CONTINUOUS
 10
6.7101091939
 20
5.1826725141
 11
6.7152700458
 21
5.1757913799
  0
LINE
  5
454
100
AcDbEntity
  8
03__ASM_ALL_CURVES
100
AcDbLine
 62
40
  6
CONTINUOUS
 10
6.7462351569
 20
5.15514797
 11
6.7513960087
 21
5.1482668359
  0
LINE
  5
455
100
AcDbEntity
  8
03__ASM_ALL_CURVES
100
AcDbLine
 62
40
  6
CONTINUOUS
 10
7.5356295815
 20
4.1435844179
 11
7.5278883037
 21
4.1539061215
  0
LINE
  5
456
100
AcDbEntity
  8
03__ASM_ALL_CURVES
100
AcDbLine
 62
40
  6
CONTINUOUS
 10
7.4969231926
 20
4.1951929375
 11
7.5007938315
 21
4.1900320832
  0
LINE
  5
457
100
AcDbEntity
  8
03__ASM_ALL_CURVES
100
AcDbLine
 62
40
  6
CONTINUOUS
 10
6.7513960087
 20
5.1895536482
 11
6.7462351569
 21
5.1964347873
  0
LINE
  5
458
100
AcDbEntity
  8
03__ASM_ALL_CURVES
100
AcDbLine
 62
40
  6
CONTINUOUS
 10
6.8700956013
 20
5.1413856993
 11
6.8649347495
 21
5.1620291067
  0
LINE
  5
459
100
AcDbEntity
  8
0
100
AcDbLine
 62
7
  6
CONTINUOUS
 10
7.12082872
 20
4.44490884
 11
7.12082872
 21
3.79890884
  0
LINE
  5
45A
100
AcDbEntity
  8
03__ASM_ALL_CURVES
100
AcDbLine
 62
40
  6
CONTINUOUS
 10
7.122977342
 20
5.1207422919
 11
7.122977342
 21
5.2033159215
  0
LINE
  5
45B
100
AcDbEntity
  8
0
100
AcDbLine
 62
7
  6
CONTINUOUS
 10
7.14182872
 20
3.77940884
 11
7.14182872
 21
4.46440884
  0
LINE
  5
45C
100
AcDbEntity
  8
0
100
AcDbLine
 62
7
  6
CONTINUOUS
 10
7.19282872
 20
3.77940884
 11
7.19282872
 21
4.46440884
  0
LINE
  5
45D
100
AcDbEntity
  8
03__ASM_ALL_CURVES
100
AcDbLine
 62
40
  6
CONTINUOUS
 10
7.2055509717
 20
5.1207422919
 11
7.2055509717
 21
5.2033159215
  0
LINE
  5
45E
100
AcDbEntity
  8
0
100
AcDbLine
 62
7
  6
CONTINUOUS
 10
7.20882872
 20
3.79540884
 11
7.20882872
 21
4.44840884
  0
LINE
  5
45F
100
AcDbEntity
  8
03__ASM_ALL_CURVES
100
AcDbLine
 62
40
  6
CONTINUOUS
 10
6.8932066158
 20
3.5175871351
 11
6.8970772547
 21
3.5227479894
  0
LINE
  5
460
100
AcDbEntity
  8
03__ASM_ALL_CURVES
100
AcDbLine
 62
40
  6
CONTINUOUS
 10
6.9048185324
 20
3.4917828764
 11
6.8970772547
 21
3.4814611733
  0
LINE
  5
461
100
AcDbEntity
  8
03__ASM_ALL_CURVES
100
AcDbLine
 62
40
  6
CONTINUOUS
 10
6.9241717269
 20
3.5072654338
 11
6.920301088
 21
3.5021045795
  0
LINE
  5
462
100
AcDbEntity
  8
03__ASM_ALL_CURVES
100
AcDbLine
 62
40
  6
CONTINUOUS
 10
7.5007938315
 20
4.179710382
 11
7.4969231926
 21
4.1745495277
  0
LINE
  5
463
100
AcDbEntity
  8
03__ASM_ALL_CURVES
100
AcDbLine
 62
40
  6
CONTINUOUS
 10
7.5278883037
 20
4.1848712326
 11
7.5356295815
 21
4.1951929375
  0
LINE
  5
464
100
AcDbEntity
  8
0
100
AcDbLine
 62
7
  6
CONTINUOUS
 10
7.20882872
 20
3.79540884
 11
7.19282872
 21
3.77940884
  0
LINE
  5
465
100
AcDbEntity
  8
03__ASM_ALL_CURVES
100
AcDbLine
 62
40
  6
CONTINUOUS
 10
6.9733126383
 20
5.1207422919
 11
6.9629909346
 21
5.1276234279
  0
LINE
  5
466
100
AcDbEntity
  8
03__ASM_ALL_CURVES
100
AcDbLine
 62
40
  6
CONTINUOUS
 10
6.9010607124
 20
5.2033159215
 11
6.9113824161
 21
5.1964347873
  0
LINE
  5
467
100
AcDbEntity
  8
03__ASM_ALL_CURVES
100
AcDbLine
 62
40
  6
CONTINUOUS
 10
7.5588534148
 20
4.1951929375
 11
7.5665946926
 21
4.1848712326
  0
LINE
  5
468
100
AcDbEntity
  8
03__ASM_ALL_CURVES
100
AcDbLine
 62
40
  6
CONTINUOUS
 10
6.880417305
 20
5.1276234279
 11
6.8700956013
 21
5.1413856993
  0
LINE
  5
469
100
AcDbEntity
  8
03__ASM_ALL_CURVES
100
AcDbLine
 62
40
  6
CONTINUOUS
 10
7.6207836371
 20
4.1951929375
 11
7.624654276
 21
4.1900320832
  0
LINE
  5
46A
100
AcDbEntity
  8
03__ASM_ALL_CURVES
100
AcDbLine
 62
40
  6
CONTINUOUS
 10
6.9113824161
 20
5.1964347873
 11
6.9217041198
 21
5.1826725141
  0
LINE
  5
46B
100
AcDbEntity
  8
03__ASM_ALL_CURVES
100
AcDbLine
 62
40
  6
CONTINUOUS
 10
6.9629909346
 20
5.1276234279
 11
6.9578300828
 21
5.1345045639
  0
LINE
  5
46C
100
AcDbEntity
  8
03__ASM_ALL_CURVES
100
AcDbLine
 62
40
  6
CONTINUOUS
 10
6.9217041198
 20
5.1826725141
 11
6.9268649717
 21
5.1620291067
  0
LINE
  5
46D
100
AcDbEntity
  8
03__ASM_ALL_CURVES
100
AcDbLine
 62
40
  6
CONTINUOUS
 10
7.2881246013
 20
5.1207422919
 11
7.2881246013
 21
5.2033159215
  0
LINE
  5
46E
100
AcDbEntity
  8
03__ASM_ALL_CURVES
100
AcDbLine
 62
40
  6
CONTINUOUS
 10
7.3294114161
 20
5.1895536482
 11
7.3294114161
 21
5.1757913799
  0
LINE
  5
46F
100
AcDbEntity
  8
03__ASM_ALL_CURVES
100
AcDbLine
 62
40
  6
CONTINUOUS
 10
7.5665946926
 20
4.1539061215
 11
7.5588534148
 21
4.1435844179
  0
LINE
  5
470
100
AcDbEntity
  8
03__ASM_ALL_CURVES
100
AcDbLine
 62
40
  6
CONTINUOUS
 10
7.624654276
 20
4.179710382
 11
7.6207836371
 21
4.1745495277
  0
LINE
  5
471
100
AcDbEntity
  8
03__ASM_ALL_CURVES
100
AcDbLine
 62
40
  6
CONTINUOUS
 10
7.1436207494
 20
5.2033159215
 11
7.1539424531
 21
5.1964347873
  0
LINE
  5
472
100
AcDbEntity
  8
03__ASM_ALL_CURVES
100
AcDbLine
 62
40
  6
CONTINUOUS
 10
7.5162763875
 20
4.1053941141
 11
7.5472414986
 21
4.0434638919
  0
LINE
  5
473
100
AcDbEntity
  8
03__ASM_ALL_CURVES
100
AcDbLine
 62
40
  6
CONTINUOUS
 10
7.1642641568
 20
5.1826725141
 11
7.1694250087
 21
5.1620291067
  0
LINE
  5
474
100
AcDbEntity
  8
03__ASM_ALL_CURVES
100
AcDbLine
 62
40
  6
CONTINUOUS
 10
7.4698287208
 20
4.1053941141
 11
7.4698287208
 21
4.0434638919
  0
LINE
  5
475
100
AcDbEntity
  8
03__ASM_ALL_CURVES
100
AcDbLine
 62
40
  6
CONTINUOUS
 10
7.4698287204
 20
4.1384235659
 11
7.4698287204
 21
4.2003537881
  0
LINE
  5
476
100
AcDbEntity
  8
03__ASM_ALL_CURVES
100
AcDbLine
 62
40
  6
CONTINUOUS
 10
7.5007938315
 20
4.1900320832
 11
7.5007938315
 21
4.179710382
  0
LINE
  5
477
100
AcDbEntity
  8
03__ASM_ALL_CURVES
100
AcDbLine
 62
40
  6
CONTINUOUS
 10
7.5162763875
 20
4.0434638919
 11
7.5162763875
 21
4.1053941141
  0
LINE
  5
478
100
AcDbEntity
  8
03__ASM_ALL_CURVES
100
AcDbLine
 62
40
  6
CONTINUOUS
 10
7.5240176649
 20
4.169388677
 11
7.5278883037
 21
4.1848712326
  0
LINE
  5
479
100
AcDbEntity
  8
03__ASM_ALL_CURVES
100
AcDbLine
 62
40
  6
CONTINUOUS
 10
7.3139288605
 20
5.2033159215
 11
7.3242505642
 21
5.1964347873
  0
LINE
  5
47A
100
AcDbEntity
  8
03__ASM_ALL_CURVES
100
AcDbLine
 62
40
  6
CONTINUOUS
 10
7.1539424531
 20
5.1964347873
 11
7.1642641568
 21
5.1826725141
  0
LINE
  5
47B
100
AcDbEntity
  8
03__ASM_ALL_CURVES
100
AcDbLine
 62
40
  6
CONTINUOUS
 10
7.6130423593
 20
4.169388677
 11
7.624654276
 21
4.1384235659
  0
LINE
  5
47C
100
AcDbEntity
  8
03__ASM_ALL_CURVES
100
AcDbLine
 62
40
  6
CONTINUOUS
 10
7.3139288605
 20
5.1620291067
 11
7.3294114161
 21
5.1207422919
  0
LINE
  5
47D
100
AcDbEntity
  8
03__ASM_ALL_CURVES
100
AcDbLine
 62
40
  6
CONTINUOUS
 10
7.5278883037
 20
4.1539061215
 11
7.5240176649
 21
4.169388677
  0
LINE
  5
47E
100
AcDbEntity
  8
03__ASM_ALL_CURVES
100
AcDbLine
 62
40
  6
CONTINUOUS
 10
7.5665946926
 20
4.1848712326
 11
7.5704653315
 21
4.169388677
  0
LINE
  5
47F
100
AcDbEntity
  8
03__ASM_ALL_CURVES
100
AcDbLine
 62
40
  6
CONTINUOUS
 10
7.5472414986
 20
4.0434638919
 11
7.5472414986
 21
4.1053941141
  0
LINE
  5
480
100
AcDbEntity
  8
03__ASM_ALL_CURVES
100
AcDbLine
 62
40
  6
CONTINUOUS
 10
7.5782066097
 20
4.1053941141
 11
7.5782066097
 21
4.0434638919
  0
LINE
  5
481
100
AcDbEntity
  8
03__ASM_ALL_CURVES
100
AcDbLine
 62
40
  6
CONTINUOUS
 10
7.5936891648
 20
4.1384235659
 11
7.5936891648
 21
4.2003537881
  0
LINE
  5
482
100
AcDbEntity
  8
03__ASM_ALL_CURVES
100
AcDbLine
 62
40
  6
CONTINUOUS
 10
7.624654276
 20
4.1900320832
 11
7.624654276
 21
4.179710382
  0
LINE
  5
483
100
AcDbEntity
  8
03__ASM_ALL_CURVES
100
AcDbLine
 62
40
  6
CONTINUOUS
 10
7.6401368319
 20
4.0434638919
 11
7.6401368319
 21
4.1053941141
  0
LINE
  5
484
100
AcDbEntity
  8
03__ASM_ALL_CURVES
100
AcDbLine
 62
40
  6
CONTINUOUS
 10
7.6711019426
 20
4.2003537881
 11
7.6711019426
 21
4.1384235659
  0
LINE
  5
485
100
AcDbEntity
  8
03__ASM_ALL_CURVES
100
AcDbLine
 62
40
  6
CONTINUOUS
 10
7.5704653315
 20
4.169388677
 11
7.5665946926
 21
4.1539061215
  0
LINE
  5
486
100
AcDbEntity
  8
03__ASM_ALL_CURVES
100
AcDbLine
 62
40
  6
CONTINUOUS
 10
7.3242505642
 20
5.1964347873
 11
7.3294114161
 21
5.1895536482
  0
LINE
  5
487
100
AcDbEntity
  8
03__ASM_ALL_CURVES
100
AcDbLine
 62
40
  6
CONTINUOUS
 10
7.7175496097
 20
4.1053941141
 11
7.7175496097
 21
4.0434638919
  0
LINE
  5
488
100
AcDbEntity
  8
03__ASM_ALL_CURVES
100
AcDbLine
 62
40
  6
CONTINUOUS
 10
7.7330321648
 20
4.2003537881
 11
7.7330321648
 21
4.1384235659
  0
ARC
  5
489
100
AcDbEntity
  8
0
100
AcDbCircle
 62
7
  6
CONTINUOUS
 10
5.36882872
 20
3.73490884
 40
0.013
100
AcDbArc
 50
0.0000000041
 51
90.0
  0
ARC
  5
48A
100
AcDbEntity
  8
0
100
AcDbCircle
 62
7
  6
CONTINUOUS
 10
5.36882872
 20
4.50890884
 40
0.013
100
AcDbArc
 50
270.0
 51
359.9999999985
  0
ARC
  5
48B
100
AcDbEntity
  8
0
100
AcDbCircle
 62
7
  6
CONTINUOUS
 10
6.0143231665
 20
3.75840884
 40
0.013
100
AcDbArc
 50
29.9999999851
 51
90.0
  0
ARC
  5
48C
100
AcDbEntity
  8
0
100
AcDbCircle
 62
7
  6
CONTINUOUS
 10
6.0143231665
 20
4.48540884
 40
0.013
100
AcDbArc
 50
270.0
 51
330.0000000002
  0
ARC
  5
48D
100
AcDbEntity
  8
0
100
AcDbCircle
 62
7
  6
CONTINUOUS
 10
4.28382872
 20
4.47990884
 40
0.008
100
AcDbArc
 50
270.0
 51
360.0
  0
ARC
  5
48E
100
AcDbEntity
  8
0
100
AcDbCircle
 62
7
  6
CONTINUOUS
 10
4.26182872
 20
4.47990884
 40
0.008
100
AcDbArc
 50
180.0
 51
270.0
  0
ARC
  5
48F
100
AcDbEntity
  8
0
100
AcDbCircle
 62
7
  6
CONTINUOUS
 10
4.28382872
 20
3.76390884
 40
0.008
100
AcDbArc
 50
0.0
 51
90.0
  0
ARC
  5
490
100
AcDbEntity
  8
0
100
AcDbCircle
 62
7
  6
CONTINUOUS
 10
4.26182872
 20
3.76390884
 40
0.008
100
AcDbArc
 50
90.0
 51
180.0
  0
ARC
  5
491
100
AcDbEntity
  8
0
100
AcDbCircle
 62
7
  6
CONTINUOUS
 10
5.8595511519
 20
3.71190884
 40
0.005
100
AcDbArc
 50
90.0
 51
120.0000000002
  0
ARC
  5
492
100
AcDbEntity
  8
0
100
AcDbCircle
 62
7
  6
CONTINUOUS
 10
5.8595511519
 20
4.53190884
 40
0.005
100
AcDbArc
 50
239.9999999998
 51
270.0
  0
ARC
  5
493
100
AcDbEntity
  8
0
100
AcDbCircle
 62
7
  6
CONTINUOUS
 10
5.83982872
 20
3.7005220887
 40
0.005
100
AcDbArc
 50
120.0000000147
 51
179.9999999996
  0
ARC
  5
494
100
AcDbEntity
  8
0
100
AcDbCircle
 62
7
  6
CONTINUOUS
 10
5.83982872
 20
4.5432955913
 40
0.005
100
AcDbArc
 50
180.0000000005
 51
239.9999999827
  0
ARC
  5
495
100
AcDbEntity
  8
0
100
AcDbCircle
 62
7
  6
CONTINUOUS
 10
4.29682872
 20
4.49040884
 40
0.005
100
AcDbArc
 50
90.0
 51
180.0
  0
ARC
  5
496
100
AcDbEntity
  8
0
100
AcDbCircle
 62
7
  6
CONTINUOUS
 10
4.24882872
 20
4.49040884
 40
0.005
100
AcDbArc
 50
0.0
 51
90.0
  0
ARC
  5
497
100
AcDbEntity
  8
0
100
AcDbCircle
 62
7
  6
CONTINUOUS
 10
4.29682872
 20
3.75340884
 40
0.005
100
AcDbArc
 50
180.0
 51
270.0
  0
ARC
  5
498
100
AcDbEntity
  8
0
100
AcDbCircle
 62
7
  6
CONTINUOUS
 10
4.24882872
 20
3.75340884
 40
0.005
100
AcDbArc
 50
270.0
 51
360.0
  0
ARC
  5
499
100
AcDbEntity
  8
0
100
AcDbCircle
 62
7
  6
CONTINUOUS
 10
6.88232872
 20
3.84840884
 40
0.003
100
AcDbArc
 50
0.0
 51
90.0
  0
ARC
  5
49A
100
AcDbEntity
  8
0
100
AcDbCircle
 62
7
  6
CONTINUOUS
 10
6.87332872
 20
3.84840884
 40
0.003
100
AcDbArc
 50
90.0
 51
180.0
  0
ARC
  5
49B
100
AcDbEntity
  8
0
100
AcDbCircle
 62
7
  6
CONTINUOUS
 10
6.88232872
 20
4.39540884
 40
0.003
100
AcDbArc
 50
270.0
 51
360.0
  0
ARC
  5
49C
100
AcDbEntity
  8
0
100
AcDbCircle
 62
7
  6
CONTINUOUS
 10
6.87332872
 20
4.39540884
 40
0.003
100
AcDbArc
 50
180.0
 51
270.0
  0
ARC
  5
49D
100
AcDbEntity
  8
0
100
AcDbCircle
 62
7
  6
CONTINUOUS
 10
5.83182872
 20
3.69740884
 40
0.003
100
AcDbArc
 50
270.0
 51
360.0
  0
ARC
  5
49E
100
AcDbEntity
  8
0
100
AcDbCircle
 62
7
  6
CONTINUOUS
 10
5.83182872
 20
4.54640884
 40
0.003
100
AcDbArc
 50
0.0
 51
90.0
  0
SPLINE
  5
49F
100
AcDbEntity
  8
0
100
AcDbSpline
 62
7
  6
CONTINUOUS
 70
0
 71
3
 72
15
 73
11
 74
9
 42
0.0000001
 43
0.0000001
 44
0.0000000001
 12
0.0
 22
0.1099409465
 32
0.0
 13
0.0
 23
-0.1099409465
 33
0.0
 40
0.0
 40
0.0
 40
0.0
 40
0.0
 40
0.125
 40
0.25
 40
0.375
 40
0.5
 40
0.625
 40
0.75
 40
0.875
 40
1.0
 40
1.0
 40
1.0
 40
1.0
 10
7.12082872
 20
4.44490884
 30
0.0
 10
7.12082872
 20
4.4494897128
 30
0.0
 10
7.1190063355
 20
4.4586514583
 30
0.0
 10
7.1112217676
 20
4.4703018876
 30
0.0
 10
7.0995713383
 20
4.4780864555
 30
0.0
 10
7.08582872
 20
4.4808200322
 30
0.0
 10
7.0720861017
 20
4.4780864555
 30
0.0
 10
7.0604356724
 20
4.4703018876
 30
0.0
 10
7.0526511045
 20
4.4586514583
 30
0.0
 10
7.05082872
 20
4.4494897128
 30
0.0
 10
7.05082872
 20
4.44490884
 30
0.0
 11
7.12082872
 21
4.44490884
 31
0.0
 11
7.1181645036
 21
4.4583027601
 31
0.0
 11
7.1105774573
 21
4.4696575773
 31
0.0
 11
7.0992226401
 21
4.4772446236
 31
0.0
 11
7.08582872
 21
4.47990884
 31
0.0
 11
7.0724347999
 21
4.4772446236
 31
0.0
 11
7.0610799827
 21
4.4696575773
 31
0.0
 11
7.0534929364
 21
4.4583027601
 31
0.0
 11
7.05082872
 21
4.44490884
 31
0.0
  0
SPLINE
  5
4A0
100
AcDbEntity
  8
0
100
AcDbSpline
 62
7
  6
CONTINUOUS
 70
0
 71
3
 72
15
 73
11
 74
9
 42
0.0000001
 43
0.0000001
 44
0.0000000001
 12
0.0
 22
-0.1099409465
 32
0.0
 13
0.0
 23
0.1099409465
 33
0.0
 40
0.0
 40
0.0
 40
0.0
 40
0.0
 40
0.125
 40
0.25
 40
0.375
 40
0.5
 40
0.625
 40
0.75
 40
0.875
 40
1.0
 40
1.0
 40
1.0
 40
1.0
 10
7.12082872
 20
3.79890884
 30
0.0
 10
7.12082872
 20
3.7943279672
 30
0.0
 10
7.1190063355
 20
3.7851662217
 30
0.0
 10
7.1112217676
 20
3.7735157924
 30
0.0
 10
7.0995713383
 20
3.7657312245
 30
0.0
 10
7.08582872
 20
3.7629976478
 30
0.0
 10
7.0720861017
 20
3.7657312245
 30
0.0
 10
7.0604356724
 20
3.7735157924
 30
0.0
 10
7.0526511045
 20
3.7851662217
 30
0.0
 10
7.05082872
 20
3.7943279672
 30
0.0
 10
7.05082872
 20
3.79890884
 30
0.0
 11
7.12082872
 21
3.79890884
 31
0.0
 11
7.1181645036
 21
3.7855149199
 31
0.0
 11
7.1105774573
 21
3.7741601027
 31
0.0
 11
7.0992226401
 21
3.7665730564
 31
0.0
 11
7.08582872
 21
3.76390884
 31
0.0
 11
7.0724347999
 21
3.7665730564
 31
0.0
 11
7.0610799827
 21
3.7741601027
 31
0.0
 11
7.0534929364
 21
3.7855149199
 31
0.0
 11
7.05082872
 21
3.79890884
 31
0.0
  0
SPLINE
  5
4A1
100
AcDbEntity
  8
0
100
AcDbSpline
 62
7
  6
CONTINUOUS
 70
0
 71
3
 72
15
 73
11
 74
9
 42
0.0000001
 43
0.0000001
 44
0.0000000001
 12
0.0
 22
0.1099409465
 32
0.0
 13
0.0
 23
-0.1099409465
 33
0.0
 40
0.0
 40
0.0
 40
0.0
 40
0.0
 40
0.125
 40
0.25
 40
0.375
 40
0.5
 40
0.625
 40
0.75
 40
0.875
 40
1.0
 40
1.0
 40
1.0
 40
1.0
 10
5.36082872
 20
4.53090884
 30
0.0
 10
5.36082872
 20
4.5354897128
 30
0.0
 10
5.3590063355
 20
4.5446514583
 30
0.0
 10
5.3512217676
 20
4.5563018876
 30
0.0
 10
5.3395713383
 20
4.5640864555
 30
0.0
 10
5.32582872
 20
4.5668200322
 30
0.0
 10
5.3120861017
 20
4.5640864555
 30
0.0
 10
5.3004356724
 20
4.5563018876
 30
0.0
 10
5.2926511045
 20
4.5446514583
 30
0.0
 10
5.29082872
 20
4.5354897128
 30
0.0
 10
5.29082872
 20
4.53090884
 30
0.0
 11
5.36082872
 21
4.53090884
 31
0.0
 11
5.3581645036
 21
4.5443027601
 31
0.0
 11
5.3505774573
 21
4.5556575773
 31
0.0
 11
5.3392226401
 21
4.5632446236
 31
0.0
 11
5.32582872
 21
4.56590884
 31
0.0
 11
5.3124347999
 21
4.5632446236
 31
0.0
 11
5.3010799827
 21
4.5556575773
 31
0.0
 11
5.2934929364
 21
4.5443027601
 31
0.0
 11
5.29082872
 21
4.53090884
 31
0.0
  0
SPLINE
  5
4A2
100
AcDbEntity
  8
0
100
AcDbSpline
 62
7
  6
CONTINUOUS
 70
0
 71
3
 72
15
 73
11
 74
9
 42
0.0000001
 43
0.0000001
 44
0.0000000001
 12
0.0
 22
-0.1099409465
 32
0.0
 13
0.0
 23
0.1099409465
 33
0.0
 40
0.0
 40
0.0
 40
0.0
 40
0.0
 40
0.125
 40
0.25
 40
0.375
 40
0.5
 40
0.625
 40
0.75
 40
0.875
 40
1.0
 40
1.0
 40
1.0
 40
1.0
 10
5.36082872
 20
3.71290884
 30
0.0
 10
5.36082872
 20
3.7083279672
 30
0.0
 10
5.3590063355
 20
3.6991662217
 30
0.0
 10
5.3512217676
 20
3.6875157924
 30
0.0
 10
5.3395713383
 20
3.6797312245
 30
0.0
 10
5.32582872
 20
3.6769976478
 30
0.0
 10
5.3120861017
 20
3.6797312245
 30
0.0
 10
5.3004356724
 20
3.6875157924
 30
0.0
 10
5.2926511045
 20
3.6991662217
 30
0.0
 10
5.29082872
 20
3.7083279672
 30
0.0
 10
5.29082872
 20
3.71290884
 30
0.0
 11
5.36082872
 21
3.71290884
 31
0.0
 11
5.3581645036
 21
3.6995149199
 31
0.0
 11
5.3505774573
 21
3.6881601027
 31
0.0
 11
5.3392226401
 21
3.6805730564
 31
0.0
 11
5.32582872
 21
3.67790884
 31
0.0
 11
5.3124347999
 21
3.6805730564
 31
0.0
 11
5.3010799827
 21
3.6881601027
 31
0.0
 11
5.2934929364
 21
3.6995149199
 31
0.0
 11
5.29082872
 21
3.71290884
 31
0.0
  0
SPLINE
  5
4A3
100
AcDbEntity
  8
0
100
AcDbSpline
 62
7
  6
CONTINUOUS
 70
0
 71
3
 72
15
 73
11
 74
9
 42
0.0000001
 43
0.0000001
 44
0.0000000001
 12
0.0
 22
0.1099409465
 32
0.0
 13
0.0
 23
-0.1099409465
 33
0.0
 40
0.0
 40
0.0
 40
0.0
 40
0.0
 40
0.125
 40
0.25
 40
0.375
 40
0.5
 40
0.625
 40
0.75
 40
0.875
 40
1.0
 40
1.0
 40
1.0
 40
1.0
 10
5.95182872
 20
4.53090884
 30
0.0
 10
5.95182872
 20
4.5354897128
 30
0.0
 10
5.9500063355
 20
4.5446514583
 30
0.0
 10
5.9422217676
 20
4.5563018876
 30
0.0
 10
5.9305713383
 20
4.5640864555
 30
0.0
 10
5.91682872
 20
4.5668200322
 30
0.0
 10
5.9030861017
 20
4.5640864555
 30
0.0
 10
5.8914356724
 20
4.5563018876
 30
0.0
 10
5.8836511045
 20
4.5446514583
 30
0.0
 10
5.88182872
 20
4.5354897128
 30
0.0
 10
5.88182872
 20
4.53090884
 30
0.0
 11
5.95182872
 21
4.53090884
 31
0.0
 11
5.9491645036
 21
4.5443027601
 31
0.0
 11
5.9415774573
 21
4.5556575773
 31
0.0
 11
5.9302226401
 21
4.5632446236
 31
0.0
 11
5.91682872
 21
4.56590884
 31
0.0
 11
5.9034347999
 21
4.5632446236
 31
0.0
 11
5.8920799827
 21
4.5556575773
 31
0.0
 11
5.8844929364
 21
4.5443027601
 31
0.0
 11
5.88182872
 21
4.53090884
 31
0.0
  0
SPLINE
  5
4A4
100
AcDbEntity
  8
0
100
AcDbSpline
 62
7
  6
CONTINUOUS
 70
0
 71
3
 72
15
 73
11
 74
9
 42
0.0000001
 43
0.0000001
 44
0.0000000001
 12
0.0
 22
-0.1099409465
 32
0.0
 13
0.0
 23
0.1099409465
 33
0.0
 40
0.0
 40
0.0
 40
0.0
 40
0.0
 40
0.125
 40
0.25
 40
0.375
 40
0.5
 40
0.625
 40
0.75
 40
0.875
 40
1.0
 40
1.0
 40
1.0
 40
1.0
 10
5.95182872
 20
3.71290884
 30
0.0
 10
5.95182872
 20
3.7083279672
 30
0.0
 10
5.9500063355
 20
3.6991662217
 30
0.0
 10
5.9422217676
 20
3.6875157924
 30
0.0
 10
5.9305713383
 20
3.6797312245
 30
0.0
 10
5.91682872
 20
3.6769976478
 30
0.0
 10
5.9030861017
 20
3.6797312245
 30
0.0
 10
5.8914356724
 20
3.6875157924
 30
0.0
 10
5.8836511045
 20
3.6991662217
 30
0.0
 10
5.88182872
 20
3.7083279672
 30
0.0
 10
5.88182872
 20
3.71290884
 30
0.0
 11
5.95182872
 21
3.71290884
 31
0.0
 11
5.9491645036
 21
3.6995149199
 31
0.0
 11
5.9415774573
 21
3.6881601027
 31
0.0
 11
5.9302226401
 21
3.6805730564
 31
0.0
 11
5.91682872
 21
3.67790884
 31
0.0
 11
5.9034347999
 21
3.6805730564
 31
0.0
 11
5.8920799827
 21
3.6881601027
 31
0.0
 11
5.8844929364
 21
3.6995149199
 31
0.0
 11
5.88182872
 21
3.71290884
 31
0.0
  0
SPLINE
  5
4A5
100
AcDbEntity
  8
0
100
AcDbSpline
 62
7
  6
CONTINUOUS
 70
0
 71
3
 72
12
 73
8
 74
6
 42
0.0000001
 43
0.0000001
 44
0.0000000001
 12
-0.0008542445
 22
0.1412302776
 32
0.0
 13
-0.0446617522
 23
0.1339852565
 33
0.0
 40
0.0
 40
0.0
 40
0.0
 40
0.0
 40
0.1928502432
 40
0.386496632
 40
0.5833126522
 40
0.7863661665
 40
1.0
 40
1.0
 40
1.0
 40
1.0
 10
4.1478242985
 20
4.264536393
 30
0.0
 10
4.1477693847
 20
4.2736151574
 30
0.0
 10
4.1469611836
 20
4.2918122478
 30
0.0
 10
4.1437873368
 20
4.3191102642
 30
0.0
 10
4.1386767279
 20
4.3466006328
 30
0.0
 10
4.1316736303
 20
4.3746365807
 30
0.0
 10
4.1258944037
 20
4.3933928222
 30
0.0
 10
4.1227139833
 20
4.4029340835
 30
0.0
 11
4.1478242985
 21
4.264536393
 31
0.0
 11
4.1466404917
 21
4.2917474462
 31
0.0
 11
4.1435001774
 21
4.3189157918
 31
0.0
 11
4.1384587868
 21
4.3462516922
 31
0.0
 11
4.1315515314
 21
4.3740852635
 31
0.0
 11
4.1227139833
 21
4.4029340835
 31
0.0
  0
SPLINE
  5
4A6
100
AcDbEntity
  8
0
100
AcDbSpline
 62
7
  6
CONTINUOUS
 70
0
 71
3
 72
12
 73
8
 74
6
 42
0.0000001
 43
0.0000001
 44
0.0000000001
 12
-0.0005971608
 22
0.1418021338
 32
0.0
 13
-0.0448421696
 23
0.1345265089
 33
0.0
 40
0.0
 40
0.0
 40
0.0
 40
0.0
 40
0.1924730046
 40
0.3862198908
 40
0.583116988
 40
0.7862455639
 40
1.0
 40
1.0
 40
1.0
 40
1.0
 10
4.1478260375
 20
3.98294023
 30
0.0
 10
4.1477877251
 20
3.9920379242
 30
0.0
 10
4.1470019452
 20
4.0102967754
 30
0.0
 10
4.1438488727
 20
4.0376997997
 30
0.0
 10
4.1387358486
 20
4.0653172329
 30
0.0
 10
4.1317124197
 20
4.0934820715
 30
0.0
 10
4.1259090542
 20
4.1123236273
 30
0.0
 10
4.1227139833
 20
4.12190884
 30
0.0
 11
4.1478260375
 21
3.98294023
 31
0.0
 11
4.1466810276
 21
4.0102095265
 31
0.0
 11
4.1435580456
 21
4.0375054192
 31
0.0
 11
4.1385150622
 21
4.0649668918
 31
0.0
 11
4.1315887548
 21
4.0929260615
 31
0.0
 11
4.1227139833
 21
4.12190884
 31
0.0
  0
SPLINE
  5
4A7
100
AcDbEntity
  8
0
100
AcDbSpline
 62
7
  6
CONTINUOUS
 70
0
 71
3
 72
16
 73
12
 74
10
 42
0.0000001
 43
0.0000001
 44
0.0000000001
 12
-0.0906561768
 22
-0.2719685305
 32
0.0
 13
0.0906561768
 23
-0.2719685305
 33
0.0
 40
0.0
 40
0.0
 40
0.0
 40
0.0
 40
0.1184536949
 40
0.2305643358
 40
0.3393084417
 40
0.4465957431
 40
0.5535016267
 40
0.6607807045
 40
0.7695058147
 40
0.8815670806
 40
1.0
 40
1.0
 40
1.0
 40
1.0
 10
3.9553866395
 20
4.12190884
 30
0.0
 10
3.9518071198
 20
4.1111702809
 30
0.0
 10
3.945375478
 20
4.0900824329
 30
0.0
 10
3.9378553635
 20
4.0585185946
 30
0.0
 10
3.932766647
 20
4.0275469028
 30
0.0
 10
3.9301795355
 20
3.9967609648
 30
0.0
 10
3.9301807228
 20
3.9660043169
 30
0.0
 10
3.9327698094
 20
3.9352211679
 30
0.0
 10
3.9378590285
 20
3.9042569992
 30
0.0
 10
3.9453779694
 20
3.8727016718
 30
0.0
 10
3.9518077476
 20
3.8516202722
 30
0.0
 10
3.9553866395
 20
3.8408835965
 30
0.0
 11
3.9553866395
 21
4.12190884
 31
0.0
 11
3.9455473743
 21
4.0894072188
 31
0.0
 11
3.9381595082
 21
4.0581279726
 31
0.0
 11
3.9331544028
 21
4.0273576197
 31
0.0
 11
3.9306071931
 21
3.9967061533
 31
0.0
 11
3.9306083623
 21
3.9660583743
 31
0.0
 11
3.9331575434
 21
3.9354094375
 31
0.0
 11
3.9381634636
 21
3.9046447345
 31
0.0
 11
3.9455489299
 21
3.8733794657
 31
0.0
 11
3.9553866395
 21
3.8408835965
 31
0.0
  0
SPLINE
  5
4A8
100
AcDbEntity
  8
0
100
AcDbSpline
 62
7
  6
CONTINUOUS
 70
0
 71
3
 72
12
 73
8
 74
6
 42
0.0000001
 43
0.0000001
 44
0.0000000001
 12
0.0446970127
 22
0.1340910382
 32
0.0
 13
0.0007756416
 23
0.1413422367
 33
0.0
 40
0.0
 40
0.0
 40
0.0
 40
0.0
 40
0.2137320188
 40
0.4169249561
 40
0.6138415602
 40
0.8075641977
 40
1.0
 40
1.0
 40
1.0
 40
1.0
 10
4.1227139833
 20
3.8408835965
 30
0.0
 10
4.1258983775
 20
3.8504367792
 30
0.0
 10
4.1316849472
 20
3.8692187219
 30
0.0
 10
4.1386942032
 20
3.8972931268
 30
0.0
 10
4.1438055296
 20
3.9248210807
 30
0.0
 10
4.1469708368
 20
3.9521306536
 30
0.0
 10
4.1477736237
 20
3.9703264828
 30
0.0
 10
4.1478233775
 20
3.9793929184
 30
0.0
 11
4.1227139833
 21
3.8408835965
 31
0.0
 11
4.1315616313
 21
3.8697687507
 31
0.0
 11
4.1384757706
 21
3.8976442458
 31
0.0
 11
4.1435174915
 21
3.9250168571
 31
0.0
 11
4.1466522812
 21
3.9522184248
 31
0.0
 11
4.1478233775
 21
3.9793929184
 31
0.0
  0
SPLINE
  5
4A9
100
AcDbEntity
  8
0
100
AcDbSpline
 62
7
  6
CONTINUOUS
 70
0
 71
3
 72
12
 73
8
 74
6
 42
0.0000001
 43
0.0000001
 44
0.0000000001
 12
0.0448794702
 22
0.1346384107
 32
0.0
 13
0.0005711002
 23
0.141920197
 33
0.0
 40
0.0
 40
0.0
 40
0.0
 40
0.0
 40
0.2136409517
 40
0.4167160065
 40
0.6135242662
 40
0.8071571603
 40
1.0
 40
1.0
 40
1.0
 40
1.0
 10
4.1227139833
 20
4.12190884
 30
0.0
 10
4.1259100142
 20
4.1314969327
 30
0.0
 10
4.1317157533
 20
4.1503466518
 30
0.0
 10
4.1387411579
 20
4.1785234249
 30
0.0
 10
4.1438542904
 20
4.2061522766
 30
0.0
 10
4.14700806
 20
4.2335862975
 30
0.0
 10
4.1477911974
 20
4.2518726603
 30
0.0
 10
4.1478279083
 20
4.2609954249
 30
0.0
 11
4.1227139833
 21
4.12190884
 31
0.0
 11
4.1315911928
 21
4.1509003969
 31
0.0
 11
4.1385204538
 21
4.1788756938
 31
0.0
 11
4.143563392
 21
4.2063479691
 31
0.0
 11
4.1466843686
 21
4.2336508102
 31
0.0
 11
4.1478279083
 21
4.2609954249
 31
0.0
  0
SPLINE
  5
4AA
100
AcDbEntity
  8
0
100
AcDbSpline
 62
7
  6
CONTINUOUS
 70
0
 71
3
 72
16
 73
12
 74
10
 42
0.0000001
 43
0.0000001
 44
0.0000000001
 12
-0.0906561768
 22
-0.2719685305
 32
0.0
 13
0.0906561768
 23
-0.2719685305
 33
0.0
 40
0.0
 40
0.0
 40
0.0
 40
0.0
 40
0.1184536949
 40
0.2305643358
 40
0.3393084417
 40
0.4465957431
 40
0.5535016267
 40
0.6607807045
 40
0.7695058147
 40
0.8815670806
 40
1.0
 40
1.0
 40
1.0
 40
1.0
 10
3.9553866395
 20
4.4029340835
 30
0.0
 10
3.9518071198
 20
4.3921955244
 30
0.0
 10
3.945375478
 20
4.3711076764
 30
0.0
 10
3.9378553635
 20
4.3395438381
 30
0.0
 10
3.932766647
 20
4.3085721463
 30
0.0
 10
3.9301795355
 20
4.2777862083
 30
0.0
 10
3.9301807228
 20
4.2470295604
 30
0.0
 10
3.9327698094
 20
4.2162464115
 30
0.0
 10
3.9378590285
 20
4.1852822427
 30
0.0
 10
3.9453779694
 20
4.1537269153
 30
0.0
 10
3.9518077476
 20
4.1326455157
 30
0.0
 10
3.9553866395
 20
4.12190884
 30
0.0
 11
3.9553866395
 21
4.4029340835
 31
0.0
 11
3.9455473743
 21
4.3704324623
 31
0.0
 11
3.9381595082
 21
4.3391532161
 31
0.0
 11
3.9331544028
 21
4.3083828632
 31
0.0
 11
3.9306071931
 21
4.2777313968
 31
0.0
 11
3.9306083623
 21
4.2470836178
 31
0.0
 11
3.9331575434
 21
4.216434681
 31
0.0
 11
3.9381634636
 21
4.185669978
 31
0.0
 11
3.9455489299
 21
4.1544047092
 31
0.0
 11
3.9553866395
 21
4.12190884
 31
0.0
  0
SPLINE
  5
4AB
100
AcDbEntity
  8
0
100
AcDbSpline
 62
7
  6
CONTINUOUS
 70
0
 71
3
 72
11
 73
7
 74
5
 42
0.0000001
 43
0.0000001
 44
0.0000000001
 12
-0.0438077833
 22
-0.0009964278
 32
0.0
 13
-0.0423963287
 23
0.0110433007
 33
0.0
 40
0.0
 40
0.0
 40
0.0
 40
0.0
 40
0.2371985955
 40
0.5608646555
 40
0.8740125071
 40
1.0
 40
1.0
 40
1.0
 40
1.0
 10
6.6402072566
 20
4.2701317037
 30
0.0
 10
6.6367435417
 20
4.27005292
 30
0.0
 10
6.628546843
 20
4.2701531429
 30
0.0
 10
6.6158243629
 20
4.2713651751
 30
0.0
 10
6.6048619294
 20
4.2734049858
 30
0.0
 10
6.5986314375
 20
4.2749272668
 30
0.0
 10
6.5968509685
 20
4.2753910394
 30
0.0
 11
6.6402072566
 21
4.2701317037
 31
0.0
 11
6.6298163303
 21
4.2702588774
 31
0.0
 11
6.6157017096
 21
4.2715915396
 31
0.0
 11
6.6022131029
 21
4.2740824282
 31
0.0
 11
6.5968509685
 21
4.2753910394
 31
0.0
  0
SPLINE
  5
4AC
100
AcDbEntity
  8
0
100
AcDbSpline
 62
7
  6
CONTINUOUS
 70
0
 71
3
 72
9
 73
5
 74
3
 42
0.0000001
 43
0.0000001
 44
0.0000000001
 12
-0.0100459406
 22
0.0026167441
 32
0.0
 13
-0.009888246
 23
0.0031583001
 33
0.0
 40
0.0
 40
0.0
 40
0.0
 40
0.0
 40
0.6694786157
 40
1.0
 40
1.0
 40
1.0
 40
1.0
 10
6.5968509685
 20
4.2753910394
 30
0.0
 10
6.594609121
 20
4.2759749908
 30
0.0
 10
6.5912771763
 20
4.2769112536
 30
0.0
 10
6.5879721005
 20
4.2779359577
 30
0.0
 10
6.5868826749
 20
4.2782839196
 30
0.0
 11
6.5968509685
 21
4.2753910394
 31
0.0
 11
6.5901598322
 21
4.2772682462
 31
0.0
 11
6.5868826749
 21
4.2782839196
 31
0.0
  0
SPLINE
  5
4AD
100
AcDbEntity
  8
0
100
AcDbSpline
 62
7
  6
CONTINUOUS
 70
0
 71
3
 72
9
 73
5
 74
3
 42
0.0000001
 43
0.0000001
 44
0.0000000001
 12
0.0099094831
 22
0.0031664725
 32
0.0
 13
0.010067885
 23
0.0026226367
 33
0.0
 40
0.0
 40
0.0
 40
0.0
 40
0.0
 40
0.3175444547
 40
1.0
 40
1.0
 40
1.0
 40
1.0
 10
6.58685823
 20
3.9655259512
 30
0.0
 10
6.5879071305
 20
3.9658611164
 30
0.0
 10
6.5912189729
 20
3.9668895371
 30
0.0
 10
6.5945578311
 20
3.9678292903
 30
0.0
 10
6.5968481257
 20
3.9684259013
 30
0.0
 11
6.58685823
 21
3.9655259512
 31
0.0
 11
6.590013169
 21
3.9665053143
 31
0.0
 11
6.5968481257
 21
3.9684259013
 31
0.0
  0
SPLINE
  5
4AE
100
AcDbEntity
  8
0
100
AcDbSpline
 62
7
  6
CONTINUOUS
 70
0
 71
3
 72
11
 73
7
 74
5
 42
0.0000001
 43
0.0000001
 44
0.0000000001
 12
0.0423974787
 22
0.0110443437
 32
0.0
 13
0.0438091183
 23
-0.0009959862
 33
0.0
 40
0.0
 40
0.0
 40
0.0
 40
0.0
 40
0.1229515278
 40
0.4366448789
 40
0.7609231492
 40
1.0
 40
1.0
 40
1.0
 40
1.0
 10
6.5968481257
 20
3.9684259013
 30
0.0
 10
6.5985857373
 20
3.9688785409
 30
0.0
 10
6.6047804783
 20
3.970394593
 30
0.0
 10
6.6157147314
 20
3.9724377474
 30
0.0
 10
6.6284810735
 20
3.9736623146
 30
0.0
 10
6.6367144773
 20
3.9737653876
 30
0.0
 10
6.640205726
 20
3.9736860152
 30
0.0
 11
6.5968481257
 21
3.9684259013
 31
0.0
 11
6.602080719
 21
3.9697050832
 31
0.0
 11
6.6155913659
 21
3.972210526
 31
0.0
 11
6.6297322651
 21
3.9735548051
 31
0.0
 11
6.640205726
 21
3.9736860152
 31
0.0
  0
SPLINE
  5
4AF
100
AcDbEntity
  8
0
100
AcDbSpline
 62
7
  6
CONTINUOUS
 70
0
 71
3
 72
13
 73
9
 74
7
 42
0.0000001
 43
0.0000001
 44
0.0000000001
 12
-0.0994679135
 22
0.0
 32
0.0
 13
-0.0287045295
 23
-0.0954567674
 33
0.0
 40
0.0
 40
0.0
 40
0.0
 40
0.0
 40
0.1731345602
 40
0.3481311522
 40
0.5247243008
 40
0.6999201226
 40
0.8695273429
 40
1.0
 40
1.0
 40
1.0
 40
1.0
 10
6.59782872
 20
4.0547403651
 30
0.0
 10
6.5920882755
 20
4.0547403651
 30
0.0
 10
6.5805050859
 20
4.0534387533
 30
0.0
 10
6.5639446901
 20
4.0476808763
 30
0.0
 10
6.5489608107
 20
4.0384394458
 30
0.0
 10
6.5364191518
 20
4.0263501567
 30
0.0
 10
6.5275910561
 20
4.0131469289
 30
0.0
 10
6.5238004956
 20
4.0038774398
 30
0.0
 10
6.5225521102
 20
3.9997259405
 30
0.0
 11
6.59782872
 21
4.0547403651
 31
0.0
 11
6.5807144769
 21
4.0528228118
 31
0.0
 11
6.5642665019
 21
4.0471261498
 31
0.0
 11
6.5493102261
 21
4.0379146675
 31
0.0
 11
6.5367724789
 21
4.0258116507
 31
0.0
 11
6.527433844
 21
4.0117616376
 31
0.0
 11
6.5225521102
 21
3.9997259405
 31
0.0
  0
SPLINE
  5
4B0
100
AcDbEntity
  8
0
100
AcDbSpline
 62
7
  6
CONTINUOUS
 70
0
 71
3
 72
14
 73
10
 74
8
 42
0.0000001
 43
0.0000001
 44
0.0000000001
 12
0.1177589026
 22
0.0
 32
0.0
 13
-0.0000210741
 23
0.11807347
 33
0.0
 40
0.0
 40
0.0
 40
0.0
 40
0.0
 40
0.1462423584
 40
0.2940574656
 40
0.4432211227
 40
0.591204498
 40
0.734467325
 40
0.870692261
 40
1.0
 40
1.0
 40
1.0
 40
1.0
 10
6.59782872
 20
4.1890773149
 30
0.0
 10
6.6035691665
 20
4.1890773149
 30
0.0
 10
6.6151523579
 20
4.1903789274
 30
0.0
 10
6.6317127538
 20
4.1961368058
 30
0.0
 10
6.6466966306
 20
4.2053782355
 30
0.0
 10
6.6592382872
 20
4.2174675224
 30
0.0
 10
6.6686385281
 20
4.2315264449
 30
0.0
 10
6.6744567078
 20
4.2466307533
 30
0.0
 10
6.6758296285
 20
4.2570695756
 30
0.0
 10
6.6758287202
 20
4.2621588467
 30
0.0
 11
6.59782872
 21
4.1890773149
 31
0.0
 11
6.6149429691
 21
4.1909948696
 31
0.0
 11
6.6313909427
 21
4.1966915324
 31
0.0
 11
6.6463472152
 21
4.2059030135
 31
0.0
 11
6.6588849602
 21
4.2180060283
 31
0.0
 11
6.668223594
 21
4.2320560386
 31
0.0
 11
6.6739218386
 21
4.247051575
 31
0.0
 11
6.6758287202
 21
4.2621588467
 31
0.0
  0
SPLINE
  5
4B1
100
AcDbEntity
  8
0
100
AcDbSpline
 62
7
  6
CONTINUOUS
 70
0
 71
3
 72
13
 73
9
 74
7
 42
0.0000001
 43
0.0000001
 44
0.0000000001
 12
0.0882144429
 22
0.0
 32
0.0
 13
0.0341860429
 23
0.0816540871
 33
0.0
 40
0.0
 40
0.0
 40
0.0
 40
0.0
 40
0.1846543413
 40
0.3826411455
 40
0.5740868203
 40
0.7486227521
 40
0.913118262
 40
1.0
 40
1.0
 40
1.0
 40
1.0
 10
6.59782872
 20
3.9647259265
 30
0.0
 10
6.6032584466
 20
3.9647259265
 30
0.0
 10
6.6145246546
 20
3.9654820978
 30
0.0
 10
6.6310900838
 20
3.9690969475
 30
0.0
 10
6.6464912832
 20
3.9755506967
 30
0.0
 10
6.6593169718
 20
3.9846910586
 30
0.0
 10
6.6674029746
 20
3.9944611833
 30
0.0
 10
6.6707802169
 20
4.0010884667
 30
0.0
 10
6.6717702645
 20
4.0034532164
 30
0.0
 11
6.59782872
 21
3.9647259265
 31
0.0
 11
6.614079706
 21
3.9658407515
 31
0.0
 11
6.6311231503
 21
3.9696561884
 31
0.0
 11
6.6466395118
 21
3.9763237448
 31
0.0
 11
6.6590931624
 21
3.9853770078
 31
0.0
 11
6.6682790508
 21
3.9966102213
 31
0.0
 11
6.6717702645
 21
4.0034532164
 31
0.0
  0
SPLINE
  5
4B2
100
AcDbEntity
  8
0
100
AcDbSpline
 62
7
  6
CONTINUOUS
 70
0
 71
3
 72
13
 73
9
 74
7
 42
0.0000001
 43
0.0000001
 44
0.0000000001
 12
-0.0882147068
 22
0.0
 32
0.0
 13
-0.034185622
 23
-0.0816547152
 33
0.0
 40
0.0
 40
0.0
 40
0.0
 40
0.0
 40
0.1845762676
 40
0.3825894891
 40
0.5740728115
 40
0.7486014173
 40
0.9131487907
 40
1.0
 40
1.0
 40
1.0
 40
1.0
 10
6.59782872
 20
4.2790917535
 30
0.0
 10
6.5924012729
 20
4.2790917535
 30
0.0
 10
6.5811365725
 20
4.2783359924
 30
0.0
 10
6.5645712879
 20
4.2747221215
 30
0.0
 10
6.5491682202
 20
4.2682682318
 30
0.0
 10
6.5363403379
 20
4.2591267245
 30
0.0
 10
6.528254062
 20
4.2493560894
 30
0.0
 10
6.5248767471
 20
4.2427281143
 30
0.0
 10
6.5238870596
 20
4.2403641774
 30
0.0
 11
6.59782872
 21
4.2790917535
 31
0.0
 11
6.5815845237
 21
4.2779778744
 31
0.0
 11
6.5645385471
 21
4.2741628431
 31
0.0
 11
6.5490188689
 21
4.2674944652
 31
0.0
 11
6.5365655076
 21
4.258441825
 31
0.0
 11
6.5273768398
 21
4.2472049182
 31
0.0
 11
6.5238870596
 21
4.2403641774
 31
0.0
  0
SPLINE
  5
4B3
100
AcDbEntity
  8
0
100
AcDbSpline
 62
7
  6
CONTINUOUS
 70
0
 71
3
 72
20
 73
16
 74
14
 42
0.0000001
 43
0.0000001
 44
0.0000000001
 12
0.1496411203
 22
0.0401292502
 32
0.0
 13
0.1492633134
 23
-0.0415064292
 33
0.0
 40
0.0
 40
0.0
 40
0.0
 40
0.0
 40
0.0321030844
 40
0.094107507
 40
0.1736468675
 40
0.270376232
 40
0.3786277002
 40
0.4900444876
 40
0.6013603763
 40
0.7094919082
 40
0.8062860384
 40
0.8858634162
 40
0.9477721658
 40
0.986972724
 40
1.0
 40
1.0
 40
1.0
 40
1.0
 10
6.5228265983
 20
3.8422276495
 30
0.0
 10
6.5244279122
 20
3.8426570737
 30
0.0
 10
6.529131424
 20
3.8438810004
 30
0.0
 10
6.5378595941
 20
3.8459450243
 30
0.0
 10
6.5499298147
 20
3.8483543632
 30
0.0
 10
6.5644626769
 20
3.8505642156
 30
0.0
 10
6.5807392514
 20
3.8521082656
 30
0.0
 10
6.5978349893
 20
3.8526565795
 30
0.0
 10
6.6149244775
 20
3.8521075074
 30
0.0
 10
6.631193011
 20
3.8505643494
 30
0.0
 10
6.6457250559
 20
3.8483549389
 30
0.0
 10
6.6577956258
 20
3.8459454566
 30
0.0
 10
6.6668776594
 20
3.8437978402
 30
0.0
 10
6.6725798327
 20
3.8423039631
 30
0.0
 10
6.6751805552
 20
3.8415890786
 30
0.0
 10
6.67582872
 20
3.84140884
 30
0.0
 11
6.5228265983
 21
3.8422276495
 31
0.0
 11
6.5276400562
 21
3.8434798571
 31
0.0
 11
6.5369888986
 21
3.8456883957
 31
0.0
 11
6.5490741446
 21
3.8480963885
 31
0.0
 11
6.5638908027
 21
3.8503429507
 31
0.0
 11
6.5805875025
 21
3.8519208596
 31
0.0
 11
6.5978401916
 21
3.8524719269
 31
0.0
 11
6.6150772258
 21
3.851920394
 31
0.0
 11
6.6317554378
 21
3.8503443501
 31
0.0
 11
6.6465820655
 21
3.8480966074
 31
0.0
 11
6.6586730746
 21
3.8456873972
 31
0.0
 11
6.6680075105
 21
3.8434823459
 31
0.0
 11
6.6738826188
 21
3.8419437609
 31
0.0
 11
6.67582872
 21
3.84140884
 31
0.0
  0
SPLINE
  5
4B4
100
AcDbEntity
  8
0
100
AcDbSpline
 62
7
  6
CONTINUOUS
 70
0
 71
3
 72
14
 73
10
 74
8
 42
0.0000001
 43
0.0000001
 44
0.0000000001
 12
0.0000210723
 22
0.1180734724
 32
0.0
 13
-0.1177589022
 23
0.0
 33
0.0
 40
0.0
 40
0.0
 40
0.0
 40
0.0
 40
0.129310506
 40
0.2655365738
 40
0.4087990204
 40
0.5567820643
 40
0.7059464135
 40
0.8537603894
 40
1.0
 40
1.0
 40
1.0
 40
1.0
 10
6.6758287201
 20
3.9816588341
 30
0.0
 10
6.6758296284
 20
3.9867482143
 30
0.0
 10
6.6744566577
 20
3.9971871902
 30
0.0
 10
6.6686383418
 20
4.0122915967
 30
0.0
 10
6.6592380133
 20
4.0263504788
 30
0.0
 10
6.6466962991
 20
4.0384397036
 30
0.0
 10
6.6317123993
 20
4.0476810413
 30
0.0
 10
6.6151520955
 20
4.0534387949
 30
0.0
 10
6.6035690587
 20
4.0547403651
 30
0.0
 10
6.59782872
 20
4.0547403651
 30
0.0
 11
6.6758287201
 21
3.9816588341
 31
0.0
 11
6.6739217586
 21
3.9967664235
 31
0.0
 11
6.6682233823
 21
4.0117620524
 31
0.0
 11
6.6588846932
 21
4.0258119721
 31
0.0
 11
6.6463469169
 21
4.0379148982
 31
0.0
 11
6.6313905274
 21
4.0471263447
 31
0.0
 11
6.6149426515
 21
4.0528228823
 31
0.0
 11
6.59782872
 21
4.0547403651
 31
0.0
  0
SPLINE
  5
4B5
100
AcDbEntity
  8
0
100
AcDbSpline
 62
7
  6
CONTINUOUS
 70
0
 71
3
 72
13
 73
9
 74
7
 42
0.0000001
 43
0.0000001
 44
0.0000000001
 12
0.0341861457
 22
-0.0816578182
 32
0.0
 13
0.0882161027
 23
-0.0
 33
0.0
 40
0.0
 40
0.0
 40
0.0
 40
0.0
 40
0.0881870968
 40
0.2531529746
 40
0.4281183269
 40
0.6201099665
 40
0.8173865462
 40
1.0
 40
1.0
 40
1.0
 40
1.0
 10
6.5238864817
 20
4.0034549815
 30
0.0
 10
6.5248914073
 20
4.0010545928
 30
0.0
 10
6.5283003204
 20
3.9943833477
 30
0.0
 10
6.5364540046
 20
3.9845830265
 30
0.0
 10
6.5493400122
 20
3.9754531386
 30
0.0
 10
6.564765668
 20
3.9690369972
 30
0.0
 10
6.5812738876
 20
3.9654685429
 30
0.0
 10
6.5924589043
 20
3.9647259265
 30
0.0
 10
6.59782872
 20
3.9647259265
 30
0.0
 11
6.5238864817
 21
4.0034549815
 31
0.0
 11
6.5274378378
 21
3.9965129936
 31
0.0
 11
6.5366782484
 21
3.9852704698
 31
0.0
 11
6.5491873092
 21
3.9762286082
 31
0.0
 11
6.5647658123
 21
3.9695830168
 31
0.0
 11
6.581756198
 21
3.9658160293
 31
0.0
 11
6.59782872
 21
3.9647259265
 31
0.0
  0
SPLINE
  5
4B6
100
AcDbEntity
  8
0
100
AcDbSpline
 62
7
  6
CONTINUOUS
 70
0
 71
3
 72
13
 73
9
 74
7
 42
0.0000001
 43
0.0000001
 44
0.0000000001
 12
-0.0341857038
 22
0.0816584795
 32
0.0
 13
-0.0882163816
 23
0.0
 33
0.0
 40
0.0
 40
0.0
 40
0.0
 40
0.0
 40
0.0881602155
 40
0.2531889841
 40
0.4281431326
 40
0.620179955
 40
0.8174812399
 40
1.0
 40
1.0
 40
1.0
 40
1.0
 10
6.671771082
 20
4.2403623936
 30
0.0
 10
6.6707664757
 20
4.24276207
 30
0.0
 10
6.6673572731
 20
4.2494343885
 30
0.0
 10
6.6592029391
 20
4.2592353585
 30
0.0
 10
6.6463142334
 20
4.268366408
 30
0.0
 10
6.6308865459
 20
4.2747824711
 30
0.0
 10
6.6143787363
 20
4.278349646
 30
0.0
 10
6.6031957682
 20
4.2790917535
 30
0.0
 10
6.59782872
 20
4.2790917535
 30
0.0
 11
6.671771082
 21
4.2403623936
 31
0.0
 11
6.6682209976
 21
4.2473024098
 31
0.0
 11
6.6589770153
 21
4.258549239
 31
0.0
 11
6.6464683629
 21
4.2675900616
 31
0.0
 11
6.6308858247
 21
4.2742364887
 31
0.0
 11
6.6138929973
 21
4.2780027858
 31
0.0
 11
6.59782872
 21
4.2790917535
 31
0.0
  0
SPLINE
  5
4B7
100
AcDbEntity
  8
0
100
AcDbSpline
 62
7
  6
CONTINUOUS
 70
0
 71
3
 72
13
 73
9
 74
7
 42
0.0000001
 43
0.0000001
 44
0.0000000001
 12
0.028704596
 22
-0.0954566937
 32
0.0
 13
0.0994678568
 23
0.0
 33
0.0
 40
0.0
 40
0.0
 40
0.0
 40
0.0
 40
0.1304768582
 40
0.3000836612
 40
0.4752791294
 40
0.6518731274
 40
0.8268684622
 40
1.0
 40
1.0
 40
1.0
 40
1.0
 10
6.5225521271
 20
4.2440916834
 30
0.0
 10
6.5238005556
 20
4.2399400535
 30
0.0
 10
6.5275911984
 20
4.2306704653
 30
0.0
 10
6.5364194271
 20
4.2174672011
 30
0.0
 10
6.5489611386
 20
4.2053779784
 30
0.0
 10
6.5639450358
 20
4.1961366413
 30
0.0
 10
6.58050534
 20
4.1903788859
 30
0.0
 10
6.592088379
 20
4.1890773149
 30
0.0
 10
6.59782872
 20
4.1890773149
 30
0.0
 11
6.5225521271
 21
4.2440916834
 31
0.0
 11
6.5274340593
 21
4.2320556245
 31
0.0
 11
6.5367727469
 21
4.2180057078
 31
0.0
 11
6.5493105209
 21
4.2059027836
 31
0.0
 11
6.5642669068
 21
4.196691338
 31
0.0
 11
6.5807147816
 21
4.1909947993
 31
0.0
 11
6.59782872
 21
4.1890773149
 31
0.0
  0
SPLINE
  5
4B8
100
AcDbEntity
  8
0
100
AcDbSpline
 62
7
  6
CONTINUOUS
 70
0
 71
3
 72
20
 73
16
 74
14
 42
0.0000001
 43
0.0000001
 44
0.0000000001
 12
-0.1492633127
 22
-0.0415064283
 32
0.0
 13
-0.1496411203
 23
0.0401292471
 33
0.0
 40
0.0
 40
0.0
 40
0.0
 40
0.0
 40
0.0129958962
 40
0.0521621154
 40
0.1141665401
 40
0.1937059032
 40
0.290435271
 40
0.3986867429
 40
0.510103534
 40
0.6214194264
 40
0.729550962
 40
0.8263450954
 40
0.9059224758
 40
0.9678312275
 40
1.0
 40
1.0
 40
1.0
 40
1.0
 10
6.67582872
 20
4.40240884
 30
0.0
 10
6.6751821165
 20
4.4022290356
 30
0.0
 10
6.6725846717
 20
4.401515032
 30
0.0
 10
6.6668810367
 20
4.4000206343
 30
0.0
 10
6.6577978459
 20
4.3978726557
 30
0.0
 10
6.6457276253
 20
4.3954633168
 30
0.0
 10
6.6311947631
 20
4.3932534644
 30
0.0
 10
6.6149181886
 20
4.3917094144
 30
0.0
 10
6.5978224507
 20
4.3911611005
 30
0.0
 10
6.5807329625
 20
4.3917101726
 30
0.0
 10
6.564464429
 20
4.3932533306
 30
0.0
 10
6.5499323841
 20
4.3954627411
 30
0.0
 10
6.5378618142
 20
4.3978722234
 30
0.0
 10
6.5291332263
 20
4.399936261
 30
0.0
 10
6.5244311938
 20
4.4011597263
 30
0.0
 10
6.5228266034
 20
4.4015900292
 30
0.0
 11
6.67582872
 21
4.40240884
 31
0.0
 11
6.6738873104
 21
4.4018751937
 31
0.0
 11
6.6680173838
 21
4.4003378229
 31
0.0
 11
6.6586685414
 21
4.3981292843
 31
0.0
 11
6.6465832954
 21
4.3957212916
 31
0.0
 11
6.6317666373
 21
4.3934747293
 31
0.0
 11
6.6150699375
 21
4.3918968204
 31
0.0
 11
6.5978172484
 21
4.3913457531
 31
0.0
 11
6.5805802142
 21
4.391897286
 31
0.0
 11
6.5639020022
 21
4.3934733299
 31
0.0
 11
6.5490753745
 21
4.3957210726
 31
0.0
 11
6.5369843654
 21
4.3981302828
 31
0.0
 11
6.5276499295
 21
4.4003353341
 31
0.0
 11
6.5228266034
 21
4.4015900292
 31
0.0
  0
SPLINE
  5
4B9
100
AcDbEntity
  8
0
100
AcDbSpline
 62
7
  6
CONTINUOUS
 70
0
 71
3
 72
13
 73
9
 74
7
 42
0.0000001
 43
0.0000001
 44
0.0000000001
 12
0.0290734126
 22
-0.0890167246
 32
0.0
 13
0.0933620676
 23
0.0
 33
0.0
 40
0.0
 40
0.0
 40
0.0
 40
0.0
 40
0.1270019996
 40
0.288488754
 40
0.4576683734
 40
0.6343753809
 40
0.8161051313
 40
1.0
 40
1.0
 40
1.0
 40
1.0
 10
6.5225360564
 20
3.9643899192
 30
0.0
 10
6.5237668503
 20
3.9606214851
 30
0.0
 10
6.5275069916
 20
3.9523665245
 30
0.0
 10
6.5364923301
 20
3.9411008099
 30
0.0
 10
6.5492143364
 20
3.9315044923
 30
0.0
 10
6.5642471499
 20
3.924628738
 30
0.0
 10
6.5807054879
 20
3.9205396703
 30
0.0
 10
6.5921057849
 20
3.9196404021
 30
0.0
 10
6.59782872
 20
3.9196404021
 30
0.0
 11
6.5225360564
 21
3.9643899192
 31
0.0
 11
6.5274327352
 21
3.9535768764
 31
0.0
 11
6.5367704318
 21
3.94173984
 31
0.0
 11
6.549308403
 21
3.9321335914
 31
0.0
 11
6.5642656788
 21
3.9251726255
 31
0.0
 11
6.5807150212
 21
3.9210148778
 31
0.0
 11
6.59782872
 21
3.9196404021
 31
0.0
  0
SPLINE
  5
4BA
100
AcDbEntity
  8
0
100
AcDbSpline
 62
7
  6
CONTINUOUS
 70
0
 71
3
 72
14
 73
10
 74
8
 42
0.0000001
 43
0.0000001
 44
0.0000000001
 12
-0.0000198402
 22
0.1111601306
 32
0.0
 13
-0.1108639814
 23
0.0
 33
0.0
 40
0.0
 40
0.0
 40
0.0
 40
0.0
 40
0.1326680082
 40
0.2648209937
 40
0.4008139968
 40
0.5432855226
 40
0.6920961384
 40
0.8451365035
 40
1.0
 40
1.0
 40
1.0
 40
1.0
 10
6.6758287202
 20
4.2621588467
 30
0.0
 10
6.6758278428
 20
4.2670746444
 30
0.0
 10
6.6745792618
 20
4.2768980146
 30
0.0
 10
6.6687379444
 20
4.2907145639
 30
0.0
 10
6.6591650954
 20
4.3027168834
 30
0.0
 10
6.6464430879
 20
4.3123131971
 30
0.0
 10
6.6314102708
 20
4.3191889487
 30
0.0
 10
6.6149519374
 20
4.3232780114
 30
0.0
 10
6.6035516479
 20
4.3241772779
 30
0.0
 10
6.59782872
 20
4.3241772779
 30
0.0
 11
6.6758287202
 21
4.2621588467
 31
0.0
 11
6.6739215864
 21
4.2767427763
 31
0.0
 11
6.6682246911
 21
4.2902408267
 31
0.0
 11
6.6588869973
 21
4.3020778506
 31
0.0
 11
6.6463490227
 21
4.3116840972
 31
0.0
 11
6.6313917399
 21
4.3186450619
 31
0.0
 11
6.6149423977
 21
4.3228028056
 31
0.0
 11
6.59782872
 21
4.3241772779
 31
0.0
  0
SPLINE
  5
4BB
100
AcDbEntity
  8
0
100
AcDbSpline
 62
7
  6
CONTINUOUS
 70
0
 71
3
 72
14
 73
10
 74
8
 42
0.0000001
 43
0.0000001
 44
0.0000000001
 12
0.1108639829
 22
0.0
 32
0.0
 13
0.0000198385
 23
0.1111601346
 33
0.0
 40
0.0
 40
0.0
 40
0.0
 40
0.0
 40
0.154867469
 40
0.3079087774
 40
0.4567177831
 40
0.5991888093
 40
0.7351815581
 40
0.8673337184
 40
1.0
 40
1.0
 40
1.0
 40
1.0
 10
6.59782872
 20
3.9196404021
 30
0.0
 10
6.6035517948
 20
3.9196404021
 30
0.0
 10
6.6149522678
 20
3.9205397058
 30
0.0
 10
6.6314107019
 20
3.924628881
 30
0.0
 10
6.6464434395
 20
3.9315046989
 30
0.0
 10
6.6591653282
 20
3.9411010245
 30
0.0
 10
6.6687380775
 20
3.9531033487
 30
0.0
 10
6.6745792909
 20
3.9669198255
 30
0.0
 10
6.6758278428
 20
3.9767431002
 30
0.0
 10
6.6758287201
 20
3.9816588341
 30
0.0
 11
6.59782872
 21
3.9196404021
 31
0.0
 11
6.614942834
 21
3.9210149455
 31
0.0
 11
6.6313922565
 21
3.9251727994
 31
0.0
 11
6.6463493388
 21
3.9321337723
 31
0.0
 11
6.6588872212
 21
3.9417400485
 31
0.0
 11
6.6682248365
 21
3.9535770987
 31
0.0
 11
6.6739216367
 21
3.9670750901
 31
0.0
 11
6.6758287201
 21
3.9816588341
 31
0.0
  0
SPLINE
  5
4BC
100
AcDbEntity
  8
0
100
AcDbSpline
 62
7
  6
CONTINUOUS
 70
0
 71
3
 72
13
 73
9
 74
7
 42
0.0000001
 43
0.0000001
 44
0.0000000001
 12
-0.0933620908
 22
0.0
 32
0.0
 13
-0.02907338
 23
-0.0890167568
 33
0.0
 40
0.0
 40
0.0
 40
0.0
 40
0.0
 40
0.1838991131
 40
0.3656299329
 40
0.5423351073
 40
0.7115141196
 40
0.8730002914
 40
1.0
 40
1.0
 40
1.0
 40
1.0
 10
6.59782872
 20
4.3241772779
 30
0.0
 10
6.5921056514
 20
4.3241772779
 30
0.0
 10
6.5807051847
 20
4.3232779756
 30
0.0
 10
6.564246754
 20
4.3191888046
 30
0.0
 10
6.549214013
 20
4.3123129888
 30
0.0
 10
6.5364921238
 20
4.3027166665
 30
0.0
 10
6.5275069034
 20
4.2914509938
 30
0.0
 10
6.5237668196
 20
4.2831961064
 30
0.0
 10
6.5225360494
 20
4.279427739
 30
0.0
 11
6.59782872
 21
4.3241772779
 31
0.0
 11
6.5807146246
 21
4.3228027375
 31
0.0
 11
6.564265201
 21
4.3186448867
 31
0.0
 11
6.5493081124
 21
4.3116839144
 31
0.0
 11
6.5367702275
 21
4.3020776399
 31
0.0
 11
6.5274326155
 21
4.2902406014
 31
0.0
 11
6.5225360494
 21
4.279427739
 31
0.0
  0
SPLINE
  5
4BD
100
AcDbEntity
  8
0
100
AcDbSpline
 62
7
  6
CONTINUOUS
 70
0
 71
3
 72
14
 73
10
 74
8
 42
0.0000001
 43
0.0000001
 44
0.0000000001
 12
-0.1046826132
 22
0.2029792199
 32
0.0
 13
0.1046826132
 23
0.2029792199
 33
0.0
 40
0.0
 40
0.0
 40
0.0
 40
0.0
 40
0.1530438599
 40
0.2956043717
 40
0.4324922324
 40
0.5675957362
 40
0.7044780411
 40
0.8469906498
 40
1.0
 40
1.0
 40
1.0
 40
1.0
 10
4.6818923859
 20
3.6338063675
 30
0.0
 10
4.6765520422
 20
3.6441612753
 30
0.0
 10
4.6671470488
 20
3.6646610036
 30
0.0
 10
4.6571054307
 20
3.6961165279
 30
0.0
 10
4.6519617205
 20
3.7273841967
 30
0.0
 10
4.6519634136
 20
3.7586532209
 30
0.0
 10
4.6571094941
 20
3.789916326
 30
0.0
 10
4.6671506765
 20
3.8213648409
 30
0.0
 10
4.6765532463
 20
3.8418587397
 30
0.0
 10
4.6818923859
 20
3.8522113125
 30
0.0
 11
4.6818923859
 21
3.6338063675
 31
0.0
 11
4.6674947871
 21
3.6656560084
 31
0.0
 11
4.6577599149
 21
3.6967250596
 31
0.0
 11
4.6527946812
 21
3.7275911734
 31
0.0
 11
4.6527963119
 21
3.7584465815
 31
0.0
 11
4.6577643008
 21
3.7893109668
 31
0.0
 11
4.6674976233
 21
3.8203690389
 31
0.0
 11
4.6818923859
 21
3.8522113125
 31
0.0
  0
SPLINE
  5
4BE
100
AcDbEntity
  8
0
100
AcDbSpline
 62
7
  6
CONTINUOUS
 70
0
 71
3
 72
15
 73
11
 74
9
 42
0.0000001
 43
0.0000001
 44
0.0000000001
 12
0.1643031241
 22
0.1839340856
 32
0.0
 13
-0.1643031241
 23
0.1839340856
 33
0.0
 40
0.0
 40
0.0
 40
0.0
 40
0.0
 40
0.1498215377
 40
0.2783315905
 40
0.3927788038
 40
0.5000592815
 40
0.6073304266
 40
0.7217569014
 40
0.8502022558
 40
1.0
 40
1.0
 40
1.0
 40
1.0
 10
5.05532872
 20
3.6338063675
 30
0.0
 10
5.0635341022
 20
3.64299213
 30
0.0
 10
5.0779658817
 20
3.6608350886
 30
0.0
 10
5.0945636105
 20
3.6886935027
 30
0.0
 10
5.1045487174
 20
3.7159205767
 30
0.0
 10
5.1079097405
 20
3.7430229324
 30
0.0
 10
5.1045419669
 20
3.7701225962
 30
0.0
 10
5.0945548496
 20
3.7973403728
 30
0.0
 10
5.07796012
 20
3.8251898332
 30
0.0
 10
5.0635327991
 20
3.8430270088
 30
0.0
 10
5.05532872
 20
3.8522113125
 30
0.0
 11
5.05532872
 21
3.6338063675
 31
0.0
 11
5.0782971938
 21
3.6627512805
 31
0.0
 11
5.0942233786
 21
3.6901539955
 31
0.0
 11
5.1036723761
 21
3.7167517769
 31
0.0
 11
5.106812685
 21
3.7430235408
 31
0.0
 11
5.1036660968
 21
3.7692922353
 31
0.0
 11
5.0942140646
 21
3.7958835101
 31
0.0
 11
5.0782938571
 21
3.8232712431
 31
0.0
 11
5.05532872
 21
3.8522113125
 31
0.0
  0
SPLINE
  5
4BF
100
AcDbEntity
  8
0
100
AcDbSpline
 62
7
  6
CONTINUOUS
 70
0
 71
3
 72
14
 73
10
 74
8
 42
0.0000001
 43
0.0000001
 44
0.0000000001
 12
-0.1103507163
 22
0.4279393037
 32
0.0
 13
0.1103507163
 23
0.4279393037
 33
0.0
 40
0.0
 40
0.0
 40
0.0
 40
0.0
 40
0.1477720816
 40
0.2900907235
 40
0.430227046
 40
0.569863817
 40
0.7099928421
 40
0.8522618536
 40
1.0
 40
1.0
 40
1.0
 40
1.0
 10
4.6818923859
 20
3.903503895
 30
0.0
 10
4.6764568009
 20
3.9245830556
 30
0.0
 10
4.6669414487
 20
3.9662770945
 30
0.0
 10
4.6570143654
 20
4.0289257335
 30
0.0
 10
4.6519598225
 20
4.0909651684
 30
0.0
 10
4.6519614812
 20
4.1528916294
 30
0.0
 10
4.6570183991
 20
4.2149224358
 30
0.0
 10
4.6669451746
 20
4.2775575112
 30
0.0
 10
4.6764580491
 20
4.3192394652
 30
0.0
 10
4.6818923859
 20
4.340313785
 30
0.0
 11
4.6818923859
 21
3.903503895
 31
0.0
 11
4.6674947871
 21
3.9672031768
 31
0.0
 11
4.6577599149
 21
4.0293412792
 31
0.0
 11
4.6527946812
 21
4.0910735069
 31
0.0
 11
4.6527963119
 21
4.1527843231
 31
0.0
 11
4.6577643008
 21
4.2145130937
 31
0.0
 11
4.6674976233
 21
4.2766292377
 31
0.0
 11
4.6818923859
 21
4.340313785
 31
0.0
  0
SPLINE
  5
4C0
100
AcDbEntity
  8
0
100
AcDbSpline
 62
7
  6
CONTINUOUS
 70
0
 71
3
 72
15
 73
11
 74
9
 42
0.0000001
 43
0.0000001
 44
0.0000000001
 12
0.1843202379
 22
0.4126856942
 32
0.0
 13
-0.1843202379
 23
0.4126856942
 33
0.0
 40
0.0
 40
0.0
 40
0.0
 40
0.0
 40
0.1377942686
 40
0.2640673782
 40
0.3836049145
 40
0.5000649493
 40
0.6165122554
 40
0.736022619
 40
0.8622283762
 40
1.0
 40
1.0
 40
1.0
 40
1.0
 10
5.05532872
 20
3.903503895
 30
0.0
 10
5.0637948108
 20
3.9224591361
 30
0.0
 10
5.0786263536
 20
3.959440075
 30
0.0
 10
5.0949634688
 20
4.0149763561
 30
0.0
 10
5.1046566383
 20
4.0688070954
 30
0.0
 10
5.1078782948
 20
4.1219363983
 30
0.0
 10
5.1046501047
 20
4.1750611489
 30
0.0
 10
5.0949545831
 20
4.2288749315
 30
0.0
 10
5.0786201336
 20
4.2843934267
 30
0.0
 10
5.0637934195
 20
4.3213616589
 30
0.0
 10
5.05532872
 20
4.340313785
 30
0.0
 11
5.05532872
 21
3.903503895
 31
0.0
 11
5.0782971938
 21
3.961393721
 31
0.0
 11
5.0942233786
 21
4.0161991511
 31
0.0
 11
5.1036723761
 21
4.0693947137
 31
0.0
 11
5.106812685
 21
4.1219382417
 31
0.0
 11
5.1036660968
 21
4.1744756307
 31
0.0
 11
5.0942140646
 21
4.2276581803
 31
0.0
 11
5.0782938571
 21
4.2824336463
 31
0.0
 11
5.05532872
 21
4.340313785
 31
0.0
  0
SPLINE
  5
4C1
100
AcDbEntity
  8
0
100
AcDbSpline
 62
7
  6
CONTINUOUS
 70
0
 71
3
 72
14
 73
10
 74
8
 42
0.0000001
 43
0.0000001
 44
0.0000000001
 12
-0.1046826132
 22
0.2029792199
 32
0.0
 13
0.1046826132
 23
0.2029792199
 33
0.0
 40
0.0
 40
0.0
 40
0.0
 40
0.0
 40
0.1530438599
 40
0.2956043717
 40
0.4324922324
 40
0.5675957362
 40
0.7044780411
 40
0.8469906498
 40
1.0
 40
1.0
 40
1.0
 40
1.0
 10
4.6818923859
 20
4.3916063675
 30
0.0
 10
4.6765520422
 20
4.4019612753
 30
0.0
 10
4.6671470488
 20
4.4224610036
 30
0.0
 10
4.6571054307
 20
4.4539165279
 30
0.0
 10
4.6519617205
 20
4.4851841967
 30
0.0
 10
4.6519634136
 20
4.5164532209
 30
0.0
 10
4.6571094941
 20
4.547716326
 30
0.0
 10
4.6671506765
 20
4.5791648409
 30
0.0
 10
4.6765532463
 20
4.5996587397
 30
0.0
 10
4.6818923859
 20
4.6100113125
 30
0.0
 11
4.6818923859
 21
4.3916063675
 31
0.0
 11
4.6674947871
 21
4.4234560084
 31
0.0
 11
4.6577599149
 21
4.4545250596
 31
0.0
 11
4.6527946812
 21
4.4853911734
 31
0.0
 11
4.6527963119
 21
4.5162465815
 31
0.0
 11
4.6577643008
 21
4.5471109668
 31
0.0
 11
4.6674976233
 21
4.5781690389
 31
0.0
 11
4.6818923859
 21
4.6100113125
 31
0.0
  0
SPLINE
  5
4C2
100
AcDbEntity
  8
0
100
AcDbSpline
 62
7
  6
CONTINUOUS
 70
0
 71
3
 72
15
 73
11
 74
9
 42
0.0000001
 43
0.0000001
 44
0.0000000001
 12
0.1643031241
 22
0.1839340856
 32
0.0
 13
-0.1643031241
 23
0.1839340856
 33
0.0
 40
0.0
 40
0.0
 40
0.0
 40
0.0
 40
0.1498215377
 40
0.2783315905
 40
0.3927788038
 40
0.5000592815
 40
0.6073304266
 40
0.7217569014
 40
0.8502022558
 40
1.0
 40
1.0
 40
1.0
 40
1.0
 10
5.05532872
 20
4.3916063675
 30
0.0
 10
5.0635341022
 20
4.40079213
 30
0.0
 10
5.0779658817
 20
4.4186350886
 30
0.0
 10
5.0945636105
 20
4.4464935027
 30
0.0
 10
5.1045487174
 20
4.4737205767
 30
0.0
 10
5.1079097405
 20
4.5008229324
 30
0.0
 10
5.1045419669
 20
4.5279225962
 30
0.0
 10
5.0945548496
 20
4.5551403728
 30
0.0
 10
5.07796012
 20
4.5829898332
 30
0.0
 10
5.0635327991
 20
4.6008270088
 30
0.0
 10
5.05532872
 20
4.6100113125
 30
0.0
 11
5.05532872
 21
4.3916063675
 31
0.0
 11
5.0782971938
 21
4.4205512805
 31
0.0
 11
5.0942233786
 21
4.4479539955
 31
0.0
 11
5.1036723761
 21
4.4745517769
 31
0.0
 11
5.106812685
 21
4.5008235408
 31
0.0
 11
5.1036660968
 21
4.5270922353
 31
0.0
 11
5.0942140646
 21
4.5536835101
 31
0.0
 11
5.0782938571
 21
4.5810712431
 31
0.0
 11
5.05532872
 21
4.6100113125
 31
0.0
  0
ENDSEC
  0
SECTION
  2
OBJECTS
  0
DICTIONARY
  5
C
100
AcDbDictionary
280
0
281
1
  3
ACAD_GROUP
350
D
  3
ACAD_MLINESTYLE
350
17
  3
ACAD_LAYOUT
350
1A
  3
ACAD_PLOTSETTINGS
350
19
  3
ACAD_PLOTSTYLENAME
350
E
  0
DICTIONARY
  5
D
102
{ACAD_REACTORS
330
C
102
}
100
AcDbDictionary
280
0
281
1
  0
ACDBDICTIONARYWDFLT
  5
E
102
{ACAD_REACTORS
330
C
102
}
100
AcDbDictionary
281
1
  3
Normal
350
F
100
AcDbDictionaryWithDefault
340
F
  0
DICTIONARY
  5
17
102
{ACAD_REACTORS
330
C
102
}
100
AcDbDictionary
280
0
281
1
  3
Standard
350
18
  0
DICTIONARY
  5
19
102
{ACAD_REACTORS
330
C
102
}
100
AcDbDictionary
281
1
  0
DICTIONARY
  5
1A
102
{ACAD_REACTORS
330
C
102
}
100
AcDbDictionary
281
1
  3
Layout1
350
1E
  3
Model
350
22
  0
ACDBPLACEHOLDER
  5
F
102
{ACAD_REACTORS
330
E
102
}
  0
MLINESTYLE
  5
18
102
{ACAD_REACTORS
330
17
102
}
100
AcDbMlineStyle
  2
STANDARD
 70
0
  3

 62
256
 51
90.0
 52
90.0
 71
2
 49
0.5
 62
256
  6
BYLAYER
 49
-0.5
 62
256
  6
BYLAYER
  0
LAYOUT
  5
1E
102
{ACAD_REACTORS
330
1A
102
}
100
AcDbPlotSettings
  1

  2

  4

  6

 40
0.0
 41
0.0
 42
0.0
 43
0.0
 44
0.0
 45
0.0
 46
0.0
 47
0.0
 48
0.0
 49
0.0
140
0.0
141
0.0
142
1.0
143
1.0
 70
0
 72
0
 73
0
 74
0
  7

 75
0
147
1.0
148
0.0
149
0.0
100
AcDbLayout
  1
Layout1
 70
0
 71
0
 10
0.0
 20
0.0
 11
0.0
 21
0.0
 12
0.0
 22
0.0
 32
0.0
 14
0.0
 24
0.0
 34
0.0
 15
0.0
 25
0.0
 35
0.0
146
0.0
 13
0.0
 23
0.0
 33
0.0
 16
0.0
 26
0.0
 36
0.0
 17
0.0
 27
0.0
 37
0.0
 76
0
330
1B
331
0
345
0
346
0
  0
LAYOUT
  5
22
102
{ACAD_REACTORS
330
1A
102
}
100
AcDbPlotSettings
  1

  2

  4

  6

 40
0.0
 41
0.0
 42
0.0
 43
0.0
 44
0.0
 45
0.0
 46
0.0
 47
0.0
 48
0.0
 49
0.0
140
0.0
141
0.0
142
1.0
143
1.0
 70
0
 72
0
 73
0
 74
0
  7

 75
0
147
1.0
148
0.0
149
0.0
100
AcDbLayout
  1
Model
 70
0
 71
0
 10
0.0
 20
0.0
 11
0.0
 21
0.0
 12
0.0
 22
0.0
 32
0.0
 14
0.0
 24
0.0
 34
0.0
 15
0.0
 25
0.0
 35
0.0
146
0.0
 13
0.0
 23
0.0
 33
0.0
 16
0.0
 26
0.0
 36
0.0
 17
0.0
 27
0.0
 37
0.0
 76
0
330
1F
331
0
345
0
346
0
  0
ENDSEC
  0
EOF
