999
DXF file: CBCGLJNX4F_8.dxf
999
Pro/ENGINEER 2006240 by Parametric Technology Corporation
  0
SECTION
  2
HEADER
  9
$ACADVER
  1
AC1015
  9
$DWGCODEPAGE
  3
ANSI_1252
  9
$EXTMAX
 10
22.0
 20
17.0
 30
0.0
  9
$EXTMIN
 10
0.0
 20
0.0
 30
0.0
  9
$LIMMIN
 10
0.0
 20
0.0
  9
$LIMMAX
 10
22.0
 20
17.0
  9
$VIEWCTR
 10
11.0
 20
8.5
  9
$VIEWSIZE
 40
17.0
  9
$CLAYER
  8
0
  9
$LTSCALE
 40
1.21
  9
$CELTYPE
  6
BYLAYER
  9
$DIMSCALE
 40
1.0
  9
$DIMASZ
 40
0.1875
  9
$DIMEXO
 40
0.1375
  9
$DIMDLI
 40
0.836
  9
$DIMEXE
 40
0.396
  9
$DIMCEN
 40
0.198
  9
$DIMLFAC
 40
1.0
  9
$DIMBLK
  1
_CLOSED
  9
$DIMTXT
 40
0.15625
  9
$DIMTOL
 70
0
  9
$DIMLIM
 70
0
  9
$DIMTFAC
 40
1.0
  9
$PDMODE
 70
3
  9
$PDSIZE
 40
0.3125
  9
$HANDSEED
  5
464
  9
$MEASUREMENT
 70
0
  9
$INSUNITS
 70
1
  0
ENDSEC
  0
SECTION
  2
CLASSES
  0
CLASS
  1
ACDBDICTIONARYWDFLT
  2
AcDbDictionaryWithDefault
  3
AutoCAD 2000
 90
0
280
0
281
0
  0
CLASS
  1
ACDBPLACEHOLDER
  2
AcDbPlaceHolder
  3
AutoCAD 2000
 90
0
280
0
281
0
  0
CLASS
  1
LAYOUT
  2
AcDbLayout
  3
AutoCAD 2000
 90
0
280
0
281
0
  0
ENDSEC
  0
SECTION
  2
TABLES
  0
TABLE
  2
VPORT
  5
8
100
AcDbSymbolTable
 70
2
  0
VPORT
  5
1F4
100
AcDbSymbolTableRecord
100
AcDbViewportTableRecord
  2
*ACTIVE
 70
0
 10
0.0
 20
0.0
 11
1.0
 21
1.0
 12
11.0
 22
8.5
 13
0.0
 23
0.0
 14
1.0
 24
1.0
 15
0.0
 25
0.0
 16
0.0
 26
0.0
 36
1.0
 17
0.0
 27
0.0
 37
0.0
 40
17.0
 41
1.2941176471
 42
50.0
 43
0.0
 44
0.0
 50
0.0
 51
0.0
 71
0
 72
100
 73
1
 74
1
 75
0
 76
0
 77
0
 78
0
  0
ENDTAB
  0
TABLE
  2
LTYPE
  5
5
100
AcDbSymbolTable
 70
6
  0
LTYPE
  5
14
100
AcDbSymbolTableRecord
100
AcDbLinetypeTableRecord
  2
BYBLOCK
 70
0
  3

 72
65
 73
0
 40
0.0
  0
LTYPE
  5
15
100
AcDbSymbolTableRecord
100
AcDbLinetypeTableRecord
  2
BYLAYER
 70
0
  3

 72
65
 73
0
 40
0.0
  0
LTYPE
  5
16
100
AcDbSymbolTableRecord
100
AcDbLinetypeTableRecord
  2
CONTINUOUS
 70
64
  3
Solid line
 72
65
 73
0
 40
0.0
  0
LTYPE
  5
1F5
100
AcDbSymbolTableRecord
100
AcDbLinetypeTableRecord
  2
CENTER
 70
64
  3
____ _ ____ _ ____ _ ____ _ ____ _ ____ _ ____
 72
65
 73
4
 40
0.6
 49
0.375
 74
0
 49
-0.075
 74
0
 49
0.075
 74
0
 49
-0.075
 74
0
  0
LTYPE
  5
1F6
100
AcDbSymbolTableRecord
100
AcDbLinetypeTableRecord
  2
HIDDEN
 70
64
  3
- - - - - - - - - - - - - - - - - - - -
 72
65
 73
2
 40
0.2
 49
0.1
 74
0
 49
-0.1
 74
0
  0
LTYPE
  5
1F7
100
AcDbSymbolTableRecord
100
AcDbLinetypeTableRecord
  2
PHANTOM
 70
64
  3
_____ _ _ _____ _ _ _____ _ _ _____
 72
65
 73
6
 40
0.8
 49
0.45
 74
0
 49
-0.05
 74
0
 49
0.1
 74
0
 49
-0.05
 74
0
 49
0.1
 74
0
 49
-0.05
 74
0
  0
LTYPE
  5
1F8
100
AcDbSymbolTableRecord
100
AcDbLinetypeTableRecord
  2
DOT
 70
64
  3
. . . . . . . . . . . . . . . . . . . .
 72
65
 73
2
 40
0.2
 49
0.1
 74
0
 49
-0.1
 74
0
  0
LTYPE
  5
1F9
100
AcDbSymbolTableRecord
100
AcDbLinetypeTableRecord
  2
DASHED
 70
64
  3
- - - - - - - - - - - - - - - - - - - -
 72
65
 73
2
 40
0.2
 49
0.1
 74
0
 49
-0.1
 74
0
  0
ENDTAB
  0
TABLE
  2
LAYER
  5
2
100
AcDbSymbolTable
 70
36
  0
LAYER
  5
10
100
AcDbSymbolTableRecord
100
AcDbLayerTableRecord
  2
0
 70
0
 62
7
  6
CONTINUOUS
370
-3
390
F
  0
LAYER
  5
1FA
100
AcDbSymbolTableRecord
100
AcDbLayerTableRecord
  2
DEFAULT_1
 70
0
 62
7
  6
CENTER
370
-3
390
F
  0
LAYER
  5
1FB
100
AcDbSymbolTableRecord
100
AcDbLayerTableRecord
  2
DEFAULT_2
 70
0
 62
8
  6
HIDDEN
370
-3
390
F
  0
LAYER
  5
1FC
100
AcDbSymbolTableRecord
100
AcDbLayerTableRecord
  2
DEFAULT_3
 70
0
 62
7
  6
PHANTOM
370
-3
390
F
  0
LAYER
  5
1FD
100
AcDbSymbolTableRecord
100
AcDbLayerTableRecord
  2
01_ALL_DTM_PLN
 70
0
 62
7
  6
CONTINUOUS
370
-3
390
F
  0
LAYER
  5
1FE
100
AcDbSymbolTableRecord
100
AcDbLayerTableRecord
  2
01__ASM_ALL_DTM_PLN
 70
0
 62
7
  6
CONTINUOUS
370
-3
390
F
  0
LAYER
  5
1FF
100
AcDbSymbolTableRecord
100
AcDbLayerTableRecord
  2
01__ASM_DEF_DTM_PLN
 70
0
 62
7
  6
CONTINUOUS
370
-3
390
F
  0
LAYER
  5
200
100
AcDbSymbolTableRecord
100
AcDbLayerTableRecord
  2
01___PRT_ALL_DTM_PLN
 70
0
 62
7
  6
CONTINUOUS
370
-3
390
F
  0
LAYER
  5
201
100
AcDbSymbolTableRecord
100
AcDbLayerTableRecord
  2
01___PRT_DEF_DTM_PLN
 70
0
 62
7
  6
CONTINUOUS
370
-3
390
F
  0
LAYER
  5
202
100
AcDbSymbolTableRecord
100
AcDbLayerTableRecord
  2
02_ALL_AXES
 70
0
 62
7
  6
CONTINUOUS
370
-3
390
F
  0
LAYER
  5
203
100
AcDbSymbolTableRecord
100
AcDbLayerTableRecord
  2
02__ASM_ALL_AXES
 70
0
 62
7
  6
CONTINUOUS
370
-3
390
F
  0
LAYER
  5
204
100
AcDbSymbolTableRecord
100
AcDbLayerTableRecord
  2
02___PRT_ALL_AXES
 70
0
 62
7
  6
CONTINUOUS
370
-3
390
F
  0
LAYER
  5
205
100
AcDbSymbolTableRecord
100
AcDbLayerTableRecord
  2
03_ALL_CURVES
 70
0
 62
7
  6
CONTINUOUS
370
-3
390
F
  0
LAYER
  5
206
100
AcDbSymbolTableRecord
100
AcDbLayerTableRecord
  2
03__ASM_ALL_CURVES
 70
0
 62
7
  6
CONTINUOUS
370
-3
390
F
  0
LAYER
  5
207
100
AcDbSymbolTableRecord
100
AcDbLayerTableRecord
  2
03___PRT_ALL_CURVES
 70
0
 62
7
  6
CONTINUOUS
370
-3
390
F
  0
LAYER
  5
208
100
AcDbSymbolTableRecord
100
AcDbLayerTableRecord
  2
04_ALL_DTM_PNT
 70
0
 62
7
  6
CONTINUOUS
370
-3
390
F
  0
LAYER
  5
209
100
AcDbSymbolTableRecord
100
AcDbLayerTableRecord
  2
04__ASM_ALL_DTM_PNT
 70
0
 62
7
  6
CONTINUOUS
370
-3
390
F
  0
LAYER
  5
20A
100
AcDbSymbolTableRecord
100
AcDbLayerTableRecord
  2
04___PRT_ALL_DTM_PNT
 70
0
 62
7
  6
CONTINUOUS
370
-3
390
F
  0
LAYER
  5
20B
100
AcDbSymbolTableRecord
100
AcDbLayerTableRecord
  2
05_ALL_DTM_CSYS
 70
0
 62
7
  6
CONTINUOUS
370
-3
390
F
  0
LAYER
  5
20C
100
AcDbSymbolTableRecord
100
AcDbLayerTableRecord
  2
05__ASM_ALL_DTM_CSYS
 70
0
 62
7
  6
CONTINUOUS
370
-3
390
F
  0
LAYER
  5
20D
100
AcDbSymbolTableRecord
100
AcDbLayerTableRecord
  2
05__ASM_DEF_DTM_CSYS
 70
0
 62
7
  6
CONTINUOUS
370
-3
390
F
  0
LAYER
  5
20E
100
AcDbSymbolTableRecord
100
AcDbLayerTableRecord
  2
05___PRT_ALL_DTM_CSYS
 70
0
 62
7
  6
CONTINUOUS
370
-3
390
F
  0
LAYER
  5
20F
100
AcDbSymbolTableRecord
100
AcDbLayerTableRecord
  2
05___PRT_DEF_DTM_CSYS
 70
0
 62
7
  6
CONTINUOUS
370
-3
390
F
  0
LAYER
  5
210
100
AcDbSymbolTableRecord
100
AcDbLayerTableRecord
  2
06_ALL_SURFS
 70
0
 62
7
  6
CONTINUOUS
370
-3
390
F
  0
LAYER
  5
211
100
AcDbSymbolTableRecord
100
AcDbLayerTableRecord
  2
06__ASM_ALL_SURFS
 70
0
 62
7
  6
CONTINUOUS
370
-3
390
F
  0
LAYER
  5
212
100
AcDbSymbolTableRecord
100
AcDbLayerTableRecord
  2
06___PRT_ALL_SURFS
 70
0
 62
7
  6
CONTINUOUS
370
-3
390
F
  0
LAYER
  5
213
100
AcDbSymbolTableRecord
100
AcDbLayerTableRecord
  2
07__ASM_ALL_SKELETONS
 70
0
 62
7
  6
CONTINUOUS
370
-3
390
F
  0
LAYER
  5
214
100
AcDbSymbolTableRecord
100
AcDbLayerTableRecord
  2
CBCGLJNX4F_10
 70
0
 62
7
  6
CONTINUOUS
370
-3
390
F
  0
LAYER
  5
215
100
AcDbSymbolTableRecord
100
AcDbLayerTableRecord
  2
CBCGLJNX4F_5
 70
0
 62
7
  6
CONTINUOUS
370
-3
390
F
  0
LAYER
  5
216
100
AcDbSymbolTableRecord
100
AcDbLayerTableRecord
  2
CBCGLJNX4F_6
 70
0
 62
7
  6
CONTINUOUS
370
-3
390
F
  0
LAYER
  5
217
100
AcDbSymbolTableRecord
100
AcDbLayerTableRecord
  2
CBCGLJNX4F_7
 70
0
 62
7
  6
CONTINUOUS
370
-3
390
F
  0
LAYER
  5
218
100
AcDbSymbolTableRecord
100
AcDbLayerTableRecord
  2
CBCGLJNX4F_8
 70
0
 62
7
  6
CONTINUOUS
370
-3
390
F
  0
LAYER
  5
219
100
AcDbSymbolTableRecord
100
AcDbLayerTableRecord
  2
COPY_GEO_FET
 70
0
 62
7
  6
CONTINUOUS
370
-3
390
F
  0
LAYER
  5
21A
100
AcDbSymbolTableRecord
100
AcDbLayerTableRecord
  2
COSMETIC
 70
0
 62
7
  6
CONTINUOUS
370
-3
390
F
  0
LAYER
  5
21B
100
AcDbSymbolTableRecord
100
AcDbLayerTableRecord
  2
CUT_REF_SURF
 70
0
 62
7
  6
CONTINUOUS
370
-3
390
F
  0
LAYER
  5
21C
100
AcDbSymbolTableRecord
100
AcDbLayerTableRecord
  2
DATESTAMP
 70
0
 62
7
  6
CONTINUOUS
370
-3
390
F
  0
LAYER
  5
21D
100
AcDbSymbolTableRecord
100
AcDbLayerTableRecord
  2
DATUM
 70
0
 62
7
  6
CONTINUOUS
370
-3
390
F
  0
LAYER
  5
21E
100
AcDbSymbolTableRecord
100
AcDbLayerTableRecord
  2
DATUM_B
 70
0
 62
7
  6
CONTINUOUS
370
-3
390
F
  0
LAYER
  5
21F
100
AcDbSymbolTableRecord
100
AcDbLayerTableRecord
  2
DATUM_PLANES
 70
0
 62
7
  6
CONTINUOUS
370
-3
390
F
  0
LAYER
  5
220
100
AcDbSymbolTableRecord
100
AcDbLayerTableRecord
  2
DIM
 70
0
 62
7
  6
CONTINUOUS
370
-3
390
F
  0
LAYER
  5
221
100
AcDbSymbolTableRecord
100
AcDbLayerTableRecord
  2
DIMENSIONS
 70
0
 62
7
  6
CONTINUOUS
370
-3
390
F
  0
LAYER
  5
222
100
AcDbSymbolTableRecord
100
AcDbLayerTableRecord
  2
DIM_1
 70
0
 62
7
  6
CONTINUOUS
370
-3
390
F
  0
LAYER
  5
223
100
AcDbSymbolTableRecord
100
AcDbLayerTableRecord
  2
DIM_2
 70
0
 62
7
  6
CONTINUOUS
370
-3
390
F
  0
LAYER
  5
224
100
AcDbSymbolTableRecord
100
AcDbLayerTableRecord
  2
DIM_3
 70
0
 62
7
  6
CONTINUOUS
370
-3
390
F
  0
LAYER
  5
225
100
AcDbSymbolTableRecord
100
AcDbLayerTableRecord
  2
DTM
 70
0
 62
7
  6
CONTINUOUS
370
-3
390
F
  0
LAYER
  5
226
100
AcDbSymbolTableRecord
100
AcDbLayerTableRecord
  2
EXT_COPY_GEO
 70
0
 62
7
  6
CONTINUOUS
370
-3
390
F
  0
LAYER
  5
227
100
AcDbSymbolTableRecord
100
AcDbLayerTableRecord
  2
LS
 70
0
 62
7
  6
CONTINUOUS
370
-3
390
F
  0
LAYER
  5
228
100
AcDbSymbolTableRecord
100
AcDbLayerTableRecord
  2
ORIGIN
 70
0
 62
7
  6
CONTINUOUS
370
-3
390
F
  0
LAYER
  5
229
100
AcDbSymbolTableRecord
100
AcDbLayerTableRecord
  2
PARAMETERDIMENSIONS
 70
0
 62
7
  6
CONTINUOUS
370
-3
390
F
  0
LAYER
  5
22A
100
AcDbSymbolTableRecord
100
AcDbLayerTableRecord
  2
PARTNUMBER
 70
0
 62
7
  6
CONTINUOUS
370
-3
390
F
  0
LAYER
  5
22B
100
AcDbSymbolTableRecord
100
AcDbLayerTableRecord
  2
PORT_AREAS
 70
0
 62
7
  6
CONTINUOUS
370
-3
390
F
  0
LAYER
  5
22C
100
AcDbSymbolTableRecord
100
AcDbLayerTableRecord
  2
TEXT
 70
0
 62
7
  6
CONTINUOUS
370
-3
390
F
  0
LAYER
  5
22D
100
AcDbSymbolTableRecord
100
AcDbLayerTableRecord
  2
THREAD
 70
0
 62
7
  6
CONTINUOUS
370
-3
390
F
  0
LAYER
  5
22E
100
AcDbSymbolTableRecord
100
AcDbLayerTableRecord
  2
THREADS
 70
0
 62
7
  6
CONTINUOUS
370
-3
390
F
  0
ENDTAB
  0
TABLE
  2
STYLE
  5
3
100
AcDbSymbolTable
 70
1
  0
STYLE
  5
11
100
AcDbSymbolTableRecord
100
AcDbTextStyleTableRecord
  2
STANDARD
 70
0
 40
0.0
 41
0.8
 50
0.0
 71
0
 42
0.2
  3
txt
  4

  0
ENDTAB
  0
TABLE
  2
VIEW
  5
6
100
AcDbSymbolTable
 70
0
  0
ENDTAB
  0
TABLE
  2
UCS
  5
7
100
AcDbSymbolTable
 70
0
  0
ENDTAB
  0
TABLE
  2
APPID
  5
9
100
AcDbSymbolTable
 70
1
  0
APPID
  5
22F
100
AcDbSymbolTableRecord
100
AcDbRegAppTableRecord
  2
ACAD
 70
0
  0
ENDTAB
  0
TABLE
  2
BLOCK_RECORD
  5
1
100
AcDbSymbolTable
 70
0
  0
BLOCK_RECORD
  5
1F
100
AcDbSymbolTableRecord
100
AcDbBlockTableRecord
  2
*MODEL_SPACE
  0
BLOCK_RECORD
  5
1B
100
AcDbSymbolTableRecord
100
AcDbBlockTableRecord
  2
*PAPER_SPACE
  0
ENDTAB
  0
TABLE
  2
DIMSTYLE
  5
A
100
AcDbSymbolTable
 70
1
100
AcDbDimStyleTable
 71
0
  0
DIMSTYLE
105
230
100
AcDbSymbolTableRecord
100
AcDbDimStyleTableRecord
  2
STANDARD
 70
0
  3

  4

 40
1.0
 41
0.1875
 42
0.0625
 43
0.38
 44
0.18
 45
0.0
 46
0.0
 47
0.01
 48
0.01
140
0.15625
141
0.09
142
0.0
143
25.4
144
1.0
145
0.0
146
1.0
147
0.09
 71
0.0
 72
0.0
 73
1
 74
1
 75
0
 76
0
 77
0
 78
4
170
0
171
2
172
0
173
0
174
0
175
0
176
0
177
0
178
0
270
2
271
2
272
2
273
2
274
2
275
0
280
0
281
0
282
0
283
1
284
4
285
0
286
0
287
3
288
0
340
11
  0
ENDTAB
  0
ENDSEC
  0
SECTION
  2
BLOCKS
  0
BLOCK
  5
20
100
AcDbEntity
  8
0
100
AcDbBlockBegin
  2
*MODEL_SPACE
 70
0
 10
0.0
 20
0.0
 30
0.0
  3
*MODEL_SPACE
  1

  0
ENDBLK
  5
21
100
AcDbEntity
  8
0
100
AcDbBlockEnd
  0
BLOCK
  5
1C
100
AcDbEntity
  8
0
100
AcDbBlockBegin
  2
*PAPER_SPACE
 70
0
 10
0.0
 20
0.0
 30
0.0
  3
*PAPER_SPACE
  1

  0
ENDBLK
  5
1D
100
AcDbEntity
  8
0
100
AcDbBlockEnd
  0
ENDSEC
  0
SECTION
  2
ENTITIES
  0
LINE
  5
231
100
AcDbEntity
  8
03__ASM_ALL_CURVES
100
AcDbLine
 62
4
  6
CONTINUOUS
 10
8.9724619972
 20
6.5529205667
 11
8.9652286604
 21
6.5583455667
  0
LINE
  5
232
100
AcDbEntity
  8
03__ASM_ALL_CURVES
100
AcDbLine
 62
4
  6
CONTINUOUS
 10
9.008628663
 20
6.5691955667
 11
9.0230953288
 21
6.5583455667
  0
LINE
  5
233
100
AcDbEntity
  8
03__ASM_ALL_CURVES
100
AcDbLine
 62
4
  6
CONTINUOUS
 10
8.9869286604
 20
6.5963205667
 11
8.9941619972
 21
6.5908955667
  0
LINE
  5
234
100
AcDbEntity
  8
03__ASM_ALL_CURVES
100
AcDbLine
 62
4
  6
CONTINUOUS
 10
9.0303286617
 20
6.7699205667
 11
9.0375619953
 21
6.7644955667
  0
LINE
  5
235
100
AcDbEntity
  8
03__ASM_ALL_CURVES
100
AcDbLine
 62
4
  6
CONTINUOUS
 10
8.9652286604
 20
6.5583455667
 11
8.9579953288
 21
6.5691955667
  0
LINE
  5
236
100
AcDbEntity
  8
03__ASM_ALL_CURVES
100
AcDbLine
 62
4
  6
CONTINUOUS
 10
9.0230953288
 20
6.5583455667
 11
9.0447953288
 21
6.5529205667
  0
LINE
  5
237
100
AcDbEntity
  8
03__ASM_ALL_CURVES
100
AcDbLine
 62
4
  6
CONTINUOUS
 10
9.0158619946
 20
6.7753455667
 11
9.0303286617
 21
6.7699205667
  0
LINE
  5
238
100
AcDbEntity
  8
03__ASM_ALL_CURVES
100
AcDbLine
 62
4
  6
CONTINUOUS
 10
8.9579953288
 20
6.9272455667
 11
8.9724619972
 21
6.9163955667
  0
LINE
  5
239
100
AcDbEntity
  8
03__ASM_ALL_CURVES
100
AcDbLine
 62
4
  6
CONTINUOUS
 10
8.9724619972
 20
6.9923455667
 11
8.9652286604
 21
6.9977705667
  0
LINE
  5
23A
100
AcDbEntity
  8
03__ASM_ALL_CURVES
100
AcDbLine
 62
4
  6
CONTINUOUS
 10
9.0303286617
 20
7.0248955667
 11
9.0375619953
 21
7.0194705667
  0
LINE
  5
23B
100
AcDbEntity
  8
03__ASM_ALL_CURVES
100
AcDbLine
 62
4
  6
CONTINUOUS
 10
8.9796953288
 20
7.1171205667
 11
8.9869286604
 21
7.1116955667
  0
LINE
  5
23C
100
AcDbEntity
  8
03__ASM_ALL_CURVES
100
AcDbLine
 62
4
  6
CONTINUOUS
 10
8.9941619972
 20
6.5908955667
 11
9.008628663
 21
6.5691955667
  0
LINE
  5
23D
100
AcDbEntity
  8
03__ASM_ALL_CURVES
100
AcDbLine
 62
4
  6
CONTINUOUS
 10
8.9941619972
 20
6.7319455667
 11
8.9869286604
 21
6.7427955667
  0
LINE
  5
23E
100
AcDbEntity
  8
03__ASM_ALL_CURVES
100
AcDbLine
 62
4
  6
CONTINUOUS
 10
9.0375619953
 20
6.7644955667
 11
9.0447953288
 21
6.7536455667
  0
LINE
  5
23F
100
AcDbEntity
  8
03__ASM_ALL_CURVES
100
AcDbLine
 62
4
  6
CONTINUOUS
 10
8.9652286604
 20
6.9977705667
 11
8.9579953288
 21
7.0086205667
  0
LINE
  5
240
100
AcDbEntity
  8
03__ASM_ALL_CURVES
100
AcDbLine
 62
4
  6
CONTINUOUS
 10
8.9579953288
 20
6.7373705667
 11
8.9941619972
 21
6.7319455667
  0
LINE
  5
241
100
AcDbEntity
  8
03__ASM_ALL_CURVES
100
AcDbLine
 62
4
  6
CONTINUOUS
 10
8.9724619972
 20
6.9163955667
 11
8.9941619972
 21
6.9109705667
  0
LINE
  5
242
100
AcDbEntity
  8
03__ASM_ALL_CURVES
100
AcDbLine
 62
4
  6
CONTINUOUS
 10
8.9869286604
 20
6.9869205667
 11
8.9724619972
 21
6.9923455667
  0
LINE
  5
243
100
AcDbEntity
  8
03__ASM_ALL_CURVES
100
AcDbLine
 62
4
  6
CONTINUOUS
 10
9.0158619946
 20
6.9869205667
 11
9.0013953288
 21
6.9923455667
  0
LINE
  5
244
100
AcDbEntity
  8
03__ASM_ALL_CURVES
100
AcDbLine
 62
4
  6
CONTINUOUS
 10
9.0158619946
 20
7.0303205667
 11
9.0303286617
 21
7.0248955667
  0
LINE
  5
245
100
AcDbEntity
  8
03__ASM_ALL_CURVES
100
AcDbLine
 62
4
  6
CONTINUOUS
 10
9.0230953288
 20
7.1225455667
 11
9.0375619953
 21
7.1116955667
  0
LINE
  5
246
100
AcDbEntity
  8
03__ASM_ALL_CURVES
100
AcDbLine
 62
4
  6
CONTINUOUS
 10
9.0303286617
 20
7.2907205667
 11
9.0375619953
 21
7.2852955667
  0
LINE
  5
247
100
AcDbEntity
  8
03__ASM_ALL_CURVES
100
AcDbLine
 62
4
  6
CONTINUOUS
 10
9.0303286617
 20
7.3612455667
 11
9.0447953288
 21
7.3503955667
  0
LINE
  5
248
100
AcDbEntity
  8
03__ASM_ALL_CURVES
100
AcDbLine
 62
4
  6
CONTINUOUS
 10
8.9652286604
 20
7.0791455667
 11
8.9579953288
 21
7.0899955667
  0
LINE
  5
249
100
AcDbEntity
  8
03__ASM_ALL_CURVES
100
AcDbLine
 62
4
  6
CONTINUOUS
 10
9.0375619953
 20
7.0194705667
 11
9.0447953288
 21
7.0086205667
  0
LINE
  5
24A
100
AcDbEntity
  8
03__ASM_ALL_CURVES
100
AcDbLine
 62
4
  6
CONTINUOUS
 10
8.9869286604
 20
7.1116955667
 11
8.9941619972
 21
7.1008455667
  0
LINE
  5
24B
100
AcDbEntity
  8
03__ASM_ALL_CURVES
100
AcDbLine
 62
4
  6
CONTINUOUS
 10
9.0375619953
 20
7.1116955667
 11
9.0447953288
 21
7.1008455667
  0
LINE
  5
24C
100
AcDbEntity
  8
03__ASM_ALL_CURVES
100
AcDbLine
 62
4
  6
CONTINUOUS
 10
8.9941619972
 20
7.2527455667
 11
8.9869286604
 21
7.2635955667
  0
LINE
  5
24D
100
AcDbEntity
  8
03__ASM_ALL_CURVES
100
AcDbLine
 62
4
  6
CONTINUOUS
 10
9.0375619953
 20
7.2852955667
 11
9.0447953288
 21
7.2744455667
  0
LINE
  5
24E
100
AcDbEntity
  8
03__ASM_ALL_CURVES
100
AcDbLine
 62
4
  6
CONTINUOUS
 10
9.0013953288
 20
6.9923455667
 11
8.9941619972
 21
7.0086205667
  0
LINE
  5
24F
100
AcDbEntity
  8
03__ASM_ALL_CURVES
100
AcDbLine
 62
4
  6
CONTINUOUS
 10
8.9724619972
 20
6.5963205667
 11
8.9869286604
 21
6.5963205667
  0
LINE
  5
250
100
AcDbEntity
  8
03__ASM_ALL_CURVES
100
AcDbLine
 62
4
  6
CONTINUOUS
 10
9.0447953288
 20
6.6749830667
 11
9.0339453285
 21
6.6749830667
  0
LINE
  5
251
100
AcDbEntity
  8
03__ASM_ALL_CURVES
100
AcDbLine
 62
4
  6
CONTINUOUS
 10
9.0158619946
 20
7.2961455667
 11
9.0303286617
 21
7.2907205667
  0
LINE
  5
252
100
AcDbEntity
  8
03__ASM_ALL_CURVES
100
AcDbLine
 62
4
  6
CONTINUOUS
 10
8.9941619972
 20
6.9109705667
 11
9.008628663
 21
6.9109705667
  0
LINE
  5
253
100
AcDbEntity
  8
03__ASM_ALL_CURVES
100
AcDbLine
 62
4
  6
CONTINUOUS
 10
9.0158619946
 20
6.9869205667
 11
8.9869286604
 21
6.9869205667
  0
LINE
  5
254
100
AcDbEntity
  8
03__ASM_ALL_CURVES
100
AcDbLine
 62
4
  6
CONTINUOUS
 10
8.9579953288
 20
7.2581705667
 11
8.9941619972
 21
7.2527455667
  0
LINE
  5
255
100
AcDbEntity
  8
03__ASM_ALL_CURVES
100
AcDbLine
 62
4
  6
CONTINUOUS
 10
9.008628663
 20
7.3666705667
 11
9.0303286617
 21
7.3612455667
  0
LINE
  5
256
100
AcDbEntity
  8
03__ASM_ALL_CURVES
100
AcDbLine
 62
4
  6
CONTINUOUS
 10
8.9579953288
 20
7.2907205667
 11
8.9579953288
 21
7.2581705667
  0
LINE
  5
257
100
AcDbEntity
  8
03__ASM_ALL_CURVES
100
AcDbLine
 62
4
  6
CONTINUOUS
 10
8.9579953288
 20
6.7699205667
 11
8.9579953288
 21
6.7373705667
  0
LINE
  5
258
100
AcDbEntity
  8
03__ASM_ALL_CURVES
100
AcDbLine
 62
4
  6
CONTINUOUS
 10
8.9579953288
 20
6.5691955667
 11
8.9579953288
 21
6.5800455667
  0
LINE
  5
259
100
AcDbEntity
  8
03__ASM_ALL_CURVES
100
AcDbLine
 62
4
  6
CONTINUOUS
 10
8.9579953288
 20
7.0899955667
 11
8.9579953288
 21
7.1008455667
  0
LINE
  5
25A
100
AcDbEntity
  8
03__ASM_ALL_CURVES
100
AcDbLine
 62
4
  6
CONTINUOUS
 10
8.9724619972
 20
7.1171205667
 11
8.9796953288
 21
7.1171205667
  0
LINE
  5
25B
100
AcDbEntity
  8
03__ASM_ALL_CURVES
100
AcDbLine
 62
4
  6
CONTINUOUS
 10
9.0158619946
 20
7.1225455667
 11
9.0230953288
 21
7.1225455667
  0
LINE
  5
25C
100
AcDbEntity
  8
03__ASM_ALL_CURVES
100
AcDbLine
 62
4
  6
CONTINUOUS
 10
9.0447953288
 20
7.1957830667
 11
9.0339453285
 21
7.1957830667
  0
LINE
  5
25D
100
AcDbEntity
  8
03__ASM_ALL_CURVES
100
AcDbLine
 62
4
  6
CONTINUOUS
 10
8.9869286604
 20
6.7427955667
 11
8.9869286604
 21
6.7536455667
  0
LINE
  5
25E
100
AcDbEntity
  8
03__ASM_ALL_CURVES
100
AcDbLine
 62
4
  6
CONTINUOUS
 10
8.9869286604
 20
7.2635955667
 11
8.9869286604
 21
7.2744455667
  0
LINE
  5
25F
100
AcDbEntity
  8
03__ASM_ALL_CURVES
100
AcDbLine
 62
4
  6
CONTINUOUS
 10
8.9941619972
 20
7.0899955667
 11
8.9941619972
 21
7.1008455667
  0
LINE
  5
260
100
AcDbEntity
  8
03__ASM_ALL_CURVES
100
AcDbLine
 62
4
  6
CONTINUOUS
 10
9.0013953288
 20
8.7670205667
 11
9.0013953288
 21
7.4860205667
  0
LINE
  5
261
100
AcDbEntity
  8
0
100
AcDbLine
 62
7
  6
CONTINUOUS
 10
9.0013953288
 20
8.8538205667
 11
9.0013953288
 21
12.5538206144
  0
LINE
  5
262
100
AcDbEntity
  8
03__ASM_ALL_CURVES
100
AcDbLine
 62
4
  6
CONTINUOUS
 10
9.0447953288
 20
7.2744455667
 11
9.0447953288
 21
7.2635955667
  0
LINE
  5
263
100
AcDbEntity
  8
03__ASM_ALL_CURVES
100
AcDbLine
 62
4
  6
CONTINUOUS
 10
9.0447953288
 20
7.2039205667
 11
9.0447953288
 21
7.1957830667
  0
LINE
  5
264
100
AcDbEntity
  8
03__ASM_ALL_CURVES
100
AcDbLine
 62
4
  6
CONTINUOUS
 10
9.0447953288
 20
7.1008455667
 11
9.0447953288
 21
7.0899955667
  0
LINE
  5
265
100
AcDbEntity
  8
03__ASM_ALL_CURVES
100
AcDbLine
 62
4
  6
CONTINUOUS
 10
9.0447953288
 20
6.7536455667
 11
9.0447953288
 21
6.7427955667
  0
LINE
  5
266
100
AcDbEntity
  8
03__ASM_ALL_CURVES
100
AcDbLine
 62
4
  6
CONTINUOUS
 10
9.0447953288
 20
6.6831205667
 11
9.0447953288
 21
6.6749830667
  0
LINE
  5
267
100
AcDbEntity
  8
03__ASM_ALL_CURVES
100
AcDbLine
 62
4
  6
CONTINUOUS
 10
9.0447953288
 20
6.5529205667
 11
9.0447953288
 21
6.5963205667
  0
LINE
  5
268
100
AcDbEntity
  8
03__ASM_ALL_CURVES
100
AcDbLine
 62
4
  6
CONTINUOUS
 10
12.0493203288
 20
12.5899872351
 11
12.0601703288
 21
12.5972205667
  0
LINE
  5
269
100
AcDbEntity
  8
03__ASM_ALL_CURVES
100
AcDbLine
 62
4
  6
CONTINUOUS
 10
12.0818703288
 20
12.5682872351
 11
12.0710203288
 21
12.5610538983
  0
LINE
  5
26A
100
AcDbEntity
  8
03__ASM_ALL_CURVES
100
AcDbLine
 62
4
  6
CONTINUOUS
 10
12.0818703288
 20
12.5176539003
 11
12.0710203288
 21
12.5104205667
  0
LINE
  5
26B
100
AcDbEntity
  8
03__ASM_ALL_CURVES
100
AcDbLine
 62
4
  6
CONTINUOUS
 10
12.5158703288
 20
12.5538205667
 11
12.4995953288
 21
12.5465872325
  0
LINE
  5
26C
100
AcDbEntity
  8
03__ASM_ALL_CURVES
100
AcDbLine
 62
4
  6
CONTINUOUS
 10
12.7762703288
 20
12.5538205667
 11
12.7599953288
 21
12.5465872325
  0
LINE
  5
26D
100
AcDbEntity
  8
03__ASM_ALL_CURVES
100
AcDbLine
 62
4
  6
CONTINUOUS
 10
9.008628663
 20
6.9109705667
 11
9.0303286617
 21
6.9163955667
  0
LINE
  5
26E
100
AcDbEntity
  8
03__ASM_ALL_CURVES
100
AcDbLine
 62
4
  6
CONTINUOUS
 10
8.9941619972
 20
7.3666705667
 11
9.008628663
 21
7.3666705667
  0
LINE
  5
26F
100
AcDbEntity
  8
03__ASM_ALL_CURVES
100
AcDbLine
 62
4
  6
CONTINUOUS
 10
13.2812162038
 20
7.5156375667
 11
13.2669204538
 21
7.5156375667
  0
LINE
  5
270
100
AcDbEntity
  8
03__ASM_ALL_CURVES
100
AcDbLine
 62
4
  6
CONTINUOUS
 10
13.1882938288
 20
7.5156375667
 11
13.1775720163
 21
7.5156375667
  0
LINE
  5
271
100
AcDbEntity
  8
03__ASM_ALL_CURVES
100
AcDbLine
 62
4
  6
CONTINUOUS
 10
12.9381182038
 20
7.5156375667
 11
12.9238224538
 21
7.5156375667
  0
LINE
  5
272
100
AcDbEntity
  8
03__ASM_ALL_CURVES
100
AcDbLine
 62
4
  6
CONTINUOUS
 10
12.5950202038
 20
7.5156375667
 11
12.5807244538
 21
7.5156375667
  0
LINE
  5
273
100
AcDbEntity
  8
03__ASM_ALL_CURVES
100
AcDbLine
 62
4
  6
CONTINUOUS
 10
12.3877318288
 20
7.5156375667
 11
12.3770100163
 21
7.5156375667
  0
LINE
  5
274
100
AcDbEntity
  8
03__ASM_ALL_CURVES
100
AcDbLine
 62
4
  6
CONTINUOUS
 10
12.4449148288
 20
7.5156375667
 11
12.5020978288
 21
7.5156375667
  0
LINE
  5
275
100
AcDbEntity
  8
03__ASM_ALL_CURVES
100
AcDbLine
 62
4
  6
CONTINUOUS
 10
13.0167448288
 20
7.5156375667
 11
13.0739278288
 21
7.5156375667
  0
LINE
  5
276
100
AcDbEntity
  8
0
100
AcDbLine
 62
7
  6
CONTINUOUS
 10
10.0668953288
 20
7.6038205667
 11
10.0978953288
 21
7.5728205667
  0
LINE
  5
277
100
AcDbEntity
  8
0
100
AcDbLine
 62
7
  6
CONTINUOUS
 10
9.8778953288
 20
7.9048205667
 11
9.9278953288
 21
7.8548205667
  0
LINE
  5
278
100
AcDbEntity
  8
03__ASM_ALL_CURVES
100
AcDbLine
 62
4
  6
CONTINUOUS
 10
12.4887453288
 20
12.5899872351
 11
12.4995953288
 21
12.5972205667
  0
LINE
  5
279
100
AcDbEntity
  8
03__ASM_ALL_CURVES
100
AcDbLine
 62
4
  6
CONTINUOUS
 10
12.5701203288
 20
12.5899872351
 11
12.5809703288
 21
12.5972205667
  0
LINE
  5
27A
100
AcDbEntity
  8
03__ASM_ALL_CURVES
100
AcDbLine
 62
4
  6
CONTINUOUS
 10
12.5104453288
 20
12.5176539003
 11
12.4995953288
 21
12.5104205667
  0
LINE
  5
27B
100
AcDbEntity
  8
03__ASM_ALL_CURVES
100
AcDbLine
 62
4
  6
CONTINUOUS
 10
12.6026703288
 20
12.5682872351
 11
12.5918203288
 21
12.5610538983
  0
LINE
  5
27C
100
AcDbEntity
  8
0
100
AcDbLine
 62
7
  6
CONTINUOUS
 10
10.4048953834
 20
7.5728205667
 11
10.0978952742
 21
7.5728205667
  0
LINE
  5
27D
100
AcDbEntity
  8
03__ASM_ALL_CURVES
100
AcDbLine
 62
4
  6
CONTINUOUS
 10
11.6157613288
 20
7.5728205667
 11
11.9588593288
 21
7.5728205667
  0
LINE
  5
27E
100
AcDbEntity
  8
03__ASM_ALL_CURVES
100
AcDbLine
 62
4
  6
CONTINUOUS
 10
12.5807244538
 20
7.5823510645
 11
12.5950202038
 21
7.5823510645
  0
LINE
  5
27F
100
AcDbEntity
  8
03__ASM_ALL_CURVES
100
AcDbLine
 62
4
  6
CONTINUOUS
 10
12.9238224538
 20
7.5823510645
 11
12.9381182038
 21
7.5823510645
  0
LINE
  5
280
100
AcDbEntity
  8
03__ASM_ALL_CURVES
100
AcDbLine
 62
4
  6
CONTINUOUS
 10
13.2669204538
 20
7.591881569
 11
13.2812162038
 21
7.591881569
  0
LINE
  5
281
100
AcDbEntity
  8
0
100
AcDbLine
 62
7
  6
CONTINUOUS
 10
10.4358953288
 20
7.6038205667
 11
10.0668953288
 21
7.6038205667
  0
LINE
  5
282
100
AcDbEntity
  8
03__ASM_ALL_CURVES
100
AcDbLine
 62
4
  6
CONTINUOUS
 10
13.3026598288
 20
7.6300035667
 11
13.2597725788
 21
7.6300035667
  0
LINE
  5
283
100
AcDbEntity
  8
03__ASM_ALL_CURVES
100
AcDbLine
 62
4
  6
CONTINUOUS
 10
12.4663584538
 20
7.6300035667
 11
12.4806542038
 21
7.6300035667
  0
LINE
  5
284
100
AcDbEntity
  8
03__ASM_ALL_CURVES
100
AcDbLine
 62
4
  6
CONTINUOUS
 10
12.5807244538
 20
7.6300035667
 11
12.5950202038
 21
7.6300035667
  0
LINE
  5
285
100
AcDbEntity
  8
03__ASM_ALL_CURVES
100
AcDbLine
 62
4
  6
CONTINUOUS
 10
12.9238224538
 20
7.6300035667
 11
12.9381182038
 21
7.6300035667
  0
LINE
  5
286
100
AcDbEntity
  8
03__ASM_ALL_CURVES
100
AcDbLine
 62
4
  6
CONTINUOUS
 10
13.0381884538
 20
7.6300035667
 11
13.0524842038
 21
7.6300035667
  0
LINE
  5
287
100
AcDbEntity
  8
0
100
AcDbLine
 62
7
  6
CONTINUOUS
 10
10.3904349
 20
7.6358205667
 11
10.1100596065
 21
7.6358205667
  0
LINE
  5
288
100
AcDbEntity
  8
0
100
AcDbLine
 62
7
  6
CONTINUOUS
 10
9.9703789964
 20
7.6358205667
 11
10.1088843702
 21
7.6358205667
  0
LINE
  5
289
100
AcDbEntity
  8
0
100
AcDbLine
 62
7
  6
CONTINUOUS
 10
10.3916562408
 20
7.6358205667
 11
10.5324115435
 21
7.6358205667
  0
LINE
  5
28A
100
AcDbEntity
  8
03__ASM_ALL_CURVES
100
AcDbLine
 62
4
  6
CONTINUOUS
 10
12.6026703288
 20
12.5176539003
 11
12.5918203288
 21
12.5104205667
  0
LINE
  5
28B
100
AcDbEntity
  8
03__ASM_ALL_CURVES
100
AcDbLine
 62
4
  6
CONTINUOUS
 10
12.7491453288
 20
12.5899872351
 11
12.7599953288
 21
12.5972205667
  0
LINE
  5
28C
100
AcDbEntity
  8
03__ASM_ALL_CURVES
100
AcDbLine
 62
4
  6
CONTINUOUS
 10
12.8305203288
 20
12.5899872351
 11
12.8413703288
 21
12.5972205667
  0
LINE
  5
28D
100
AcDbEntity
  8
03__ASM_ALL_CURVES
100
AcDbLine
 62
4
  6
CONTINUOUS
 10
12.7708453288
 20
12.5176539003
 11
12.7599953288
 21
12.5104205667
  0
LINE
  5
28E
100
AcDbEntity
  8
03__ASM_ALL_CURVES
100
AcDbLine
 62
4
  6
CONTINUOUS
 10
12.8305203288
 20
12.5538205667
 11
12.8413703288
 21
12.5610538983
  0
LINE
  5
28F
100
AcDbEntity
  8
03__ASM_ALL_CURVES
100
AcDbLine
 62
4
  6
CONTINUOUS
 10
12.8630703288
 20
12.5682872351
 11
12.8522203288
 21
12.5610538983
  0
LINE
  5
290
100
AcDbEntity
  8
03__ASM_ALL_CURVES
100
AcDbLine
 62
4
  6
CONTINUOUS
 10
12.8630703288
 20
12.5176539003
 11
12.8522203288
 21
12.5104205667
  0
LINE
  5
291
100
AcDbEntity
  8
03__ASM_ALL_CURVES
100
AcDbLine
 62
4
  6
CONTINUOUS
 10
8.9724619972
 20
7.3612455667
 11
8.9941619972
 21
7.3666705667
  0
LINE
  5
292
100
AcDbEntity
  8
0
100
AcDbLine
 62
7
  6
CONTINUOUS
 10
10.5748953288
 20
7.8548205667
 11
9.9278953288
 21
7.8548205667
  0
LINE
  5
293
100
AcDbEntity
  8
0
100
AcDbLine
 62
7
  6
CONTINUOUS
 10
10.6248953288
 20
7.9048205667
 11
9.8778953288
 21
7.9048205667
  0
LINE
  5
294
100
AcDbEntity
  8
0
100
AcDbLine
 62
7
  6
CONTINUOUS
 10
10.6248953288
 20
7.9558205667
 11
9.8778953288
 21
7.9558205667
  0
LINE
  5
295
100
AcDbEntity
  8
0
100
AcDbLine
 62
7
  6
CONTINUOUS
 10
10.6198920589
 20
7.9608205667
 11
9.8828953288
 21
7.9608205667
  0
LINE
  5
296
100
AcDbEntity
  8
0
100
AcDbLine
 62
7
  6
CONTINUOUS
 10
9.9013953288
 20
7.9688205667
 11
10.6013953288
 21
7.9688205667
  0
LINE
  5
297
100
AcDbEntity
  8
0
100
AcDbLine
 62
7
  6
CONTINUOUS
 10
9.9013953288
 20
7.9908205667
 11
10.6013953288
 21
7.9908205667
  0
LINE
  5
298
100
AcDbEntity
  8
0
100
AcDbLine
 62
7
  6
CONTINUOUS
 10
10.6198920589
 20
7.9988205667
 11
9.8828953288
 21
7.9988205667
  0
LINE
  5
299
100
AcDbEntity
  8
0
100
AcDbLine
 62
7
  6
CONTINUOUS
 10
10.6248953288
 20
8.0038205667
 11
9.8778953288
 21
8.0038205667
  0
LINE
  5
29A
100
AcDbEntity
  8
0
100
AcDbLine
 62
7
  6
CONTINUOUS
 10
9.7623953288
 20
8.3888842326
 11
9.8213953288
 21
8.3548205667
  0
LINE
  5
29B
100
AcDbEntity
  8
0
100
AcDbLine
 62
7
  6
CONTINUOUS
 10
9.7623953288
 20
8.7623205667
 11
9.7623953288
 21
8.3888842326
  0
LINE
  5
29C
100
AcDbEntity
  8
0
100
AcDbLine
 62
7
  6
CONTINUOUS
 10
9.7632928563
 20
8.7623205667
 11
9.7632928563
 21
8.3888842326
  0
LINE
  5
29D
100
AcDbEntity
  8
0
100
AcDbLine
 62
7
  6
CONTINUOUS
 10
9.8228953288
 20
8.8538205667
 11
9.8228953288
 21
8.8228205667
  0
LINE
  5
29E
100
AcDbEntity
  8
0
100
AcDbLine
 62
7
  6
CONTINUOUS
 10
9.8778953288
 20
8.3548205667
 11
9.8778953288
 21
8.0038205667
  0
LINE
  5
29F
100
AcDbEntity
  8
0
100
AcDbLine
 62
7
  6
CONTINUOUS
 10
9.8778953288
 20
7.9558205667
 11
9.8778953288
 21
7.9048205667
  0
LINE
  5
2A0
100
AcDbEntity
  8
0
100
AcDbLine
 62
7
  6
CONTINUOUS
 10
9.9013953288
 20
7.9908205667
 11
9.9013953288
 21
7.9688205667
  0
LINE
  5
2A1
100
AcDbEntity
  8
0
100
AcDbLine
 62
7
  6
CONTINUOUS
 10
9.9703700853
 20
7.6358205667
 11
9.9703700853
 21
7.8548205299
  0
LINE
  5
2A2
100
AcDbEntity
  8
0
100
AcDbLine
 62
7
  6
CONTINUOUS
 10
9.9816978013
 20
8.7623205667
 11
9.9816978013
 21
8.3888842326
  0
LINE
  5
2A3
100
AcDbEntity
  8
03__ASM_ALL_CURVES
100
AcDbLine
 62
4
  6
CONTINUOUS
 10
11.5158619946
 20
8.2679205667
 11
11.4869286604
 21
8.2679205667
  0
LINE
  5
2A4
100
AcDbEntity
  8
0
100
AcDbLine
 62
7
  6
CONTINUOUS
 10
10.0329903838
 20
8.7623205667
 11
10.0329903838
 21
8.3888842326
  0
LINE
  5
2A5
100
AcDbEntity
  8
0
100
AcDbLine
 62
7
  6
CONTINUOUS
 10
10.0668953288
 20
7.6358205667
 11
10.0668953288
 21
7.6038205667
  0
LINE
  5
2A6
100
AcDbEntity
  8
03___PRT_ALL_CURVES
100
AcDbLine
 62
40
  6
CONTINUOUS
 10
10.2513953288
 20
12.1518205667
 11
10.2513953288
 21
12.1048205667
  0
LINE
  5
2A7
100
AcDbEntity
  8
0
100
AcDbLine
 62
7
  6
CONTINUOUS
 10
10.2513953288
 20
7.82970583
 11
10.2513953288
 21
7.6609353034
  0
LINE
  5
2A8
100
AcDbEntity
  8
03___PRT_ALL_CURVES
100
AcDbLine
 62
40
  6
CONTINUOUS
 10
10.2513953288
 20
11.4058205667
 11
10.2513953288
 21
11.4528205667
  0
LINE
  5
2A9
100
AcDbEntity
  8
03__ASM_ALL_CURVES
100
AcDbLine
 62
4
  6
CONTINUOUS
 10
8.9941619972
 20
7.0086205667
 11
9.0013953288
 21
7.0248955667
  0
LINE
  5
2AA
100
AcDbEntity
  8
03__ASM_ALL_CURVES
100
AcDbLine
 62
4
  6
CONTINUOUS
 10
12.0872953288
 20
12.5755205667
 11
12.0818703288
 21
12.5682872351
  0
LINE
  5
2AB
100
AcDbEntity
  8
03__ASM_ALL_CURVES
100
AcDbLine
 62
4
  6
CONTINUOUS
 10
12.0927203288
 20
12.5321205667
 11
12.0818703288
 21
12.5176539003
  0
LINE
  5
2AC
100
AcDbEntity
  8
03__ASM_ALL_CURVES
100
AcDbLine
 62
4
  6
CONTINUOUS
 10
11.4869286604
 20
8.3113205667
 11
11.5158619946
 21
8.3113205667
  0
LINE
  5
2AD
100
AcDbEntity
  8
0
100
AcDbLine
 62
7
  6
CONTINUOUS
 10
10.6813953288
 20
8.3548205667
 11
9.8213953288
 21
8.3548205667
  0
LINE
  5
2AE
100
AcDbEntity
  8
0
100
AcDbLine
 62
7
  6
CONTINUOUS
 10
10.7403953288
 20
8.3888842326
 11
10.7394978013
 21
8.3888842326
  0
LINE
  5
2AF
100
AcDbEntity
  8
0
100
AcDbLine
 62
7
  6
CONTINUOUS
 10
10.5210928563
 20
8.3888842326
 11
10.4698002738
 21
8.3888842326
  0
LINE
  5
2B0
100
AcDbEntity
  8
0
100
AcDbLine
 62
7
  6
CONTINUOUS
 10
10.0329903838
 20
8.3888842326
 11
9.9816978013
 21
8.3888842326
  0
LINE
  5
2B1
100
AcDbEntity
  8
0
100
AcDbLine
 62
7
  6
CONTINUOUS
 10
9.7632928563
 20
8.3888842326
 11
9.7623953288
 21
8.3888842326
  0
LINE
  5
2B2
100
AcDbEntity
  8
03__ASM_ALL_CURVES
100
AcDbLine
 62
4
  6
CONTINUOUS
 10
11.4869286604
 20
8.2679205667
 11
11.4724619972
 21
8.2733455667
  0
LINE
  5
2B3
100
AcDbEntity
  8
03__ASM_ALL_CURVES
100
AcDbLine
 62
4
  6
CONTINUOUS
 10
11.5158619946
 20
8.3113205667
 11
11.5303286617
 21
8.3058955667
  0
LINE
  5
2B4
100
AcDbEntity
  8
0
100
AcDbLine
 62
7
  6
CONTINUOUS
 10
10.4358953288
 20
7.6358205667
 11
10.4358953288
 21
7.6038205667
  0
LINE
  5
2B5
100
AcDbEntity
  8
0
100
AcDbLine
 62
7
  6
CONTINUOUS
 10
10.4698002738
 20
8.7623205667
 11
10.4698002738
 21
8.3888842326
  0
LINE
  5
2B6
100
AcDbEntity
  8
03__ASM_ALL_CURVES
100
AcDbLine
 62
4
  6
CONTINUOUS
 10
12.4182203288
 20
12.5972205667
 11
12.4073703288
 21
12.5827538983
  0
LINE
  5
2B7
100
AcDbEntity
  8
03__ASM_ALL_CURVES
100
AcDbLine
 62
4
  6
CONTINUOUS
 10
12.4833203288
 20
12.5827538983
 11
12.4887453288
 21
12.5899872351
  0
LINE
  5
2B8
100
AcDbEntity
  8
03__ASM_ALL_CURVES
100
AcDbLine
 62
4
  6
CONTINUOUS
 10
12.5158703288
 20
12.5248872338
 11
12.5104453288
 21
12.5176539003
  0
LINE
  5
2B9
100
AcDbEntity
  8
0
100
AcDbLine
 62
7
  6
CONTINUOUS
 10
10.7403953288
 20
8.7623205667
 11
10.7394978013
 21
8.7623205667
  0
LINE
  5
2BA
100
AcDbEntity
  8
0
100
AcDbLine
 62
7
  6
CONTINUOUS
 10
10.5210928563
 20
8.7623205667
 11
10.4698002738
 21
8.7623205667
  0
LINE
  5
2BB
100
AcDbEntity
  8
0
100
AcDbLine
 62
7
  6
CONTINUOUS
 10
10.0329903838
 20
8.7623205667
 11
9.9816978013
 21
8.7623205667
  0
LINE
  5
2BC
100
AcDbEntity
  8
0
100
AcDbLine
 62
7
  6
CONTINUOUS
 10
9.7632928563
 20
8.7623205667
 11
9.7623953288
 21
8.7623205667
  0
LINE
  5
2BD
100
AcDbEntity
  8
03__ASM_ALL_CURVES
100
AcDbLine
 62
4
  6
CONTINUOUS
 10
12.5807244538
 20
7.5156375667
 11
12.5664287038
 21
7.525168067
  0
LINE
  5
2BE
100
AcDbEntity
  8
03__ASM_ALL_CURVES
100
AcDbLine
 62
4
  6
CONTINUOUS
 10
12.4806542038
 20
7.6300035667
 11
12.4949499538
 21
7.620473069
  0
LINE
  5
2BF
100
AcDbEntity
  8
03__ASM_ALL_CURVES
100
AcDbLine
 62
4
  6
CONTINUOUS
 10
12.5807244538
 20
7.5823510645
 11
12.5664287038
 21
7.591881569
  0
LINE
  5
2C0
100
AcDbEntity
  8
03__ASM_ALL_CURVES
100
AcDbLine
 62
4
  6
CONTINUOUS
 10
12.5950202038
 20
7.5823510645
 11
12.6093159538
 21
7.5728205667
  0
LINE
  5
2C1
100
AcDbEntity
  8
03__ASM_ALL_CURVES
100
AcDbLine
 62
4
  6
CONTINUOUS
 10
12.5950202038
 20
7.6300035667
 11
12.6093159538
 21
7.620473069
  0
LINE
  5
2C2
100
AcDbEntity
  8
03__ASM_ALL_CURVES
100
AcDbLine
 62
4
  6
CONTINUOUS
 10
12.9238224538
 20
7.5156375667
 11
12.9095267038
 21
7.525168067
  0
LINE
  5
2C3
100
AcDbEntity
  8
03__ASM_ALL_CURVES
100
AcDbLine
 62
4
  6
CONTINUOUS
 10
11.4724619972
 20
8.2733455667
 11
11.4652286604
 21
8.2787705667
  0
LINE
  5
2C4
100
AcDbEntity
  8
03__ASM_ALL_CURVES
100
AcDbLine
 62
4
  6
CONTINUOUS
 10
11.5303286617
 20
8.3058955667
 11
11.5375619953
 21
8.3004705667
  0
LINE
  5
2C5
100
AcDbEntity
  8
0
100
AcDbLine
 62
7
  6
CONTINUOUS
 10
10.6798953288
 20
8.8228205667
 11
10.7403953288
 21
8.7623205667
  0
LINE
  5
2C6
100
AcDbEntity
  8
0
100
AcDbLine
 62
7
  6
CONTINUOUS
 10
10.5210928563
 20
8.7623205667
 11
10.5210928563
 21
8.3888842326
  0
LINE
  5
2C7
100
AcDbEntity
  8
0
100
AcDbLine
 62
7
  6
CONTINUOUS
 10
10.5324205724
 20
7.8548153679
 11
10.5324205724
 21
7.6358256871
  0
LINE
  5
2C8
100
AcDbEntity
  8
0
100
AcDbLine
 62
7
  6
CONTINUOUS
 10
10.6013953288
 20
7.9908205667
 11
10.6013953288
 21
7.9688205667
  0
LINE
  5
2C9
100
AcDbEntity
  8
0
100
AcDbLine
 62
7
  6
CONTINUOUS
 10
10.6248953288
 20
8.3548205667
 11
10.6248953288
 21
8.0038205667
  0
LINE
  5
2CA
100
AcDbEntity
  8
0
100
AcDbLine
 62
7
  6
CONTINUOUS
 10
10.6248953288
 20
7.9558205667
 11
10.6248953288
 21
7.9048205667
  0
LINE
  5
2CB
100
AcDbEntity
  8
0
100
AcDbLine
 62
7
  6
CONTINUOUS
 10
10.6798953288
 20
8.8538205667
 11
10.6798953288
 21
8.8228205667
  0
LINE
  5
2CC
100
AcDbEntity
  8
0
100
AcDbLine
 62
7
  6
CONTINUOUS
 10
10.7394978013
 20
8.7623205667
 11
10.7394978013
 21
8.3888842326
  0
LINE
  5
2CD
100
AcDbEntity
  8
0
100
AcDbLine
 62
7
  6
CONTINUOUS
 10
10.7403953288
 20
8.7623205667
 11
10.7403953288
 21
8.3888842326
  0
LINE
  5
2CE
100
AcDbEntity
  8
03__ASM_ALL_CURVES
100
AcDbLine
 62
4
  6
CONTINUOUS
 10
8.9869286604
 20
7.2744455667
 11
8.9941619972
 21
7.2852955667
  0
LINE
  5
2CF
100
AcDbEntity
  8
03__ASM_ALL_CURVES
100
AcDbLine
 62
4
  6
CONTINUOUS
 10
9.0447953288
 20
7.2635955667
 11
9.0375619953
 21
7.2527455667
  0
LINE
  5
2D0
100
AcDbEntity
  8
03__ASM_ALL_CURVES
100
AcDbLine
 62
4
  6
CONTINUOUS
 10
8.9579953288
 20
7.1008455667
 11
8.9652286604
 21
7.1116955667
  0
LINE
  5
2D1
100
AcDbEntity
  8
03__ASM_ALL_CURVES
100
AcDbLine
 62
4
  6
CONTINUOUS
 10
8.9941619972
 20
7.1008455667
 11
9.0013953288
 21
7.1116955667
  0
LINE
  5
2D2
100
AcDbEntity
  8
03__ASM_ALL_CURVES
100
AcDbLine
 62
4
  6
CONTINUOUS
 10
8.9579953288
 20
7.0086205667
 11
8.9652286604
 21
7.0194705667
  0
LINE
  5
2D3
100
AcDbEntity
  8
03__ASM_ALL_CURVES
100
AcDbLine
 62
4
  6
CONTINUOUS
 10
12.6080953288
 20
12.5755205667
 11
12.6026703288
 21
12.5682872351
  0
LINE
  5
2D4
100
AcDbEntity
  8
03__ASM_ALL_CURVES
100
AcDbLine
 62
4
  6
CONTINUOUS
 10
12.6135203288
 20
12.5321205667
 11
12.6026703288
 21
12.5176539003
  0
LINE
  5
2D5
100
AcDbEntity
  8
03__ASM_ALL_CURVES
100
AcDbLine
 62
4
  6
CONTINUOUS
 10
12.7437203288
 20
12.5827538983
 11
12.7491453288
 21
12.5899872351
  0
LINE
  5
2D6
100
AcDbEntity
  8
03__ASM_ALL_CURVES
100
AcDbLine
 62
4
  6
CONTINUOUS
 10
12.7762703288
 20
12.5248872338
 11
12.7708453288
 21
12.5176539003
  0
LINE
  5
2D7
100
AcDbEntity
  8
03__ASM_ALL_CURVES
100
AcDbLine
 62
4
  6
CONTINUOUS
 10
12.8250953288
 20
12.5827538983
 11
12.8305203288
 21
12.5899872351
  0
LINE
  5
2D8
100
AcDbEntity
  8
03__ASM_ALL_CURVES
100
AcDbLine
 62
4
  6
CONTINUOUS
 10
12.8196703288
 20
12.5393539009
 11
12.8305203288
 21
12.5538205667
  0
LINE
  5
2D9
100
AcDbEntity
  8
03__ASM_ALL_CURVES
100
AcDbLine
 62
4
  6
CONTINUOUS
 10
12.8684953288
 20
12.5755205667
 11
12.8630703288
 21
12.5682872351
  0
LINE
  5
2DA
100
AcDbEntity
  8
03__ASM_ALL_CURVES
100
AcDbLine
 62
4
  6
CONTINUOUS
 10
12.8739203288
 20
12.5321205667
 11
12.8630703288
 21
12.5176539003
  0
LINE
  5
2DB
100
AcDbEntity
  8
0
100
AcDbLine
 62
7
  6
CONTINUOUS
 10
9.8228953288
 20
8.8228205667
 11
9.7623953288
 21
8.7623205667
  0
LINE
  5
2DC
100
AcDbEntity
  8
0
100
AcDbLine
 62
7
  6
CONTINUOUS
 10
10.6798953288
 20
8.8228205667
 11
9.8228953288
 21
8.8228205667
  0
LINE
  5
2DD
100
AcDbEntity
  8
0
100
AcDbLine
 62
7
  6
CONTINUOUS
 10
11.5013953288
 20
8.8538205667
 11
9.0013953288
 21
8.8538205667
  0
LINE
  5
2DE
100
AcDbEntity
  8
03__ASM_ALL_CURVES
100
AcDbLine
 62
4
  6
CONTINUOUS
 10
11.5881953288
 20
8.8538205667
 11
11.8485953288
 21
8.8538205667
  0
LINE
  5
2DF
100
AcDbEntity
  8
03__ASM_ALL_CURVES
100
AcDbLine
 62
4
  6
CONTINUOUS
 10
12.9381182038
 20
7.5823510645
 11
12.9524139538
 21
7.5728205667
  0
LINE
  5
2E0
100
AcDbEntity
  8
03__ASM_ALL_CURVES
100
AcDbLine
 62
4
  6
CONTINUOUS
 10
12.9381182038
 20
7.6300035667
 11
12.9524139538
 21
7.620473069
  0
LINE
  5
2E1
100
AcDbEntity
  8
03__ASM_ALL_CURVES
100
AcDbLine
 62
4
  6
CONTINUOUS
 10
13.0524842038
 20
7.6300035667
 11
13.0667799538
 21
7.620473069
  0
LINE
  5
2E2
100
AcDbEntity
  8
03__ASM_ALL_CURVES
100
AcDbLine
 62
4
  6
CONTINUOUS
 10
13.2669204538
 20
7.5156375667
 11
13.2526247038
 21
7.525168067
  0
LINE
  5
2E3
100
AcDbEntity
  8
03__ASM_ALL_CURVES
100
AcDbLine
 62
4
  6
CONTINUOUS
 10
13.2812162038
 20
7.591881569
 11
13.2955119538
 21
7.5823510645
  0
LINE
  5
2E4
100
AcDbEntity
  8
03__ASM_ALL_CURVES
100
AcDbLine
 62
4
  6
CONTINUOUS
 10
11.4652286604
 20
8.2787705667
 11
11.4579953288
 21
8.2896205667
  0
LINE
  5
2E5
100
AcDbEntity
  8
03__ASM_ALL_CURVES
100
AcDbLine
 62
4
  6
CONTINUOUS
 10
9.0447953288
 20
7.0899955667
 11
9.0375619953
 21
7.0791455667
  0
LINE
  5
2E6
100
AcDbEntity
  8
03__ASM_ALL_CURVES
100
AcDbLine
 62
4
  6
CONTINUOUS
 10
9.0447953288
 20
7.0086205667
 11
9.0375619953
 21
6.9977705667
  0
LINE
  5
2E7
100
AcDbEntity
  8
03__ASM_ALL_CURVES
100
AcDbLine
 62
4
  6
CONTINUOUS
 10
8.9869286604
 20
6.7536455667
 11
8.9941619972
 21
6.7644955667
  0
LINE
  5
2E8
100
AcDbEntity
  8
03__ASM_ALL_CURVES
100
AcDbLine
 62
4
  6
CONTINUOUS
 10
9.0447953288
 20
6.7427955667
 11
9.0375619953
 21
6.7319455667
  0
LINE
  5
2E9
100
AcDbEntity
  8
03__ASM_ALL_CURVES
100
AcDbLine
 62
4
  6
CONTINUOUS
 10
8.9579953288
 20
6.5800455667
 11
8.9652286604
 21
6.5908955667
  0
LINE
  5
2EA
100
AcDbEntity
  8
03__ASM_ALL_CURVES
100
AcDbLine
 62
4
  6
CONTINUOUS
 10
12.9390203288
 20
12.5248872338
 11
12.9281703288
 21
12.5104205667
  0
LINE
  5
2EB
100
AcDbEntity
  8
03__ASM_ALL_CURVES
100
AcDbLine
 62
4
  6
CONTINUOUS
 10
12.3770100163
 20
7.5299333172
 11
12.3877318288
 21
7.5156375667
  0
LINE
  5
2EC
100
AcDbEntity
  8
03__ASM_ALL_CURVES
100
AcDbLine
 62
4
  6
CONTINUOUS
 10
11.5375619953
 20
8.3004705667
 11
11.5447953288
 21
8.2896205667
  0
LINE
  5
2ED
100
AcDbEntity
  8
03__ASM_ALL_CURVES
100
AcDbLine
 62
4
  6
CONTINUOUS
 10
12.2500453288
 20
12.5682872351
 11
12.2608953288
 21
12.5972205667
  0
LINE
  5
2EE
100
AcDbEntity
  8
03__ASM_ALL_CURVES
100
AcDbLine
 62
4
  6
CONTINUOUS
 10
13.3730203288
 20
9.4984205667
 11
13.3621703288
 21
9.4984205667
  0
LINE
  5
2EF
100
AcDbEntity
  8
03__ASM_ALL_CURVES
100
AcDbLine
 62
4
  6
CONTINUOUS
 10
12.7816953288
 20
9.4984205667
 11
12.7735578288
 21
9.4984205667
  0
LINE
  5
2F0
100
AcDbEntity
  8
03__ASM_ALL_CURVES
100
AcDbLine
 62
4
  6
CONTINUOUS
 10
12.3314203288
 20
9.4984205667
 11
12.3205703288
 21
9.4984205667
  0
LINE
  5
2F1
100
AcDbEntity
  8
03__ASM_ALL_CURVES
100
AcDbLine
 62
4
  6
CONTINUOUS
 10
12.1740953288
 20
9.4984205667
 11
12.1659578288
 21
9.4984205667
  0
LINE
  5
2F2
100
AcDbEntity
  8
03__ASM_ALL_CURVES
100
AcDbLine
 62
4
  6
CONTINUOUS
 10
12.8250953288
 20
9.4984205667
 11
12.8684953288
 21
9.4984205667
  0
LINE
  5
2F3
100
AcDbEntity
  8
03__ASM_ALL_CURVES
100
AcDbLine
 62
4
  6
CONTINUOUS
 10
13.2590953288
 20
9.4984205667
 11
13.3024953288
 21
9.4984205667
  0
LINE
  5
2F4
100
AcDbEntity
  8
03__ASM_ALL_CURVES
100
AcDbLine
 62
4
  6
CONTINUOUS
 10
11.5881953288
 20
9.5418205667
 11
11.8485953288
 21
9.5418205667
  0
LINE
  5
2F5
100
AcDbEntity
  8
03__ASM_ALL_CURVES
100
AcDbLine
 62
4
  6
CONTINUOUS
 10
12.3205703288
 20
9.5490538983
 11
12.3314203288
 21
9.5490538983
  0
LINE
  5
2F6
100
AcDbEntity
  8
03__ASM_ALL_CURVES
100
AcDbLine
 62
4
  6
CONTINUOUS
 10
12.0655953288
 20
8.8104205667
 11
12.0547453288
 21
8.8176539003
  0
LINE
  5
2F7
100
AcDbEntity
  8
03__ASM_ALL_CURVES
100
AcDbLine
 62
4
  6
CONTINUOUS
 10
12.0655953288
 20
8.8972205667
 11
12.0764453288
 21
8.8899872351
  0
LINE
  5
2F8
100
AcDbEntity
  8
03__ASM_ALL_CURVES
100
AcDbLine
 62
4
  6
CONTINUOUS
 10
12.5664287038
 20
7.525168067
 11
12.5521329538
 21
7.5442290667
  0
LINE
  5
2F9
100
AcDbEntity
  8
03__ASM_ALL_CURVES
100
AcDbLine
 62
4
  6
CONTINUOUS
 10
12.4949499538
 20
7.620473069
 11
12.5020978288
 21
7.6109425645
  0
LINE
  5
2FA
100
AcDbEntity
  8
03__ASM_ALL_CURVES
100
AcDbLine
 62
4
  6
CONTINUOUS
 10
12.5664287038
 20
7.591881569
 11
12.5592808288
 21
7.6014120667
  0
LINE
  5
2FB
100
AcDbEntity
  8
03__ASM_ALL_CURVES
100
AcDbLine
 62
4
  6
CONTINUOUS
 10
12.6093159538
 20
7.5728205667
 11
12.6236117038
 21
7.5537595679
  0
LINE
  5
2FC
100
AcDbEntity
  8
03__ASM_ALL_CURVES
100
AcDbLine
 62
4
  6
CONTINUOUS
 10
12.6093159538
 20
7.620473069
 11
12.6164638288
 21
7.6109425645
  0
LINE
  5
2FD
100
AcDbEntity
  8
03__ASM_ALL_CURVES
100
AcDbLine
 62
4
  6
CONTINUOUS
 10
11.5013953288
 20
8.7670205667
 11
11.5013953288
 21
8.5066205667
  0
LINE
  5
2FE
100
AcDbEntity
  8
0
100
AcDbLine
 62
7
  6
CONTINUOUS
 10
11.5013953288
 20
8.8538205667
 11
11.5013953288
 21
12.5538206144
  0
LINE
  5
2FF
100
AcDbEntity
  8
03__ASM_ALL_CURVES
100
AcDbLine
 62
4
  6
CONTINUOUS
 10
12.2446203288
 20
12.5465872325
 11
12.2500453288
 21
12.5682872351
  0
LINE
  5
300
100
AcDbEntity
  8
03__ASM_ALL_CURVES
100
AcDbLine
 62
4
  6
CONTINUOUS
 10
12.4778953288
 20
12.5682872351
 11
12.4833203288
 21
12.5827538983
  0
LINE
  5
301
100
AcDbEntity
  8
03__ASM_ALL_CURVES
100
AcDbLine
 62
4
  6
CONTINUOUS
 10
12.5212953288
 20
12.5682872351
 11
12.5158703288
 21
12.5538205667
  0
LINE
  5
302
100
AcDbEntity
  8
03__ASM_ALL_CURVES
100
AcDbLine
 62
4
  6
CONTINUOUS
 10
12.5212953288
 20
12.5393539009
 11
12.5158703288
 21
12.5248872338
  0
LINE
  5
303
100
AcDbEntity
  8
03__ASM_ALL_CURVES
100
AcDbLine
 62
4
  6
CONTINUOUS
 10
13.3730203288
 20
9.5852205667
 11
13.3621703288
 21
9.5852205667
  0
LINE
  5
304
100
AcDbEntity
  8
03__ASM_ALL_CURVES
100
AcDbLine
 62
4
  6
CONTINUOUS
 10
12.9552953288
 20
9.5852205667
 11
12.9118953288
 21
9.5852205667
  0
LINE
  5
305
100
AcDbEntity
  8
03__ASM_ALL_CURVES
100
AcDbLine
 62
4
  6
CONTINUOUS
 10
12.6948953288
 20
9.5852205667
 11
12.6514953288
 21
9.5852205667
  0
LINE
  5
306
100
AcDbEntity
  8
03__ASM_ALL_CURVES
100
AcDbLine
 62
4
  6
CONTINUOUS
 10
12.3205703288
 20
9.5852205667
 11
12.3314203288
 21
9.5852205667
  0
LINE
  5
307
100
AcDbEntity
  8
03__ASM_ALL_CURVES
100
AcDbLine
 62
4
  6
CONTINUOUS
 10
12.8413703288
 20
9.5852205667
 11
12.8522203288
 21
9.5852205667
  0
LINE
  5
308
100
AcDbEntity
  8
03__ASM_ALL_CURVES
100
AcDbLine
 62
4
  6
CONTINUOUS
 10
12.8094564538
 20
7.5346985673
 11
12.8237522038
 21
7.5156375667
  0
LINE
  5
309
100
AcDbEntity
  8
03__ASM_ALL_CURVES
100
AcDbLine
 62
4
  6
CONTINUOUS
 10
12.9095267038
 20
7.525168067
 11
12.9023788288
 21
7.5346985673
  0
LINE
  5
30A
100
AcDbEntity
  8
03__ASM_ALL_CURVES
100
AcDbLine
 62
4
  6
CONTINUOUS
 10
12.9524139538
 20
7.5728205667
 11
12.9667097038
 21
7.5537595679
  0
LINE
  5
30B
100
AcDbEntity
  8
03__ASM_ALL_CURVES
100
AcDbLine
 62
4
  6
CONTINUOUS
 10
12.9524139538
 20
7.620473069
 11
12.9595618288
 21
7.6109425645
  0
LINE
  5
30C
100
AcDbEntity
  8
03__ASM_ALL_CURVES
100
AcDbLine
 62
4
  6
CONTINUOUS
 10
12.0547453288
 20
8.8176539003
 11
12.0493203288
 21
8.8248872338
  0
LINE
  5
30D
100
AcDbEntity
  8
03__ASM_ALL_CURVES
100
AcDbLine
 62
4
  6
CONTINUOUS
 10
12.0764453288
 20
8.8899872351
 11
12.0818703288
 21
8.8827538983
  0
LINE
  5
30E
100
AcDbEntity
  8
03__ASM_ALL_CURVES
100
AcDbLine
 62
4
  6
CONTINUOUS
 10
12.4073703288
 20
12.5827538983
 11
12.4019453288
 21
12.5610538983
  0
LINE
  5
30F
100
AcDbEntity
  8
03__ASM_ALL_CURVES
100
AcDbLine
 62
4
  6
CONTINUOUS
 10
12.7382953288
 20
12.5682872351
 11
12.7437203288
 21
12.5827538983
  0
LINE
  5
310
100
AcDbEntity
  8
03__ASM_ALL_CURVES
100
AcDbLine
 62
4
  6
CONTINUOUS
 10
12.7816953288
 20
12.5682872351
 11
12.7762703288
 21
12.5538205667
  0
LINE
  5
311
100
AcDbEntity
  8
03__ASM_ALL_CURVES
100
AcDbLine
 62
4
  6
CONTINUOUS
 10
12.7816953288
 20
12.5393539009
 11
12.7762703288
 21
12.5248872338
  0
LINE
  5
312
100
AcDbEntity
  8
03__ASM_ALL_CURVES
100
AcDbLine
 62
4
  6
CONTINUOUS
 10
8.9579953288
 20
7.3503955667
 11
8.9724619972
 21
7.3612455667
  0
LINE
  5
313
100
AcDbEntity
  8
03__ASM_ALL_CURVES
100
AcDbLine
 62
4
  6
CONTINUOUS
 10
8.9941619972
 20
7.2852955667
 11
9.0013953288
 21
7.2907205667
  0
LINE
  5
314
100
AcDbEntity
  8
03__ASM_ALL_CURVES
100
AcDbLine
 62
4
  6
CONTINUOUS
 10
9.0375619953
 20
7.2527455667
 11
9.0303286617
 21
7.2473205667
  0
LINE
  5
315
100
AcDbEntity
  8
03__ASM_ALL_CURVES
100
AcDbLine
 62
4
  6
CONTINUOUS
 10
12.0547453288
 20
9.5779872351
 11
12.0655953288
 21
9.5852205667
  0
LINE
  5
316
100
AcDbEntity
  8
03__ASM_ALL_CURVES
100
AcDbLine
 62
4
  6
CONTINUOUS
 10
12.0764453288
 20
9.5056539003
 11
12.0655953288
 21
9.4984205667
  0
LINE
  5
317
100
AcDbEntity
  8
03__ASM_ALL_CURVES
100
AcDbLine
 62
4
  6
CONTINUOUS
 10
12.2283453288
 20
9.5779872351
 11
12.2391953288
 21
9.5852205667
  0
LINE
  5
318
100
AcDbEntity
  8
03__ASM_ALL_CURVES
100
AcDbLine
 62
4
  6
CONTINUOUS
 10
12.2229203288
 20
9.5418205667
 11
12.2391953288
 21
9.5490538983
  0
LINE
  5
319
100
AcDbEntity
  8
03__ASM_ALL_CURVES
100
AcDbLine
 62
4
  6
CONTINUOUS
 10
12.2391953288
 20
9.5490538983
 11
12.2554703288
 21
9.5418205667
  0
LINE
  5
31A
100
AcDbEntity
  8
03__ASM_ALL_CURVES
100
AcDbLine
 62
4
  6
CONTINUOUS
 10
12.0655953288
 20
9.4984205667
 11
12.0547453288
 21
9.5056539003
  0
LINE
  5
31B
100
AcDbEntity
  8
03__ASM_ALL_CURVES
100
AcDbLine
 62
4
  6
CONTINUOUS
 10
12.0655953288
 20
9.5852205667
 11
12.0764453288
 21
9.5779872351
  0
LINE
  5
31C
100
AcDbEntity
  8
03__ASM_ALL_CURVES
100
AcDbLine
 62
4
  6
CONTINUOUS
 10
12.2391953288
 20
9.4984205667
 11
12.2283453288
 21
9.5056539003
  0
LINE
  5
31D
100
AcDbEntity
  8
03__ASM_ALL_CURVES
100
AcDbLine
 62
4
  6
CONTINUOUS
 10
13.0667799538
 20
7.620473069
 11
13.0739278288
 21
7.6109425645
  0
LINE
  5
31E
100
AcDbEntity
  8
03__ASM_ALL_CURVES
100
AcDbLine
 62
4
  6
CONTINUOUS
 10
13.1775720163
 20
7.5299333172
 11
13.1882938288
 21
7.5156375667
  0
LINE
  5
31F
100
AcDbEntity
  8
03__ASM_ALL_CURVES
100
AcDbLine
 62
4
  6
CONTINUOUS
 10
13.2526247038
 20
7.525168067
 11
13.2454768288
 21
7.5346985673
  0
LINE
  5
320
100
AcDbEntity
  8
03__ASM_ALL_CURVES
100
AcDbLine
 62
4
  6
CONTINUOUS
 10
13.2955119538
 20
7.5823510645
 11
13.3026598288
 21
7.5728205667
  0
LINE
  5
321
100
AcDbEntity
  8
03__ASM_ALL_CURVES
100
AcDbLine
 62
4
  6
CONTINUOUS
 10
12.0493203288
 20
8.8248872338
 11
12.0438953288
 21
8.8393539009
  0
LINE
  5
322
100
AcDbEntity
  8
03__ASM_ALL_CURVES
100
AcDbLine
 62
4
  6
CONTINUOUS
 10
12.2391953288
 20
12.5104205667
 11
12.2446203288
 21
12.5465872325
  0
LINE
  5
323
100
AcDbEntity
  8
03__ASM_ALL_CURVES
100
AcDbLine
 62
4
  6
CONTINUOUS
 10
12.0438953288
 20
9.5562872351
 11
12.0493203288
 21
9.5707538983
  0
LINE
  5
324
100
AcDbEntity
  8
03__ASM_ALL_CURVES
100
AcDbLine
 62
4
  6
CONTINUOUS
 10
12.0493203288
 20
9.5707538983
 11
12.0547453288
 21
9.5779872351
  0
LINE
  5
325
100
AcDbEntity
  8
03__ASM_ALL_CURVES
100
AcDbLine
 62
4
  6
CONTINUOUS
 10
12.0818703288
 20
9.5128872338
 11
12.0764453288
 21
9.5056539003
  0
LINE
  5
326
100
AcDbEntity
  8
03__ASM_ALL_CURVES
100
AcDbLine
 62
4
  6
CONTINUOUS
 10
12.2229203288
 20
9.5707538983
 11
12.2283453288
 21
9.5779872351
  0
LINE
  5
327
100
AcDbEntity
  8
0
100
AcDbLine
 62
7
  6
CONTINUOUS
 10
10.6248953288
 20
7.9048205667
 11
10.5748953288
 21
7.8548205667
  0
LINE
  5
328
100
AcDbEntity
  8
03__ASM_ALL_CURVES
100
AcDbLine
 62
4
  6
CONTINUOUS
 10
9.0339453285
 20
7.1957830667
 11
9.0447953288
 21
7.2039205667
  0
LINE
  5
329
100
AcDbEntity
  8
03__ASM_ALL_CURVES
100
AcDbLine
 62
4
  6
CONTINUOUS
 10
8.9652286604
 20
7.1116955667
 11
8.9724619972
 21
7.1171205667
  0
LINE
  5
32A
100
AcDbEntity
  8
03__ASM_ALL_CURVES
100
AcDbLine
 62
4
  6
CONTINUOUS
 10
9.0013953288
 20
7.1116955667
 11
9.0158619946
 21
7.1225455667
  0
LINE
  5
32B
100
AcDbEntity
  8
03__ASM_ALL_CURVES
100
AcDbLine
 62
4
  6
CONTINUOUS
 10
9.0375619953
 20
7.0791455667
 11
9.0303286617
 21
7.0737205667
  0
LINE
  5
32C
100
AcDbEntity
  8
03__ASM_ALL_CURVES
100
AcDbLine
 62
4
  6
CONTINUOUS
 10
8.9652286604
 20
7.0194705667
 11
8.9724619972
 21
7.0248955667
  0
LINE
  5
32D
100
AcDbEntity
  8
03__ASM_ALL_CURVES
100
AcDbLine
 62
4
  6
CONTINUOUS
 10
9.0375619953
 20
6.9977705667
 11
9.0303286617
 21
6.9923455667
  0
LINE
  5
32E
100
AcDbEntity
  8
03__ASM_ALL_CURVES
100
AcDbLine
 62
4
  6
CONTINUOUS
 10
9.0303286617
 20
6.9163955667
 11
9.0447953288
 21
6.9272455667
  0
LINE
  5
32F
100
AcDbEntity
  8
03__ASM_ALL_CURVES
100
AcDbLine
 62
4
  6
CONTINUOUS
 10
12.3097203288
 20
9.5779872351
 11
12.3205703288
 21
9.5852205667
  0
LINE
  5
330
100
AcDbEntity
  8
03__ASM_ALL_CURVES
100
AcDbLine
 62
4
  6
CONTINUOUS
 10
12.2500453288
 20
9.5056539003
 11
12.2391953288
 21
9.4984205667
  0
LINE
  5
331
100
AcDbEntity
  8
03__ASM_ALL_CURVES
100
AcDbLine
 62
4
  6
CONTINUOUS
 10
12.3097203288
 20
9.5418205667
 11
12.3205703288
 21
9.5490538983
  0
LINE
  5
332
100
AcDbEntity
  8
03__ASM_ALL_CURVES
100
AcDbLine
 62
4
  6
CONTINUOUS
 10
12.3422703288
 20
9.5562872351
 11
12.3314203288
 21
9.5490538983
  0
LINE
  5
333
100
AcDbEntity
  8
03__ASM_ALL_CURVES
100
AcDbLine
 62
4
  6
CONTINUOUS
 10
12.3422703288
 20
9.5056539003
 11
12.3314203288
 21
9.4984205667
  0
LINE
  5
334
100
AcDbEntity
  8
0
100
AcDbLine
 62
7
  6
CONTINUOUS
 10
10.7403953288
 20
8.3888842326
 11
10.6813953288
 21
8.3548205667
  0
LINE
  5
335
100
AcDbEntity
  8
03__ASM_ALL_CURVES
100
AcDbLine
 62
4
  6
CONTINUOUS
 10
12.3205703288
 20
9.4984205667
 11
12.3097203288
 21
9.5056539003
  0
LINE
  5
336
100
AcDbEntity
  8
03__ASM_ALL_CURVES
100
AcDbLine
 62
4
  6
CONTINUOUS
 10
12.2391953288
 20
9.5852205667
 11
12.2500453288
 21
9.5779872351
  0
LINE
  5
337
100
AcDbEntity
  8
03__ASM_ALL_CURVES
100
AcDbLine
 62
4
  6
CONTINUOUS
 10
12.3205703288
 20
9.5490538983
 11
12.3097203288
 21
9.5562872351
  0
LINE
  5
338
100
AcDbEntity
  8
03__ASM_ALL_CURVES
100
AcDbLine
 62
4
  6
CONTINUOUS
 10
12.3314203288
 20
9.5490538983
 11
12.3422703288
 21
9.5418205667
  0
LINE
  5
339
100
AcDbEntity
  8
03__ASM_ALL_CURVES
100
AcDbLine
 62
4
  6
CONTINUOUS
 10
12.3314203288
 20
9.5852205667
 11
12.3422703288
 21
9.5779872351
  0
LINE
  5
33A
100
AcDbEntity
  8
03__ASM_ALL_CURVES
100
AcDbLine
 62
4
  6
CONTINUOUS
 10
12.0547453288
 20
9.5056539003
 11
12.0493203288
 21
9.5128872338
  0
LINE
  5
33B
100
AcDbEntity
  8
03__ASM_ALL_CURVES
100
AcDbLine
 62
4
  6
CONTINUOUS
 10
13.4956524538
 20
7.6300035667
 11
13.5099482038
 21
7.6109425645
  0
LINE
  5
33C
100
AcDbEntity
  8
03__ASM_ALL_CURVES
100
AcDbLine
 62
4
  6
CONTINUOUS
 10
12.0764453288
 20
9.5779872351
 11
12.0818703288
 21
9.5707538983
  0
LINE
  5
33D
100
AcDbEntity
  8
03__ASM_ALL_CURVES
100
AcDbLine
 62
4
  6
CONTINUOUS
 10
12.1659578288
 20
9.5092705671
 11
12.1740953288
 21
9.4984205667
  0
LINE
  5
33E
100
AcDbEntity
  8
03__ASM_ALL_CURVES
100
AcDbLine
 62
4
  6
CONTINUOUS
 10
12.2283453288
 20
9.5056539003
 11
12.2229203288
 21
9.5128872338
  0
LINE
  5
33F
100
AcDbEntity
  8
03__ASM_ALL_CURVES
100
AcDbLine
 62
4
  6
CONTINUOUS
 10
12.0818703288
 20
8.8827538983
 11
12.0872953288
 21
8.8682872351
  0
LINE
  5
340
100
AcDbEntity
  8
03__ASM_ALL_CURVES
100
AcDbLine
 62
4
  6
CONTINUOUS
 10
12.0493203288
 20
9.5128872338
 11
12.0438953288
 21
9.5273539009
  0
LINE
  5
341
100
AcDbEntity
  8
03__ASM_ALL_CURVES
100
AcDbLine
 62
4
  6
CONTINUOUS
 10
12.0438953288
 20
8.8393539009
 11
12.0438953288
 21
8.8682872351
  0
LINE
  5
342
100
AcDbEntity
  8
03__ASM_ALL_CURVES
100
AcDbLine
 62
4
  6
CONTINUOUS
 10
12.0438953288
 20
9.5273539009
 11
12.0438953288
 21
9.5562872351
  0
LINE
  5
343
100
AcDbEntity
  8
03__ASM_ALL_CURVES
100
AcDbLine
 62
4
  6
CONTINUOUS
 10
12.0872953288
 20
12.5827538983
 11
12.0872953288
 21
12.5755205667
  0
LINE
  5
344
100
AcDbEntity
  8
03__ASM_ALL_CURVES
100
AcDbLine
 62
4
  6
CONTINUOUS
 10
12.0872953288
 20
9.5562872351
 11
12.0872953288
 21
9.5273539009
  0
LINE
  5
345
100
AcDbEntity
  8
03__ASM_ALL_CURVES
100
AcDbLine
 62
4
  6
CONTINUOUS
 10
12.0872953288
 20
8.8682872351
 11
12.0872953288
 21
8.8393539009
  0
LINE
  5
346
100
AcDbEntity
  8
03__ASM_ALL_CURVES
100
AcDbLine
 62
4
  6
CONTINUOUS
 10
12.0927203288
 20
12.5393539009
 11
12.0927203288
 21
12.5321205667
  0
LINE
  5
347
100
AcDbEntity
  8
03__ASM_ALL_CURVES
100
AcDbLine
 62
4
  6
CONTINUOUS
 10
12.1659578288
 20
9.4984205667
 11
12.1659578288
 21
9.5092705671
  0
LINE
  5
348
100
AcDbEntity
  8
03__ASM_ALL_CURVES
100
AcDbLine
 62
4
  6
CONTINUOUS
 10
12.1659578288
 20
12.5104205667
 11
12.1659578288
 21
12.5212705671
  0
LINE
  5
349
100
AcDbEntity
  8
03__ASM_ALL_CURVES
100
AcDbLine
 62
4
  6
CONTINUOUS
 10
12.2174953288
 20
9.5273539009
 11
12.2174953288
 21
9.5562872351
  0
LINE
  5
34A
100
AcDbEntity
  8
03__ASM_ALL_CURVES
100
AcDbLine
 62
4
  6
CONTINUOUS
 10
12.2447743288
 20
7.6300035667
 11
12.2447743288
 21
7.5156375667
  0
LINE
  5
34B
100
AcDbEntity
  8
03__ASM_ALL_CURVES
100
AcDbLine
 62
4
  6
CONTINUOUS
 10
12.9444453288
 20
12.5465872325
 11
12.9390203288
 21
12.5248872338
  0
LINE
  5
34C
100
AcDbEntity
  8
03__ASM_ALL_CURVES
100
AcDbLine
 62
4
  6
CONTINUOUS
 10
12.0872953288
 20
9.5273539009
 11
12.0818703288
 21
9.5128872338
  0
LINE
  5
34D
100
AcDbEntity
  8
03__ASM_ALL_CURVES
100
AcDbLine
 62
4
  6
CONTINUOUS
 10
12.2174953288
 20
9.5562872351
 11
12.2229203288
 21
9.5707538983
  0
LINE
  5
34E
100
AcDbEntity
  8
03__ASM_ALL_CURVES
100
AcDbLine
 62
4
  6
CONTINUOUS
 10
12.2174953288
 20
9.5273539009
 11
12.2229203288
 21
9.5418205667
  0
LINE
  5
34F
100
AcDbEntity
  8
03__ASM_ALL_CURVES
100
AcDbLine
 62
4
  6
CONTINUOUS
 10
12.2608953288
 20
9.5273539009
 11
12.2554703288
 21
9.5128872338
  0
LINE
  5
350
100
AcDbEntity
  8
03__ASM_ALL_CURVES
100
AcDbLine
 62
4
  6
CONTINUOUS
 10
12.0438953288
 20
8.8682872351
 11
12.0493203288
 21
8.8827538983
  0
LINE
  5
351
100
AcDbEntity
  8
03__ASM_ALL_CURVES
100
AcDbLine
 62
4
  6
CONTINUOUS
 10
12.0872953288
 20
8.8393539009
 11
12.0818703288
 21
8.8248872338
  0
LINE
  5
352
100
AcDbEntity
  8
03__ASM_ALL_CURVES
100
AcDbLine
 62
4
  6
CONTINUOUS
 10
11.4579953288
 20
8.2896205667
 11
11.4652286604
 21
8.3004705667
  0
LINE
  5
353
100
AcDbEntity
  8
03__ASM_ALL_CURVES
100
AcDbLine
 62
4
  6
CONTINUOUS
 10
11.5447953288
 20
8.2896205667
 11
11.5375619953
 21
8.2787705667
  0
LINE
  5
354
100
AcDbEntity
  8
03__ASM_ALL_CURVES
100
AcDbLine
 62
4
  6
CONTINUOUS
 10
12.2554703288
 20
9.5128872338
 11
12.2500453288
 21
9.5056539003
  0
LINE
  5
355
100
AcDbEntity
  8
03__ASM_ALL_CURVES
100
AcDbLine
 62
4
  6
CONTINUOUS
 10
12.3042953288
 20
9.5707538983
 11
12.3097203288
 21
9.5779872351
  0
LINE
  5
356
100
AcDbEntity
  8
03__ASM_ALL_CURVES
100
AcDbLine
 62
4
  6
CONTINUOUS
 10
12.2988703288
 20
9.5273539009
 11
12.3097203288
 21
9.5418205667
  0
LINE
  5
357
100
AcDbEntity
  8
03__ASM_ALL_CURVES
100
AcDbLine
 62
4
  6
CONTINUOUS
 10
12.3476953288
 20
9.5635205667
 11
12.3422703288
 21
9.5562872351
  0
LINE
  5
358
100
AcDbEntity
  8
03__ASM_ALL_CURVES
100
AcDbLine
 62
4
  6
CONTINUOUS
 10
12.3531203288
 20
9.5201205667
 11
12.3422703288
 21
9.5056539003
  0
LINE
  5
359
100
AcDbEntity
  8
03__ASM_ALL_CURVES
100
AcDbLine
 62
4
  6
CONTINUOUS
 10
12.5050203288
 20
9.5852205667
 11
12.4941703288
 21
9.5707538983
  0
LINE
  5
35A
100
AcDbEntity
  8
03__ASM_ALL_CURVES
100
AcDbLine
 62
4
  6
CONTINUOUS
 10
12.0493203288
 20
8.8827538983
 11
12.0547453288
 21
8.8899872351
  0
LINE
  5
35B
100
AcDbEntity
  8
0
100
AcDbLine
 62
7
  6
CONTINUOUS
 10
10.4358953288
 20
7.6038205667
 11
10.4048953288
 21
7.5728205667
  0
LINE
  5
35C
100
AcDbEntity
  8
03__ASM_ALL_CURVES
100
AcDbLine
 62
4
  6
CONTINUOUS
 10
8.9941619972
 20
6.7644955667
 11
9.0013953288
 21
6.7699205667
  0
LINE
  5
35D
100
AcDbEntity
  8
03__ASM_ALL_CURVES
100
AcDbLine
 62
4
  6
CONTINUOUS
 10
9.0375619953
 20
6.7319455667
 11
9.0303286617
 21
6.7265205667
  0
LINE
  5
35E
100
AcDbEntity
  8
03__ASM_ALL_CURVES
100
AcDbLine
 62
4
  6
CONTINUOUS
 10
9.0339453285
 20
6.6749830667
 11
9.0447953288
 21
6.6831205667
  0
LINE
  5
35F
100
AcDbEntity
  8
03__ASM_ALL_CURVES
100
AcDbLine
 62
4
  6
CONTINUOUS
 10
8.9652286604
 20
6.5908955667
 11
8.9724619972
 21
6.5963205667
  0
LINE
  5
360
100
AcDbEntity
  8
03__ASM_ALL_CURVES
100
AcDbLine
 62
4
  6
CONTINUOUS
 10
12.8305203288
 20
9.5779872351
 11
12.8413703288
 21
9.5852205667
  0
LINE
  5
361
100
AcDbEntity
  8
03__ASM_ALL_CURVES
100
AcDbLine
 62
4
  6
CONTINUOUS
 10
12.8630703288
 20
9.5490538983
 11
12.8413703288
 21
9.5345872325
  0
LINE
  5
362
100
AcDbEntity
  8
03__ASM_ALL_CURVES
100
AcDbLine
 62
4
  6
CONTINUOUS
 10
12.0547453288
 20
8.8899872351
 11
12.0655953288
 21
8.8972205667
  0
LINE
  5
363
100
AcDbEntity
  8
03__ASM_ALL_CURVES
100
AcDbLine
 62
4
  6
CONTINUOUS
 10
12.8522203288
 20
9.5852205667
 11
12.8630703288
 21
9.5779872351
  0
LINE
  5
364
100
AcDbEntity
  8
03__ASM_ALL_CURVES
100
AcDbLine
 62
4
  6
CONTINUOUS
 10
12.2500453288
 20
9.5779872351
 11
12.2554703288
 21
9.5707538983
  0
LINE
  5
365
100
AcDbEntity
  8
03__ASM_ALL_CURVES
100
AcDbLine
 62
4
  6
CONTINUOUS
 10
12.3097203288
 20
9.5056539003
 11
12.2988703288
 21
9.5201205667
  0
LINE
  5
366
100
AcDbEntity
  8
03__ASM_ALL_CURVES
100
AcDbLine
 62
4
  6
CONTINUOUS
 10
12.3097203288
 20
9.5562872351
 11
12.3042953288
 21
9.5635205667
  0
LINE
  5
367
100
AcDbEntity
  8
03__ASM_ALL_CURVES
100
AcDbLine
 62
4
  6
CONTINUOUS
 10
12.3422703288
 20
9.5418205667
 11
12.3531203288
 21
9.5273539009
  0
LINE
  5
368
100
AcDbEntity
  8
03__ASM_ALL_CURVES
100
AcDbLine
 62
4
  6
CONTINUOUS
 10
12.3422703288
 20
9.5779872351
 11
12.3476953288
 21
9.5707538983
  0
LINE
  5
369
100
AcDbEntity
  8
03__ASM_ALL_CURVES
100
AcDbLine
 62
4
  6
CONTINUOUS
 10
12.4941703288
 20
9.5128872338
 11
12.5050203288
 21
9.4984205667
  0
LINE
  5
36A
100
AcDbEntity
  8
03__ASM_ALL_CURVES
100
AcDbLine
 62
4
  6
CONTINUOUS
 10
12.0818703288
 20
9.5707538983
 11
12.0872953288
 21
9.5562872351
  0
LINE
  5
36B
100
AcDbEntity
  8
03__ASM_ALL_CURVES
100
AcDbLine
 62
4
  6
CONTINUOUS
 10
12.2229203288
 20
9.5128872338
 11
12.2174953288
 21
9.5273539009
  0
LINE
  5
36C
100
AcDbEntity
  8
03__ASM_ALL_CURVES
100
AcDbLine
 62
4
  6
CONTINUOUS
 10
12.2554703288
 20
9.5418205667
 11
12.2608953288
 21
9.5273539009
  0
LINE
  5
36D
100
AcDbEntity
  8
03__ASM_ALL_CURVES
100
AcDbLine
 62
4
  6
CONTINUOUS
 10
12.8023085788
 20
7.5632900656
 11
12.8094564538
 21
7.5346985673
  0
LINE
  5
36E
100
AcDbEntity
  8
03__ASM_ALL_CURVES
100
AcDbLine
 62
4
  6
CONTINUOUS
 10
12.2988703288
 20
9.5201205667
 11
12.2988703288
 21
9.5273539009
  0
LINE
  5
36F
100
AcDbEntity
  8
03__ASM_ALL_CURVES
100
AcDbLine
 62
4
  6
CONTINUOUS
 10
12.3042953288
 20
9.5635205667
 11
12.3042953288
 21
9.5707538983
  0
LINE
  5
370
100
AcDbEntity
  8
03__ASM_ALL_CURVES
100
AcDbLine
 62
4
  6
CONTINUOUS
 10
12.3476953288
 20
9.5707538983
 11
12.3476953288
 21
9.5635205667
  0
LINE
  5
371
100
AcDbEntity
  8
03__ASM_ALL_CURVES
100
AcDbLine
 62
4
  6
CONTINUOUS
 10
12.3531203288
 20
9.5273539009
 11
12.3531203288
 21
9.5201205667
  0
LINE
  5
372
100
AcDbEntity
  8
03__ASM_ALL_CURVES
100
AcDbLine
 62
4
  6
CONTINUOUS
 10
12.3770100163
 20
7.5156375667
 11
12.3770100163
 21
7.5299333172
  0
LINE
  5
373
100
AcDbEntity
  8
03__ASM_ALL_CURVES
100
AcDbLine
 62
4
  6
CONTINUOUS
 10
12.4019453288
 20
12.5610538983
 11
12.4019453288
 21
12.5465872325
  0
LINE
  5
374
100
AcDbEntity
  8
03__ASM_ALL_CURVES
100
AcDbLine
 62
4
  6
CONTINUOUS
 10
12.4887453288
 20
9.5490538983
 11
12.4887453288
 21
9.5345872325
  0
LINE
  5
375
100
AcDbEntity
  8
03__ASM_ALL_CURVES
100
AcDbLine
 62
4
  6
CONTINUOUS
 10
12.5020978288
 20
7.6109425645
 11
12.5020978288
 21
7.591881569
  0
LINE
  5
376
100
AcDbEntity
  8
03__ASM_ALL_CURVES
100
AcDbLine
 62
4
  6
CONTINUOUS
 10
12.5212953288
 20
12.5682872351
 11
12.5212953288
 21
12.5393539009
  0
LINE
  5
377
100
AcDbEntity
  8
03__ASM_ALL_CURVES
100
AcDbLine
 62
4
  6
CONTINUOUS
 10
12.4941703288
 20
9.5707538983
 11
12.4887453288
 21
9.5490538983
  0
LINE
  5
378
100
AcDbEntity
  8
03__ASM_ALL_CURVES
100
AcDbLine
 62
4
  6
CONTINUOUS
 10
12.0818703288
 20
8.8248872338
 11
12.0764453288
 21
8.8176539003
  0
LINE
  5
379
100
AcDbEntity
  8
03__ASM_ALL_CURVES
100
AcDbLine
 62
4
  6
CONTINUOUS
 10
12.8250953288
 20
9.5707538983
 11
12.8305203288
 21
9.5779872351
  0
LINE
  5
37A
100
AcDbEntity
  8
03__ASM_ALL_CURVES
100
AcDbLine
 62
4
  6
CONTINUOUS
 10
12.8413703288
 20
9.5345872325
 11
12.8305203288
 21
9.5201205667
  0
LINE
  5
37B
100
AcDbEntity
  8
03__ASM_ALL_CURVES
100
AcDbLine
 62
4
  6
CONTINUOUS
 10
12.8684953288
 20
9.5562872351
 11
12.8630703288
 21
9.5490538983
  0
LINE
  5
37C
100
AcDbEntity
  8
03__ASM_ALL_CURVES
100
AcDbLine
 62
4
  6
CONTINUOUS
 10
11.4652286604
 20
8.3004705667
 11
11.4724619972
 21
8.3058955667
  0
LINE
  5
37D
100
AcDbEntity
  8
03__ASM_ALL_CURVES
100
AcDbLine
 62
4
  6
CONTINUOUS
 10
11.5375619953
 20
8.2787705667
 11
11.5303286617
 21
8.2733455667
  0
LINE
  5
37E
100
AcDbEntity
  8
03__ASM_ALL_CURVES
100
AcDbLine
 62
4
  6
CONTINUOUS
 10
12.0764453288
 20
8.8176539003
 11
12.0655953288
 21
8.8104205667
  0
LINE
  5
37F
100
AcDbEntity
  8
03__ASM_ALL_CURVES
100
AcDbLine
 62
4
  6
CONTINUOUS
 10
13.3621703288
 20
9.5852205667
 11
13.3513203288
 21
9.5779872351
  0
LINE
  5
380
100
AcDbEntity
  8
03__ASM_ALL_CURVES
100
AcDbLine
 62
4
  6
CONTINUOUS
 10
13.3838703288
 20
9.5056539003
 11
13.3730203288
 21
9.4984205667
  0
LINE
  5
381
100
AcDbEntity
  8
03__ASM_ALL_CURVES
100
AcDbLine
 62
4
  6
CONTINUOUS
 10
11.4724619972
 20
8.3058955667
 11
11.4869286604
 21
8.3113205667
  0
LINE
  5
382
100
AcDbEntity
  8
03__ASM_ALL_CURVES
100
AcDbLine
 62
4
  6
CONTINUOUS
 10
11.5303286617
 20
8.2733455667
 11
11.5158619946
 21
8.2679205667
  0
LINE
  5
383
100
AcDbEntity
  8
03__ASM_ALL_CURVES
100
AcDbLine
 62
4
  6
CONTINUOUS
 10
13.3621703288
 20
9.4984205667
 11
13.3513203288
 21
9.5056539003
  0
LINE
  5
384
100
AcDbEntity
  8
03__ASM_ALL_CURVES
100
AcDbLine
 62
4
  6
CONTINUOUS
 10
13.3513203288
 20
9.5562872351
 11
13.3838703288
 21
9.5345872325
  0
LINE
  5
385
100
AcDbEntity
  8
03__ASM_ALL_CURVES
100
AcDbLine
 62
4
  6
CONTINUOUS
 10
13.3838703288
 20
9.5779872351
 11
13.3730203288
 21
9.5852205667
  0
LINE
  5
386
100
AcDbEntity
  8
03__ASM_ALL_CURVES
100
AcDbLine
 62
4
  6
CONTINUOUS
 10
12.7735578288
 20
9.5092705671
 11
12.7816953288
 21
9.4984205667
  0
LINE
  5
387
100
AcDbEntity
  8
03__ASM_ALL_CURVES
100
AcDbLine
 62
4
  6
CONTINUOUS
 10
13.3026598288
 20
7.5728205667
 11
13.3098077038
 21
7.5537595679
  0
LINE
  5
388
100
AcDbEntity
  8
03__ASM_ALL_CURVES
100
AcDbLine
 62
4
  6
CONTINUOUS
 10
12.4887453288
 20
9.5345872325
 11
12.4941703288
 21
9.5128872338
  0
LINE
  5
389
100
AcDbEntity
  8
03__ASM_ALL_CURVES
100
AcDbLine
 62
4
  6
CONTINUOUS
 10
12.5521329538
 20
7.5442290667
 11
12.5521329538
 21
7.5537595679
  0
LINE
  5
38A
100
AcDbEntity
  8
03__ASM_ALL_CURVES
100
AcDbLine
 62
4
  6
CONTINUOUS
 10
12.5592808288
 20
7.6014120667
 11
12.5592808288
 21
7.6109425645
  0
LINE
  5
38B
100
AcDbEntity
  8
03__ASM_ALL_CURVES
100
AcDbLine
 62
4
  6
CONTINUOUS
 10
12.5863953288
 20
9.5852205667
 11
12.5863953288
 21
9.4984205667
  0
LINE
  5
38C
100
AcDbEntity
  8
03__ASM_ALL_CURVES
100
AcDbLine
 62
4
  6
CONTINUOUS
 10
12.6080953288
 20
12.5827538983
 11
12.6080953288
 21
12.5755205667
  0
LINE
  5
38D
100
AcDbEntity
  8
03__ASM_ALL_CURVES
100
AcDbLine
 62
4
  6
CONTINUOUS
 10
12.6135203288
 20
12.5393539009
 11
12.6135203288
 21
12.5321205667
  0
LINE
  5
38E
100
AcDbEntity
  8
03__ASM_ALL_CURVES
100
AcDbLine
 62
4
  6
CONTINUOUS
 10
12.6164638288
 20
7.6109425645
 11
12.6164638288
 21
7.6014120667
  0
LINE
  5
38F
100
AcDbEntity
  8
03__ASM_ALL_CURVES
100
AcDbLine
 62
4
  6
CONTINUOUS
 10
12.6236117038
 20
7.5537595679
 11
12.6236117038
 21
7.5442290667
  0
LINE
  5
390
100
AcDbEntity
  8
03__ASM_ALL_CURVES
100
AcDbLine
 62
4
  6
CONTINUOUS
 10
12.6867578288
 20
12.5104205667
 11
12.6867578288
 21
12.5212705671
  0
LINE
  5
391
100
AcDbEntity
  8
03__ASM_ALL_CURVES
100
AcDbLine
 62
4
  6
CONTINUOUS
 10
12.7735578288
 20
9.4984205667
 11
12.7735578288
 21
9.5092705671
  0
LINE
  5
392
100
AcDbEntity
  8
03__ASM_ALL_CURVES
100
AcDbLine
 62
4
  6
CONTINUOUS
 10
12.7816953288
 20
12.5682872351
 11
12.7816953288
 21
12.5393539009
  0
LINE
  5
393
100
AcDbEntity
  8
03__ASM_ALL_CURVES
100
AcDbLine
 62
4
  6
CONTINUOUS
 10
12.6731953288
 20
9.4984205667
 11
12.6786203288
 21
9.5345872325
  0
LINE
  5
394
100
AcDbEntity
  8
03__ASM_ALL_CURVES
100
AcDbLine
 62
4
  6
CONTINUOUS
 10
12.6786203288
 20
9.5345872325
 11
12.6840453288
 21
9.5562872351
  0
LINE
  5
395
100
AcDbEntity
  8
03__ASM_ALL_CURVES
100
AcDbLine
 62
4
  6
CONTINUOUS
 10
12.8305203288
 20
9.5201205667
 11
12.8250953288
 21
9.4984205667
  0
LINE
  5
396
100
AcDbEntity
  8
03__ASM_ALL_CURVES
100
AcDbLine
 62
4
  6
CONTINUOUS
 10
12.6840453288
 20
9.5562872351
 11
12.6948953288
 21
9.5852205667
  0
LINE
  5
397
100
AcDbEntity
  8
03__ASM_ALL_CURVES
100
AcDbLine
 62
4
  6
CONTINUOUS
 10
13.0258203288
 20
9.5128872338
 11
13.0149703288
 21
9.4984205667
  0
LINE
  5
398
100
AcDbEntity
  8
03__ASM_ALL_CURVES
100
AcDbLine
 62
4
  6
CONTINUOUS
 10
13.1994203288
 20
9.5852205667
 11
13.1885703288
 21
9.5707538983
  0
LINE
  5
399
100
AcDbEntity
  8
03__ASM_ALL_CURVES
100
AcDbLine
 62
4
  6
CONTINUOUS
 10
9.0013953288
 20
7.2907205667
 11
9.0158619946
 21
7.2961455667
  0
LINE
  5
39A
100
AcDbEntity
  8
03__ASM_ALL_CURVES
100
AcDbLine
 62
4
  6
CONTINUOUS
 10
12.8630703288
 20
9.5779872351
 11
12.8684953288
 21
9.5707538983
  0
LINE
  5
39B
100
AcDbEntity
  8
03__ASM_ALL_CURVES
100
AcDbLine
 62
4
  6
CONTINUOUS
 10
13.0149703288
 20
9.5852205667
 11
13.0258203288
 21
9.5707538983
  0
LINE
  5
39C
100
AcDbEntity
  8
03__ASM_ALL_CURVES
100
AcDbLine
 62
4
  6
CONTINUOUS
 10
13.1885703288
 20
9.5128872338
 11
13.1994203288
 21
9.4984205667
  0
LINE
  5
39D
100
AcDbEntity
  8
03__ASM_ALL_CURVES
100
AcDbLine
 62
4
  6
CONTINUOUS
 10
12.8023085788
 20
7.5823510645
 11
12.8023085788
 21
7.5632900656
  0
LINE
  5
39E
100
AcDbEntity
  8
03__ASM_ALL_CURVES
100
AcDbLine
 62
4
  6
CONTINUOUS
 10
12.8196703288
 20
12.5321205667
 11
12.8196703288
 21
12.5393539009
  0
LINE
  5
39F
100
AcDbEntity
  8
03__ASM_ALL_CURVES
100
AcDbLine
 62
4
  6
CONTINUOUS
 10
12.8250953288
 20
12.5755205667
 11
12.8250953288
 21
12.5827538983
  0
LINE
  5
3A0
100
AcDbEntity
  8
03__ASM_ALL_CURVES
100
AcDbLine
 62
4
  6
CONTINUOUS
 10
12.8684953288
 20
12.5827538983
 11
12.8684953288
 21
12.5755205667
  0
LINE
  5
3A1
100
AcDbEntity
  8
03__ASM_ALL_CURVES
100
AcDbLine
 62
4
  6
CONTINUOUS
 10
12.8684953288
 20
9.5707538983
 11
12.8684953288
 21
9.5562872351
  0
LINE
  5
3A2
100
AcDbEntity
  8
03__ASM_ALL_CURVES
100
AcDbLine
 62
4
  6
CONTINUOUS
 10
12.8739203288
 20
12.5393539009
 11
12.8739203288
 21
12.5321205667
  0
LINE
  5
3A3
100
AcDbEntity
  8
03__ASM_ALL_CURVES
100
AcDbLine
 62
4
  6
CONTINUOUS
 10
12.9444453288
 20
12.5610538983
 11
12.9444453288
 21
12.5465872325
  0
LINE
  5
3A4
100
AcDbEntity
  8
03__ASM_ALL_CURVES
100
AcDbLine
 62
4
  6
CONTINUOUS
 10
12.9595618288
 20
7.6109425645
 11
12.9595618288
 21
7.6014120667
  0
LINE
  5
3A5
100
AcDbEntity
  8
03__ASM_ALL_CURVES
100
AcDbLine
 62
4
  6
CONTINUOUS
 10
12.9667097038
 20
7.5537595679
 11
12.9667097038
 21
7.5442290667
  0
LINE
  5
3A6
100
AcDbEntity
  8
03__ASM_ALL_CURVES
100
AcDbLine
 62
4
  6
CONTINUOUS
 10
13.0312453288
 20
9.5490538983
 11
13.0312453288
 21
9.5345872325
  0
LINE
  5
3A7
100
AcDbEntity
  8
03__ASM_ALL_CURVES
100
AcDbLine
 62
4
  6
CONTINUOUS
 10
12.9335953288
 20
9.4984205667
 11
12.9390203288
 21
9.5345872325
  0
LINE
  5
3A8
100
AcDbEntity
  8
03__ASM_ALL_CURVES
100
AcDbLine
 62
4
  6
CONTINUOUS
 10
12.9390203288
 20
9.5345872325
 11
12.9444453288
 21
9.5562872351
  0
LINE
  5
3A9
100
AcDbEntity
  8
03__ASM_ALL_CURVES
100
AcDbLine
 62
4
  6
CONTINUOUS
 10
12.4520627038
 20
7.5442290667
 11
12.4449148288
 21
7.5156375667
  0
LINE
  5
3AA
100
AcDbEntity
  8
03__ASM_ALL_CURVES
100
AcDbLine
 62
4
  6
CONTINUOUS
 10
13.0312453288
 20
9.5345872325
 11
13.0258203288
 21
9.5128872338
  0
LINE
  5
3AB
100
AcDbEntity
  8
03__ASM_ALL_CURVES
100
AcDbLine
 62
4
  6
CONTINUOUS
 10
12.9444453288
 20
9.5562872351
 11
12.9552953288
 21
9.5852205667
  0
LINE
  5
3AC
100
AcDbEntity
  8
03__ASM_ALL_CURVES
100
AcDbLine
 62
4
  6
CONTINUOUS
 10
13.3513203288
 20
9.5779872351
 11
13.3458953288
 21
9.5707538983
  0
LINE
  5
3AD
100
AcDbEntity
  8
03__ASM_ALL_CURVES
100
AcDbLine
 62
4
  6
CONTINUOUS
 10
13.3892953288
 20
9.5128872338
 11
13.3838703288
 21
9.5056539003
  0
LINE
  5
3AE
100
AcDbEntity
  8
03__ASM_ALL_CURVES
100
AcDbLine
 62
4
  6
CONTINUOUS
 10
13.4598203288
 20
9.5128872338
 11
13.4489703288
 21
9.4984205667
  0
LINE
  5
3AF
100
AcDbEntity
  8
03__ASM_ALL_CURVES
100
AcDbLine
 62
4
  6
CONTINUOUS
 10
9.0013953288
 20
7.0248955667
 11
9.0158619946
 21
7.0303205667
  0
LINE
  5
3B0
100
AcDbEntity
  8
03__ASM_ALL_CURVES
100
AcDbLine
 62
4
  6
CONTINUOUS
 10
9.0303286617
 20
6.9923455667
 11
9.0158619946
 21
6.9869205667
  0
LINE
  5
3B1
100
AcDbEntity
  8
03__ASM_ALL_CURVES
100
AcDbLine
 62
4
  6
CONTINUOUS
 10
9.0013953288
 20
6.7699205667
 11
9.0158619946
 21
6.7753455667
  0
LINE
  5
3B2
100
AcDbEntity
  8
03__ASM_ALL_CURVES
100
AcDbLine
 62
4
  6
CONTINUOUS
 10
13.3513203288
 20
9.5056539003
 11
13.3404703288
 21
9.5201205667
  0
LINE
  5
3B3
100
AcDbEntity
  8
03__ASM_ALL_CURVES
100
AcDbLine
 62
4
  6
CONTINUOUS
 10
13.3458953288
 20
9.5635205667
 11
13.3513203288
 21
9.5562872351
  0
LINE
  5
3B4
100
AcDbEntity
  8
03__ASM_ALL_CURVES
100
AcDbLine
 62
4
  6
CONTINUOUS
 10
13.3838703288
 20
9.5345872325
 11
13.3892953288
 21
9.5273539009
  0
LINE
  5
3B5
100
AcDbEntity
  8
03__ASM_ALL_CURVES
100
AcDbLine
 62
4
  6
CONTINUOUS
 10
13.3892953288
 20
9.5707538983
 11
13.3838703288
 21
9.5779872351
  0
LINE
  5
3B6
100
AcDbEntity
  8
03__ASM_ALL_CURVES
100
AcDbLine
 62
4
  6
CONTINUOUS
 10
13.4489703288
 20
9.5852205667
 11
13.4598203288
 21
9.5707538983
  0
LINE
  5
3B7
100
AcDbEntity
  8
03__ASM_ALL_CURVES
100
AcDbLine
 62
4
  6
CONTINUOUS
 10
13.5099482038
 20
7.6109425645
 11
13.5170960788
 21
7.5823510645
  0
LINE
  5
3B8
100
AcDbEntity
  8
03__ASM_ALL_CURVES
100
AcDbLine
 62
4
  6
CONTINUOUS
 10
13.0258203288
 20
9.5707538983
 11
13.0312453288
 21
9.5490538983
  0
LINE
  5
3B9
100
AcDbEntity
  8
03__ASM_ALL_CURVES
100
AcDbLine
 62
4
  6
CONTINUOUS
 10
13.0739278288
 20
7.6109425645
 11
13.0739278288
 21
7.591881569
  0
LINE
  5
3BA
100
AcDbEntity
  8
03__ASM_ALL_CURVES
100
AcDbLine
 62
4
  6
CONTINUOUS
 10
13.1775720163
 20
7.5156375667
 11
13.1775720163
 21
7.5299333172
  0
LINE
  5
3BB
100
AcDbEntity
  8
03__ASM_ALL_CURVES
100
AcDbLine
 62
4
  6
CONTINUOUS
 10
13.1831453288
 20
9.5490538983
 11
13.1831453288
 21
9.5345872325
  0
LINE
  5
3BC
100
AcDbEntity
  8
03__ASM_ALL_CURVES
100
AcDbLine
 62
4
  6
CONTINUOUS
 10
13.2590953288
 20
9.5852205667
 11
13.2590953288
 21
9.4984205667
  0
LINE
  5
3BD
100
AcDbEntity
  8
03__ASM_ALL_CURVES
100
AcDbLine
 62
4
  6
CONTINUOUS
 10
13.1885703288
 20
9.5707538983
 11
13.1831453288
 21
9.5490538983
  0
LINE
  5
3BE
100
AcDbEntity
  8
03__ASM_ALL_CURVES
100
AcDbLine
 62
4
  6
CONTINUOUS
 10
12.8094564538
 20
7.6109425645
 11
12.8023085788
 21
7.5823510645
  0
LINE
  5
3BF
100
AcDbEntity
  8
03__ASM_ALL_CURVES
100
AcDbLine
 62
4
  6
CONTINUOUS
 10
12.4019453288
 20
12.5465872325
 11
12.4073703288
 21
12.5248872338
  0
LINE
  5
3C0
100
AcDbEntity
  8
03__ASM_ALL_CURVES
100
AcDbLine
 62
4
  6
CONTINUOUS
 10
13.1831453288
 20
9.5345872325
 11
13.1885703288
 21
9.5128872338
  0
LINE
  5
3C1
100
AcDbEntity
  8
03__ASM_ALL_CURVES
100
AcDbLine
 62
4
  6
CONTINUOUS
 10
13.3458953288
 20
9.5707538983
 11
13.3458953288
 21
9.5635205667
  0
LINE
  5
3C2
100
AcDbEntity
  8
03__ASM_ALL_CURVES
100
AcDbLine
 62
4
  6
CONTINUOUS
 10
13.3884343288
 20
7.6300035667
 11
13.3884343288
 21
7.5156375667
  0
LINE
  5
3C3
100
AcDbEntity
  8
03__ASM_ALL_CURVES
100
AcDbLine
 62
4
  6
CONTINUOUS
 10
13.3892953288
 20
9.5273539009
 11
13.3892953288
 21
9.5128872338
  0
LINE
  5
3C4
100
AcDbEntity
  8
03__ASM_ALL_CURVES
100
AcDbLine
 62
4
  6
CONTINUOUS
 10
13.4652453288
 20
9.5490538983
 11
13.4652453288
 21
9.5345872325
  0
LINE
  5
3C5
100
AcDbEntity
  8
03__ASM_ALL_CURVES
100
AcDbLine
 62
4
  6
CONTINUOUS
 10
13.5170960788
 20
7.5823510645
 11
13.5170960788
 21
7.5632900656
  0
LINE
  5
3C6
100
AcDbEntity
  8
03__ASM_ALL_CURVES
100
AcDbLine
 62
4
  6
CONTINUOUS
 10
13.2597725788
 20
7.6300035667
 11
13.2526247038
 21
7.5823510645
  0
LINE
  5
3C7
100
AcDbEntity
  8
03__ASM_ALL_CURVES
100
AcDbLine
 62
4
  6
CONTINUOUS
 10
13.4652453288
 20
9.5345872325
 11
13.4598203288
 21
9.5128872338
  0
LINE
  5
3C8
100
AcDbEntity
  8
03__ASM_ALL_CURVES
100
AcDbLine
 62
4
  6
CONTINUOUS
 10
13.0238927038
 20
7.5442290667
 11
13.0167448288
 21
7.5156375667
  0
LINE
  5
3C9
100
AcDbEntity
  8
03__ASM_ALL_CURVES
100
AcDbLine
 62
4
  6
CONTINUOUS
 10
12.4449148288
 20
7.6109425645
 11
12.4520627038
 21
7.620473069
  0
LINE
  5
3CA
100
AcDbEntity
  8
03__ASM_ALL_CURVES
100
AcDbLine
 62
4
  6
CONTINUOUS
 10
12.4663584538
 20
7.5632900656
 11
12.4520627038
 21
7.5442290667
  0
LINE
  5
3CB
100
AcDbEntity
  8
03__ASM_ALL_CURVES
100
AcDbLine
 62
4
  6
CONTINUOUS
 10
12.5020978288
 20
7.591881569
 11
12.4949499538
 21
7.5823510645
  0
LINE
  5
3CC
100
AcDbEntity
  8
03__ASM_ALL_CURVES
100
AcDbLine
 62
4
  6
CONTINUOUS
 10
12.5592808288
 20
7.6109425645
 11
12.5664287038
 21
7.620473069
  0
LINE
  5
3CD
100
AcDbEntity
  8
03__ASM_ALL_CURVES
100
AcDbLine
 62
4
  6
CONTINUOUS
 10
12.5521329538
 20
7.5537595679
 11
12.5664287038
 21
7.5728205667
  0
LINE
  5
3CE
100
AcDbEntity
  8
03__ASM_ALL_CURVES
100
AcDbLine
 62
4
  6
CONTINUOUS
 10
12.6164638288
 20
7.6014120667
 11
12.6093159538
 21
7.591881569
  0
LINE
  5
3CF
100
AcDbEntity
  8
03__ASM_ALL_CURVES
100
AcDbLine
 62
4
  6
CONTINUOUS
 10
12.6236117038
 20
7.5442290667
 11
12.6093159538
 21
7.525168067
  0
LINE
  5
3D0
100
AcDbEntity
  8
03__ASM_ALL_CURVES
100
AcDbLine
 62
4
  6
CONTINUOUS
 10
12.4520627038
 20
7.620473069
 11
12.4663584538
 21
7.6300035667
  0
LINE
  5
3D1
100
AcDbEntity
  8
03__ASM_ALL_CURVES
100
AcDbLine
 62
4
  6
CONTINUOUS
 10
12.4949499538
 20
7.5823510645
 11
12.4663584538
 21
7.5632900656
  0
LINE
  5
3D2
100
AcDbEntity
  8
03__ASM_ALL_CURVES
100
AcDbLine
 62
4
  6
CONTINUOUS
 10
12.4833203288
 20
12.5538205667
 11
12.4778953288
 21
12.5682872351
  0
LINE
  5
3D3
100
AcDbEntity
  8
03__ASM_ALL_CURVES
100
AcDbLine
 62
4
  6
CONTINUOUS
 10
12.5158703288
 20
12.5827538983
 11
12.5212953288
 21
12.5682872351
  0
LINE
  5
3D4
100
AcDbEntity
  8
03__ASM_ALL_CURVES
100
AcDbLine
 62
4
  6
CONTINUOUS
 10
13.4598203288
 20
9.5707538983
 11
13.4652453288
 21
9.5490538983
  0
LINE
  5
3D5
100
AcDbEntity
  8
03__ASM_ALL_CURVES
100
AcDbLine
 62
4
  6
CONTINUOUS
 10
12.8237522038
 20
7.6300035667
 11
12.8094564538
 21
7.6109425645
  0
LINE
  5
3D6
100
AcDbEntity
  8
03__ASM_ALL_CURVES
100
AcDbLine
 62
4
  6
CONTINUOUS
 10
12.9595618288
 20
7.6014120667
 11
12.9524139538
 21
7.591881569
  0
LINE
  5
3D7
100
AcDbEntity
  8
03__ASM_ALL_CURVES
100
AcDbLine
 62
4
  6
CONTINUOUS
 10
13.0167448288
 20
7.6109425645
 11
13.0238927038
 21
7.620473069
  0
LINE
  5
3D8
100
AcDbEntity
  8
03__ASM_ALL_CURVES
100
AcDbLine
 62
4
  6
CONTINUOUS
 10
12.9667097038
 20
7.5442290667
 11
12.9524139538
 21
7.525168067
  0
LINE
  5
3D9
100
AcDbEntity
  8
03__ASM_ALL_CURVES
100
AcDbLine
 62
4
  6
CONTINUOUS
 10
12.5664287038
 20
7.620473069
 11
12.5807244538
 21
7.6300035667
  0
LINE
  5
3DA
100
AcDbEntity
  8
03__ASM_ALL_CURVES
100
AcDbLine
 62
4
  6
CONTINUOUS
 10
12.5664287038
 20
7.5728205667
 11
12.5807244538
 21
7.5823510645
  0
LINE
  5
3DB
100
AcDbEntity
  8
03__ASM_ALL_CURVES
100
AcDbLine
 62
4
  6
CONTINUOUS
 10
12.6093159538
 20
7.591881569
 11
12.5950202038
 21
7.5823510645
  0
LINE
  5
3DC
100
AcDbEntity
  8
03__ASM_ALL_CURVES
100
AcDbLine
 62
4
  6
CONTINUOUS
 10
12.6093159538
 20
7.525168067
 11
12.5950202038
 21
7.5156375667
  0
LINE
  5
3DD
100
AcDbEntity
  8
03__ASM_ALL_CURVES
100
AcDbLine
 62
4
  6
CONTINUOUS
 10
12.9095267038
 20
7.620473069
 11
12.9238224538
 21
7.6300035667
  0
LINE
  5
3DE
100
AcDbEntity
  8
03__ASM_ALL_CURVES
100
AcDbLine
 62
4
  6
CONTINUOUS
 10
12.9524139538
 20
7.591881569
 11
12.9381182038
 21
7.5823510645
  0
LINE
  5
3DF
100
AcDbEntity
  8
03__ASM_ALL_CURVES
100
AcDbLine
 62
4
  6
CONTINUOUS
 10
12.0493203288
 20
12.5176539003
 11
12.0438953288
 21
12.5248872338
  0
LINE
  5
3E0
100
AcDbEntity
  8
03__ASM_ALL_CURVES
100
AcDbLine
 62
4
  6
CONTINUOUS
 10
12.0818703288
 20
12.5538205667
 11
12.0927203288
 21
12.5393539009
  0
LINE
  5
3E1
100
AcDbEntity
  8
03__ASM_ALL_CURVES
100
AcDbLine
 62
4
  6
CONTINUOUS
 10
12.0818703288
 20
12.5899872351
 11
12.0872953288
 21
12.5827538983
  0
LINE
  5
3E2
100
AcDbEntity
  8
03__ASM_ALL_CURVES
100
AcDbLine
 62
4
  6
CONTINUOUS
 10
12.1659578288
 20
12.5212705671
 11
12.1740953288
 21
12.5104205667
  0
LINE
  5
3E3
100
AcDbEntity
  8
03__ASM_ALL_CURVES
100
AcDbLine
 62
4
  6
CONTINUOUS
 10
12.7437203288
 20
12.5538205667
 11
12.7382953288
 21
12.5682872351
  0
LINE
  5
3E4
100
AcDbEntity
  8
03__ASM_ALL_CURVES
100
AcDbLine
 62
4
  6
CONTINUOUS
 10
12.7762703288
 20
12.5827538983
 11
12.7816953288
 21
12.5682872351
  0
LINE
  5
3E5
100
AcDbEntity
  8
03__ASM_ALL_CURVES
100
AcDbLine
 62
4
  6
CONTINUOUS
 10
12.9390203288
 20
12.5827538983
 11
12.9444453288
 21
12.5610538983
  0
LINE
  5
3E6
100
AcDbEntity
  8
03__ASM_ALL_CURVES
100
AcDbLine
 62
4
  6
CONTINUOUS
 10
13.5170960788
 20
7.5632900656
 11
13.5099482038
 21
7.5346985673
  0
LINE
  5
3E7
100
AcDbEntity
  8
03__ASM_ALL_CURVES
100
AcDbLine
 62
4
  6
CONTINUOUS
 10
13.3098077038
 20
7.5537595679
 11
13.3026598288
 21
7.5346985673
  0
LINE
  5
3E8
100
AcDbEntity
  8
03__ASM_ALL_CURVES
100
AcDbLine
 62
4
  6
CONTINUOUS
 10
13.0381884538
 20
7.5632900656
 11
13.0238927038
 21
7.5442290667
  0
LINE
  5
3E9
100
AcDbEntity
  8
03__ASM_ALL_CURVES
100
AcDbLine
 62
4
  6
CONTINUOUS
 10
13.0739278288
 20
7.591881569
 11
13.0667799538
 21
7.5823510645
  0
LINE
  5
3EA
100
AcDbEntity
  8
03__ASM_ALL_CURVES
100
AcDbLine
 62
4
  6
CONTINUOUS
 10
13.0238927038
 20
7.620473069
 11
13.0381884538
 21
7.6300035667
  0
LINE
  5
3EB
100
AcDbEntity
  8
03__ASM_ALL_CURVES
100
AcDbLine
 62
4
  6
CONTINUOUS
 10
12.9524139538
 20
7.525168067
 11
12.9381182038
 21
7.5156375667
  0
LINE
  5
3EC
100
AcDbEntity
  8
03__ASM_ALL_CURVES
100
AcDbLine
 62
4
  6
CONTINUOUS
 10
13.0667799538
 20
7.5823510645
 11
13.0381884538
 21
7.5632900656
  0
LINE
  5
3ED
100
AcDbEntity
  8
03__ASM_ALL_CURVES
100
AcDbLine
 62
4
  6
CONTINUOUS
 10
13.2526247038
 20
7.5823510645
 11
13.2669204538
 21
7.591881569
  0
LINE
  5
3EE
100
AcDbEntity
  8
03__ASM_ALL_CURVES
100
AcDbLine
 62
4
  6
CONTINUOUS
 10
13.2955119538
 20
7.525168067
 11
13.2812162038
 21
7.5156375667
  0
LINE
  5
3EF
100
AcDbEntity
  8
03__ASM_ALL_CURVES
100
AcDbLine
 62
4
  6
CONTINUOUS
 10
12.4073703288
 20
12.5248872338
 11
12.4182203288
 21
12.5104205667
  0
LINE
  5
3F0
100
AcDbEntity
  8
03__ASM_ALL_CURVES
100
AcDbLine
 62
4
  6
CONTINUOUS
 10
12.4887453288
 20
12.5176539003
 11
12.4833203288
 21
12.5248872338
  0
LINE
  5
3F1
100
AcDbEntity
  8
03__ASM_ALL_CURVES
100
AcDbLine
 62
4
  6
CONTINUOUS
 10
13.3026598288
 20
7.5346985673
 11
13.2955119538
 21
7.525168067
  0
LINE
  5
3F2
100
AcDbEntity
  8
03__ASM_ALL_CURVES
100
AcDbLine
 62
4
  6
CONTINUOUS
 10
13.5099482038
 20
7.5346985673
 11
13.4956524538
 21
7.5156375667
  0
LINE
  5
3F3
100
AcDbEntity
  8
03__ASM_ALL_CURVES
100
AcDbLine
 62
4
  6
CONTINUOUS
 10
12.8522203288
 20
12.5104205667
 11
12.8413703288
 21
12.5104205667
  0
LINE
  5
3F4
100
AcDbEntity
  8
03__ASM_ALL_CURVES
100
AcDbLine
 62
4
  6
CONTINUOUS
 10
12.6948953288
 20
12.5104205667
 11
12.6867578288
 21
12.5104205667
  0
LINE
  5
3F5
100
AcDbEntity
  8
03__ASM_ALL_CURVES
100
AcDbLine
 62
4
  6
CONTINUOUS
 10
12.5918203288
 20
12.5104205667
 11
12.5809703288
 21
12.5104205667
  0
LINE
  5
3F6
100
AcDbEntity
  8
03__ASM_ALL_CURVES
100
AcDbLine
 62
4
  6
CONTINUOUS
 10
12.1740953288
 20
12.5104205667
 11
12.1659578288
 21
12.5104205667
  0
LINE
  5
3F7
100
AcDbEntity
  8
03__ASM_ALL_CURVES
100
AcDbLine
 62
4
  6
CONTINUOUS
 10
12.0710203288
 20
12.5104205667
 11
12.0601703288
 21
12.5104205667
  0
LINE
  5
3F8
100
AcDbEntity
  8
0
100
AcDbLine
 62
7
  6
CONTINUOUS
 10
11.5013953288
 20
12.5538206144
 11
9.0013953288
 21
12.5538206144
  0
LINE
  5
3F9
100
AcDbEntity
  8
03__ASM_ALL_CURVES
100
AcDbLine
 62
4
  6
CONTINUOUS
 10
11.5881953288
 20
12.5538205667
 11
11.8485953288
 21
12.5538205667
  0
LINE
  5
3FA
100
AcDbEntity
  8
03__ASM_ALL_CURVES
100
AcDbLine
 62
4
  6
CONTINUOUS
 10
12.0601703288
 20
12.5610538983
 11
12.0710203288
 21
12.5610538983
  0
LINE
  5
3FB
100
AcDbEntity
  8
03__ASM_ALL_CURVES
100
AcDbLine
 62
4
  6
CONTINUOUS
 10
12.5809703288
 20
12.5610538983
 11
12.5918203288
 21
12.5610538983
  0
LINE
  5
3FC
100
AcDbEntity
  8
03__ASM_ALL_CURVES
100
AcDbLine
 62
4
  6
CONTINUOUS
 10
12.8413703288
 20
12.5610538983
 11
12.8522203288
 21
12.5610538983
  0
LINE
  5
3FD
100
AcDbEntity
  8
03__ASM_ALL_CURVES
100
AcDbLine
 62
4
  6
CONTINUOUS
 10
12.2608953288
 20
12.5972205667
 11
12.2174953288
 21
12.5972205667
  0
LINE
  5
3FE
100
AcDbEntity
  8
03__ASM_ALL_CURVES
100
AcDbLine
 62
4
  6
CONTINUOUS
 10
12.0601703288
 20
12.5972205667
 11
12.0710203288
 21
12.5972205667
  0
LINE
  5
3FF
100
AcDbEntity
  8
03__ASM_ALL_CURVES
100
AcDbLine
 62
4
  6
CONTINUOUS
 10
12.5809703288
 20
12.5972205667
 11
12.5918203288
 21
12.5972205667
  0
LINE
  5
400
100
AcDbEntity
  8
03__ASM_ALL_CURVES
100
AcDbLine
 62
4
  6
CONTINUOUS
 10
12.8413703288
 20
12.5972205667
 11
12.8522203288
 21
12.5972205667
  0
LINE
  5
401
100
AcDbEntity
  8
03__ASM_ALL_CURVES
100
AcDbLine
 62
4
  6
CONTINUOUS
 10
12.0601703288
 20
12.5104205667
 11
12.0493203288
 21
12.5176539003
  0
LINE
  5
402
100
AcDbEntity
  8
03__ASM_ALL_CURVES
100
AcDbLine
 62
4
  6
CONTINUOUS
 10
12.0710203288
 20
12.5610538983
 11
12.0818703288
 21
12.5538205667
  0
LINE
  5
403
100
AcDbEntity
  8
03__ASM_ALL_CURVES
100
AcDbLine
 62
4
  6
CONTINUOUS
 10
12.0710203288
 20
12.5972205667
 11
12.0818703288
 21
12.5899872351
  0
LINE
  5
404
100
AcDbEntity
  8
03__ASM_ALL_CURVES
100
AcDbLine
 62
4
  6
CONTINUOUS
 10
12.5104453288
 20
12.5899872351
 11
12.5158703288
 21
12.5827538983
  0
LINE
  5
405
100
AcDbEntity
  8
03__ASM_ALL_CURVES
100
AcDbLine
 62
4
  6
CONTINUOUS
 10
12.5701203288
 20
12.5176539003
 11
12.5646953288
 21
12.5248872338
  0
LINE
  5
406
100
AcDbEntity
  8
03__ASM_ALL_CURVES
100
AcDbLine
 62
4
  6
CONTINUOUS
 10
12.6026703288
 20
12.5538205667
 11
12.6135203288
 21
12.5393539009
  0
LINE
  5
407
100
AcDbEntity
  8
03__ASM_ALL_CURVES
100
AcDbLine
 62
4
  6
CONTINUOUS
 10
12.6026703288
 20
12.5899872351
 11
12.6080953288
 21
12.5827538983
  0
LINE
  5
408
100
AcDbEntity
  8
03__ASM_ALL_CURVES
100
AcDbLine
 62
4
  6
CONTINUOUS
 10
12.6867578288
 20
12.5212705671
 11
12.6948953288
 21
12.5104205667
  0
LINE
  5
409
100
AcDbEntity
  8
03__ASM_ALL_CURVES
100
AcDbLine
 62
4
  6
CONTINUOUS
 10
12.7491453288
 20
12.5176539003
 11
12.7437203288
 21
12.5248872338
  0
LINE
  5
40A
100
AcDbEntity
  8
03__ASM_ALL_CURVES
100
AcDbLine
 62
4
  6
CONTINUOUS
 10
12.7708453288
 20
12.5899872351
 11
12.7762703288
 21
12.5827538983
  0
LINE
  5
40B
100
AcDbEntity
  8
03__ASM_ALL_CURVES
100
AcDbLine
 62
4
  6
CONTINUOUS
 10
12.8305203288
 20
12.5176539003
 11
12.8196703288
 21
12.5321205667
  0
LINE
  5
40C
100
AcDbEntity
  8
03__ASM_ALL_CURVES
100
AcDbLine
 62
4
  6
CONTINUOUS
 10
12.4995953288
 20
12.5465872325
 11
12.4833203288
 21
12.5538205667
  0
LINE
  5
40D
100
AcDbEntity
  8
03__ASM_ALL_CURVES
100
AcDbLine
 62
4
  6
CONTINUOUS
 10
12.4995953288
 20
12.5104205667
 11
12.4887453288
 21
12.5176539003
  0
LINE
  5
40E
100
AcDbEntity
  8
03__ASM_ALL_CURVES
100
AcDbLine
 62
4
  6
CONTINUOUS
 10
12.5809703288
 20
12.5104205667
 11
12.5701203288
 21
12.5176539003
  0
LINE
  5
40F
100
AcDbEntity
  8
03__ASM_ALL_CURVES
100
AcDbLine
 62
4
  6
CONTINUOUS
 10
12.4995953288
 20
12.5972205667
 11
12.5104453288
 21
12.5899872351
  0
LINE
  5
410
100
AcDbEntity
  8
03__ASM_ALL_CURVES
100
AcDbLine
 62
4
  6
CONTINUOUS
 10
12.5918203288
 20
12.5610538983
 11
12.6026703288
 21
12.5538205667
  0
LINE
  5
411
100
AcDbEntity
  8
03__ASM_ALL_CURVES
100
AcDbLine
 62
4
  6
CONTINUOUS
 10
12.5918203288
 20
12.5972205667
 11
12.6026703288
 21
12.5899872351
  0
LINE
  5
412
100
AcDbEntity
  8
03__ASM_ALL_CURVES
100
AcDbLine
 62
4
  6
CONTINUOUS
 10
12.7599953288
 20
12.5104205667
 11
12.7491453288
 21
12.5176539003
  0
LINE
  5
413
100
AcDbEntity
  8
03__ASM_ALL_CURVES
100
AcDbLine
 62
4
  6
CONTINUOUS
 10
12.8305203288
 20
12.5682872351
 11
12.8250953288
 21
12.5755205667
  0
LINE
  5
414
100
AcDbEntity
  8
03__ASM_ALL_CURVES
100
AcDbLine
 62
4
  6
CONTINUOUS
 10
12.8630703288
 20
12.5538205667
 11
12.8739203288
 21
12.5393539009
  0
LINE
  5
415
100
AcDbEntity
  8
03__ASM_ALL_CURVES
100
AcDbLine
 62
4
  6
CONTINUOUS
 10
12.8630703288
 20
12.5899872351
 11
12.8684953288
 21
12.5827538983
  0
LINE
  5
416
100
AcDbEntity
  8
03__ASM_ALL_CURVES
100
AcDbLine
 62
4
  6
CONTINUOUS
 10
12.9281703288
 20
12.5972205667
 11
12.9390203288
 21
12.5827538983
  0
LINE
  5
417
100
AcDbEntity
  8
03__ASM_ALL_CURVES
100
AcDbLine
 62
4
  6
CONTINUOUS
 10
12.7599953288
 20
12.5465872325
 11
12.7437203288
 21
12.5538205667
  0
LINE
  5
418
100
AcDbEntity
  8
03__ASM_ALL_CURVES
100
AcDbLine
 62
4
  6
CONTINUOUS
 10
12.8413703288
 20
12.5104205667
 11
12.8305203288
 21
12.5176539003
  0
LINE
  5
419
100
AcDbEntity
  8
03__ASM_ALL_CURVES
100
AcDbLine
 62
4
  6
CONTINUOUS
 10
12.7599953288
 20
12.5972205667
 11
12.7708453288
 21
12.5899872351
  0
LINE
  5
41A
100
AcDbEntity
  8
03__ASM_ALL_CURVES
100
AcDbLine
 62
4
  6
CONTINUOUS
 10
12.8413703288
 20
12.5610538983
 11
12.8305203288
 21
12.5682872351
  0
LINE
  5
41B
100
AcDbEntity
  8
03__ASM_ALL_CURVES
100
AcDbLine
 62
4
  6
CONTINUOUS
 10
12.8522203288
 20
12.5610538983
 11
12.8630703288
 21
12.5538205667
  0
LINE
  5
41C
100
AcDbEntity
  8
03__ASM_ALL_CURVES
100
AcDbLine
 62
4
  6
CONTINUOUS
 10
12.8522203288
 20
12.5972205667
 11
12.8630703288
 21
12.5899872351
  0
ARC
  5
41D
100
AcDbEntity
  8
0
100
AcDbCircle
 62
7
  6
CONTINUOUS
 10
9.8828953288
 20
7.9558205667
 40
0.005
100
AcDbArc
 50
90.0
 51
180.0
  0
ARC
  5
41E
100
AcDbEntity
  8
0
100
AcDbCircle
 62
7
  6
CONTINUOUS
 10
9.8828953288
 20
8.0038205667
 40
0.005
100
AcDbArc
 50
180.0
 51
270.0
  0
ARC
  5
41F
100
AcDbEntity
  8
0
100
AcDbCircle
 62
7
  6
CONTINUOUS
 10
9.8933953288
 20
7.9688205667
 40
0.008
100
AcDbArc
 50
270.0
 51
360.0
  0
ARC
  5
420
100
AcDbEntity
  8
0
100
AcDbCircle
 62
7
  6
CONTINUOUS
 10
9.8933953288
 20
7.9908205667
 40
0.008
100
AcDbArc
 50
0.0
 51
90.0
  0
ARC
  5
421
100
AcDbEntity
  8
0
100
AcDbCircle
 62
7
  6
CONTINUOUS
 10
10.6093953288
 20
7.9688205667
 40
0.008
100
AcDbArc
 50
180.0
 51
270.0
  0
ARC
  5
422
100
AcDbEntity
  8
0
100
AcDbCircle
 62
7
  6
CONTINUOUS
 10
10.6093953288
 20
7.9908205667
 40
0.008
100
AcDbArc
 50
90.0
 51
180.0
  0
ARC
  5
423
100
AcDbEntity
  8
0
100
AcDbCircle
 62
7
  6
CONTINUOUS
 10
10.6198953288
 20
7.9558205667
 40
0.005
100
AcDbArc
 50
0.0
 51
90.0
  0
ARC
  5
424
100
AcDbEntity
  8
0
100
AcDbCircle
 62
7
  6
CONTINUOUS
 10
10.6198953288
 20
8.0038205667
 40
0.005
100
AcDbArc
 50
270.0
 51
360.0
  0
CIRCLE
  5
425
100
AcDbEntity
  8
0
100
AcDbCircle
 62
7
  6
CONTINUOUS
 10
10.2513953288
 20
11.778820519
 40
0.5
  0
CIRCLE
  5
426
100
AcDbEntity
  8
0
100
AcDbCircle
 62
7
  6
CONTINUOUS
 10
10.2513953288
 20
11.7788205667
 40
0.4725
  0
CIRCLE
  5
427
100
AcDbEntity
  8
0
100
AcDbCircle
 62
7
  6
CONTINUOUS
 10
10.2513953288
 20
11.7788205667
 40
0.431
  0
CIRCLE
  5
428
100
AcDbEntity
  8
0
100
AcDbCircle
 62
7
  6
CONTINUOUS
 10
10.2513953288
 20
11.7788205667
 40
0.373
  0
CIRCLE
  5
429
100
AcDbEntity
  8
0
100
AcDbCircle
 62
7
  6
CONTINUOUS
 10
10.2513953288
 20
11.778820519
 40
0.3305
  0
CIRCLE
  5
42A
100
AcDbEntity
  8
0
100
AcDbCircle
 62
7
  6
CONTINUOUS
 10
10.2513953288
 20
11.7788205667
 40
0.326
  0
CIRCLE
  5
42B
100
AcDbEntity
  8
0
100
AcDbCircle
 62
7
  6
CONTINUOUS
 10
10.2513953288
 20
11.7788205667
 40
0.306
  0
CIRCLE
  5
42C
100
AcDbEntity
  8
0
100
AcDbCircle
 62
7
  6
CONTINUOUS
 10
10.2513953288
 20
11.7788205667
 40
0.1475
  0
SPLINE
  5
42D
100
AcDbEntity
  8
02___PRT_ALL_AXES
100
AcDbSpline
 62
7
  6
CONTINUOUS
 70
0
 71
3
 72
10
 73
6
 74
4
 42
0.0000001
 43
0.0000001
 44
0.0000000001
 12
0.0164789927
 22
-0.0044155328
 32
0.0
 13
0.0160900305
 23
-0.0056714241
 33
0.0
 40
0.0
 40
0.0
 40
0.0
 40
0.0
 40
0.3374589149
 40
0.6712124019
 40
1.0
 40
1.0
 40
1.0
 40
1.0
 10
10.2350916884
 20
11.7179745522
 30
0.0
 10
10.2369453494
 20
11.7174778652
 30
0.0
 10
10.2406211159
 20
11.7164475013
 30
0.0
 10
10.246059135
 20
11.714782229
 30
0.0
 10
10.249631928
 20
11.7135841165
 30
0.0
 10
10.2513953288
 20
11.7129625519
 30
0.0
 11
10.2350916884
 21
11.7179745522
 31
0.0
 11
10.2406349116
 21
11.7164197244
 31
0.0
 11
10.2460784968
 21
11.7147499025
 31
0.0
 11
10.2513953288
 21
11.7129625519
 31
0.0
  0
SPLINE
  5
42E
100
AcDbEntity
  8
02___PRT_ALL_AXES
100
AcDbSpline
 62
7
  6
CONTINUOUS
 70
0
 71
3
 72
8
 73
4
 74
2
 42
0.0000001
 43
0.0000001
 44
0.0000000001
 12
0.0002684996
 22
-0.0003740271
 32
0.0
 13
0.0002661577
 23
-0.0003758027
 33
0.0
 40
0.0
 40
0.0
 40
0.0
 40
0.0
 40
1.0
 40
1.0
 40
1.0
 40
1.0
 10
10.229318956
 20
11.9246591205
 30
0.0
 10
10.2294084558
 20
11.9245344448
 30
0.0
 10
10.2294975672
 20
11.9244094719
 30
0.0
 10
10.2295862864
 20
11.9242842044
 30
0.0
 11
10.229318956
 21
11.9246591205
 31
0.0
 11
10.2295862864
 21
11.9242842044
 31
0.0
  0
SPLINE
  5
42F
100
AcDbEntity
  8
02___PRT_ALL_AXES
100
AcDbSpline
 62
7
  6
CONTINUOUS
 70
0
 71
3
 72
17
 73
13
 74
11
 42
0.0000001
 43
0.0000001
 44
0.0000000001
 12
0.0659688441
 22
-0.0931450483
 32
0.0
 13
-0.0806939158
 23
-0.0806939158
 33
0.0
 40
0.0
 40
0.0
 40
0.0
 40
0.0
 40
0.1076077317
 40
0.2236996387
 40
0.3384410711
 40
0.4468726677
 40
0.5453679744
 40
0.6371971208
 40
0.7262163609
 40
0.8164297788
 40
0.9078973291
 40
1.0
 40
1.0
 40
1.0
 40
1.0
 10
10.2295862864
 20
11.9242842044
 30
0.0
 10
10.231952539
 20
11.9209431619
 30
0.0
 10
10.2362917206
 20
11.9135618144
 30
0.0
 10
10.2405806157
 20
11.9013232978
 30
0.0
 10
10.2421029703
 20
11.8883958684
 30
0.0
 10
10.2408249432
 20
11.8761341126
 30
0.0
 10
10.2374780417
 20
11.8652148814
 30
0.0
 10
10.2328369959
 20
11.855621405
 30
0.0
 10
10.2272893263
 20
11.8469098905
 30
0.0
 10
10.2210182754
 20
11.8387305072
 30
0.0
 10
10.2141667927
 20
11.8308806371
 30
0.0
 10
10.2093303298
 20
11.8258403159
 30
0.0
 10
10.2068529548
 20
11.8233629408
 30
0.0
 11
10.2295862864
 21
11.9242842044
 31
0.0
 11
10.2357790496
 21
11.9136779463
 31
0.0
 11
10.2401198271
 21
11.9011610318
 31
0.0
 11
10.2416321852
 21
11.8881545509
 31
0.0
 11
10.2403746814
 21
11.8758445696
 31
0.0
 11
10.2371275335
 21
11.8650836892
 31
0.0
 11
10.2326106855
 21
11.8556276928
 31
0.0
 11
10.2271944093
 21
11.8470332837
 31
0.0
 11
10.2209640481
 21
11.8388375589
 31
0.0
 11
10.214122459
 21
11.830954204
 31
0.0
 11
10.2068529548
 21
11.8233629408
 31
0.0
  0
SPLINE
  5
430
100
AcDbEntity
  8
02___PRT_ALL_AXES
100
AcDbSpline
 62
7
  6
CONTINUOUS
 70
0
 71
3
 72
20
 73
16
 74
14
 42
0.0000001
 43
0.0000001
 44
0.0000000001
 12
-0.0807278066
 22
-0.0807278066
 32
0.0
 13
-0.0931939776
 23
0.0659825962
 33
0.0
 40
0.0
 40
0.0
 40
0.0
 40
0.0
 40
0.0940304768
 40
0.1756998151
 40
0.2503303079
 40
0.3223705814
 40
0.39428383
 40
0.4647449894
 40
0.5334337559
 40
0.600386228
 40
0.6679504533
 40
0.7389926042
 40
0.8161606732
 40
0.9033955097
 40
1.0
 40
1.0
 40
1.0
 40
1.0
 10
10.2068529548
 20
11.8233629408
 30
0.0
 10
10.2043226634
 20
11.8208326494
 30
0.0
 10
10.1994944229
 20
11.8162033482
 30
0.0
 10
10.1923228785
 20
11.8099273522
 30
0.0
 10
10.1854843593
 20
11.8045580428
 30
0.0
 10
10.1786124188
 20
11.7998577803
 30
0.0
 10
10.1715118697
 20
11.7958145289
 30
0.0
 10
10.1641565692
 20
11.7925490812
 30
0.0
 10
10.1566545288
 20
11.7901972111
 30
0.0
 10
10.1490264859
 20
11.7888072362
 30
0.0
 10
10.1411908768
 20
11.7884129448
 30
0.0
 10
10.1329835285
 20
11.7891219885
 30
0.0
 10
10.1242273167
 20
11.7911700864
 30
0.0
 10
10.1149737383
 20
11.7948839006
 30
0.0
 10
10.1089413955
 20
11.7984986972
 30
0.0
 10
10.1059404099
 20
11.8006234356
 30
0.0
 11
10.2068529548
 21
11.8233629408
 31
0.0
 11
10.1990959473
 21
11.8159419183
 31
0.0
 11
10.1920657301
 21
11.8098172967
 31
0.0
 11
10.1853502185
 21
11.8045735124
 31
0.0
 11
10.1785479474
 21
11.7999504449
 31
0.0
 11
10.1714008396
 21
11.7959101279
 31
0.0
 11
10.164039473
 21
11.7926665268
 31
0.0
 11
10.1565517097
 21
11.7903363932
 31
0.0
 11
10.1490301224
 21
11.7889754448
 31
0.0
 11
10.1413261466
 21
11.7885910129
 31
0.0
 11
10.1332453694
 21
11.7892861798
 31
0.0
 11
10.1246646069
 21
11.7912828194
 31
0.0
 11
10.1154152128
 21
11.7949755204
 31
0.0
 11
10.1059404099
 21
11.8006234356
 31
0.0
  0
SPLINE
  5
431
100
AcDbEntity
  8
02___PRT_ALL_AXES
100
AcDbSpline
 62
7
  6
CONTINUOUS
 70
0
 71
3
 72
8
 73
4
 74
2
 42
0.0000001
 43
0.0000001
 44
0.0000000001
 12
0.0001966155
 22
0.0004349105
 32
0.0
 13
0.0001995216
 23
0.0004336767
 33
0.0
 40
0.0
 40
0.0
 40
0.0
 40
0.0
 40
1.0
 40
1.0
 40
1.0
 40
1.0
 10
10.1361336229
 20
11.6867825901
 30
0.0
 10
10.1361991614
 20
11.6869275603
 30
0.0
 10
10.1362651844
 20
11.6870723273
 30
0.0
 10
10.1363316916
 20
11.6872168862
 30
0.0
 11
10.1361336229
 21
11.6867825901
 31
0.0
 11
10.1363316916
 21
11.6872168862
 31
0.0
  0
SPLINE
  5
432
100
AcDbEntity
  8
02___PRT_ALL_AXES
100
AcDbSpline
 62
7
  6
CONTINUOUS
 70
0
 71
3
 72
22
 73
18
 74
16
 42
0.0000001
 43
0.0000001
 44
0.0000000001
 12
0.0477284543
 22
0.1037417402
 32
0.0
 13
0.1102840321
 23
-0.0295505174
 33
0.0
 40
0.0
 40
0.0
 40
0.0
 40
0.0
 40
0.0901768688
 40
0.1715397275
 40
0.2425029917
 40
0.3063753124
 40
0.3654164365
 40
0.4217947723
 40
0.4778594939
 40
0.5350957312
 40
0.5932997643
 40
0.6524786714
 40
0.7127358096
 40
0.7754763496
 40
0.8426557626
 40
0.9167682005
 40
1.0
 40
1.0
 40
1.0
 40
1.0
 10
10.1363316916
 20
11.6872168862
 30
0.0
 10
10.1377663591
 20
11.6903352546
 30
0.0
 10
10.1409240478
 20
11.6960829872
 30
0.0
 10
10.1465214499
 20
11.7034592667
 30
0.0
 10
10.1523754001
 20
11.7092766612
 30
0.0
 10
10.1582516125
 20
11.7137704383
 30
0.0
 10
10.1641445719
 20
11.7172407703
 30
0.0
 10
10.1701176465
 20
11.7199025378
 30
0.0
 10
10.1762740462
 20
11.7218902036
 30
0.0
 10
10.1826672814
 20
11.7232572725
 30
0.0
 10
10.1892771118
 20
11.7240282518
 30
0.0
 10
10.196041536
 20
11.7242399304
 30
0.0
 10
10.2029738976
 20
11.7239459263
 30
0.0
 10
10.2101756734
 20
11.7231861152
 30
0.0
 10
10.2178468239
 20
11.7219622551
 30
0.0
 10
10.2262180155
 20
11.7202361073
 30
0.0
 10
10.2320319756
 20
11.7187943998
 30
0.0
 10
10.2350916884
 20
11.7179745522
 30
0.0
 11
10.1363316916
 21
11.6872168862
 31
0.0
 11
10.1413078609
 21
11.6962318602
 31
0.0
 11
10.1469351074
 21
11.7036230704
 31
0.0
 11
10.1526881173
 21
11.7093281878
 31
0.0
 11
10.1584829771
 21
11.7137555357
 31
0.0
 11
10.1642913979
 21
11.7171765226
 31
0.0
 11
10.1701695847
 21
11.7197997707
 31
0.0
 11
10.1762591358
 21
11.7217726334
 31
0.0
 11
10.1826475385
 21
11.7231486507
 31
0.0
 11
10.1892467483
 21
11.7239309137
 31
0.0
 11
10.1959997034
 21
11.724156383
 31
0.0
 11
10.2028739594
 21
11.7238796334
 31
0.0
 11
10.2099993654
 21
11.7231431595
 31
0.0
 11
10.2175761451
 21
11.7219498709
 31
0.0
 11
10.2258663597
 21
11.7202547372
 31
0.0
 11
10.2350916884
 21
11.7179745522
 31
0.0
  0
SPLINE
  5
433
100
AcDbEntity
  8
02___PRT_ALL_AXES
100
AcDbSpline
 62
7
  6
CONTINUOUS
 70
0
 71
3
 72
8
 73
4
 74
2
 42
0.0000001
 43
0.0000001
 44
0.0000000001
 12
-0.0007129361
 22
-0.0000708225
 32
0.0
 13
-0.0007138296
 23
-0.0000637501
 33
0.0
 40
0.0
 40
0.0
 40
0.0
 40
0.0
 40
1.0
 40
1.0
 40
1.0
 40
1.0
 10
10.3887334077
 20
11.7250199896
 30
0.0
 10
10.3884957623
 20
11.7249963821
 30
0.0
 10
10.3882579604
 20
11.7249739497
 30
0.0
 10
10.3880200172
 20
11.7249526997
 30
0.0
 11
10.3887334077
 21
11.7250199896
 31
0.0
 11
10.3880200172
 21
11.7249526997
 31
0.0
  0
SPLINE
  5
434
100
AcDbEntity
  8
02___PRT_ALL_AXES
100
AcDbSpline
 62
7
  6
CONTINUOUS
 70
0
 71
3
 72
21
 73
17
 74
15
 42
0.0000001
 43
0.0000001
 44
0.0000000001
 12
-0.1134784091
 22
-0.0101344344
 32
0.0
 13
-0.0294779916
 23
0.1100133625
 33
0.0
 40
0.0
 40
0.0
 40
0.0
 40
0.0
 40
0.1087057198
 40
0.2162698534
 40
0.3159120887
 40
0.4075925883
 40
0.4901465922
 40
0.5642962469
 40
0.630752256
 40
0.6903622565
 40
0.7449153497
 40
0.79615704
 40
0.8461429902
 40
0.8968022165
 40
0.9482815194
 40
1.0
 40
1.0
 40
1.0
 40
1.0
 10
10.3880200172
 20
11.7249526997
 30
0.0
 10
10.3839080998
 20
11.724585476
 30
0.0
 10
10.3756434922
 20
11.7245573584
 30
0.0
 10
10.3637812463
 20
11.726773593
 30
0.0
 10
10.3531790953
 20
11.7310161107
 30
0.0
 10
10.3443727539
 20
11.7366495616
 30
0.0
 10
10.33735987
 20
11.7430084625
 30
0.0
 10
10.3319122158
 20
11.7495244711
 30
0.0
 10
10.3276884104
 20
11.7558574107
 30
0.0
 10
10.3243626138
 20
11.7618605626
 30
0.0
 10
10.3216664611
 20
11.7675352189
 30
0.0
 10
10.3193874129
 20
11.772994531
 30
0.0
 10
10.3173707028
 20
11.77839792
 30
0.0
 10
10.3155238158
 20
11.7838708961
 30
0.0
 10
10.3138081067
 20
11.7894550212
 30
0.0
 10
10.312749529
 20
11.7932276325
 30
0.0
 10
10.3122413434
 20
11.7951242072
 30
0.0
 11
10.3880200172
 21
11.7249526997
 31
0.0
 11
10.3756362099
 21
11.724947631
 31
0.0
 11
10.3635997658
 21
11.727230033
 31
0.0
 11
10.3530688469
 21
11.7314599442
 31
0.0
 11
10.3442684212
 21
11.7370800272
 31
0.0
 11
10.3372888274
 21
11.7433800935
 31
0.0
 11
10.3318540379
 21
11.7498442058
 31
0.0
 11
10.3276379758
 21
11.7561302139
 31
0.0
 11
10.3243352665
 21
11.7620619768
 31
0.0
 11
10.3216594754
 21
11.7676695619
 31
0.0
 11
10.3194041142
 21
11.773052292
 31
0.0
 11
10.3174078714
 21
11.7783839448
 31
0.0
 11
10.3155586297
 21
11.7838493646
 31
0.0
 11
10.3138337207
 21
11.7894530903
 31
0.0
 11
10.3122413434
 21
11.7951242072
 31
0.0
  0
SPLINE
  5
435
100
AcDbEntity
  8
02___PRT_ALL_AXES
100
AcDbSpline
 62
7
  6
CONTINUOUS
 70
0
 71
3
 72
17
 73
13
 74
11
 42
0.0000001
 43
0.0000001
 44
0.0000000001
 12
-0.0295371485
 22
0.1102341391
 32
0.0
 13
0.103707828
 23
0.0476822162
 33
0.0
 40
0.0
 40
0.0
 40
0.0
 40
0.0
 40
0.0973963069
 40
0.1947977878
 40
0.2889600425
 40
0.378300453
 40
0.4642160866
 40
0.5556922939
 40
0.6603762447
 40
0.7745259246
 40
0.8915612601
 40
1.0
 40
1.0
 40
1.0
 40
1.0
 10
10.3122413434
 20
11.7951242072
 30
0.0
 10
10.311282407
 20
11.7987030065
 30
0.0
 10
10.3095199907
 20
11.8059037172
 30
0.0
 10
10.3074497641
 20
11.8167055058
 30
0.0
 10
10.306172873
 20
11.8273266541
 30
0.0
 10
10.3059083574
 20
11.8375912606
 30
0.0
 10
10.3068436097
 20
11.8477225319
 30
0.0
 10
10.309377738
 20
11.8581968749
 30
0.0
 10
10.3142374244
 20
11.8690452333
 30
0.0
 10
10.3219107544
 20
11.8793976059
 30
0.0
 10
10.3317605881
 20
11.8879063617
 30
0.0
 10
10.339266447
 20
11.8921680688
 30
0.0
 10
10.3430150958
 20
11.893891602
 30
0.0
 11
10.3122413434
 21
11.7951242072
 31
0.0
 11
10.3096117342
 21
11.8059238104
 31
0.0
 11
10.3075562489
 21
11.8168478381
 31
0.0
 11
10.3063231534
 21
11.8275229138
 31
0.0
 11
10.3061093987
 21
11.8377164487
 31
0.0
 11
10.307052039
 21
11.8474759619
 31
0.0
 11
10.309543908
 21
11.8576137203
 31
0.0
 11
10.314449016
 21
11.8685071358
 31
0.0
 11
10.3221917948
 21
11.8789834975
 31
0.0
 11
10.3322703406
 21
11.8877479869
 31
0.0
 11
10.3430150958
 21
11.893891602
 31
0.0
  0
SPLINE
  5
436
100
AcDbEntity
  8
02___PRT_ALL_AXES
100
AcDbSpline
 62
7
  6
CONTINUOUS
 70
0
 71
3
 72
16
 73
12
 74
10
 42
0.0000001
 43
0.0000001
 44
0.0000000001
 12
0.0915557338
 22
-0.0322716226
 32
0.0
 13
-0.0089749167
 23
-0.0966791288
 33
0.0
 40
0.0
 40
0.0
 40
0.0
 40
0.0
 40
0.1125290826
 40
0.2169319509
 40
0.3172740416
 40
0.4185807049
 40
0.5243788302
 40
0.637645162
 40
0.7563318044
 40
0.8793726281
 40
1.0
 40
1.0
 40
1.0
 40
1.0
 10
10.2513953288
 20
11.7129625519
 30
0.0
 10
10.2548295564
 20
11.7117520532
 30
0.0
 10
10.2613844684
 20
11.7092215735
 30
0.0
 10
10.2706443615
 20
11.7047559975
 30
0.0
 10
10.2790930856
 20
11.6995479411
 30
0.0
 10
10.2868527679
 20
11.6932699136
 30
0.0
 10
10.2938427145
 20
11.685548531
 30
0.0
 10
10.2996424028
 20
11.6762069841
 30
0.0
 10
10.3037265268
 20
11.6653904732
 30
0.0
 10
10.3056938765
 20
11.6537624982
 30
0.0
 10
10.3056012866
 20
11.6458330713
 30
0.0
 10
10.305240413
 20
11.6419456882
 30
0.0
 11
10.2513953288
 21
11.7129625519
 31
0.0
 11
10.2615698521
 21
11.7089861072
 31
0.0
 11
10.2706787518
 21
11.704542215
 31
0.0
 11
10.2789482985
 21
11.699394442
 31
0.0
 11
10.2865698893
 21
11.6931791931
 31
0.0
 11
10.2934423401
 21
11.6855467925
 31
0.0
 11
10.2992359037
 21
11.6762013963
 31
0.0
 11
10.303322391
 21
11.6654287128
 31
0.0
 11
10.3053460478
 21
11.6536569752
 31
0.0
 11
10.305240413
 21
11.6419456882
 31
0.0
  0
SPLINE
  5
437
100
AcDbEntity
  8
0
100
AcDbSpline
 62
7
  6
CONTINUOUS
 70
0
 71
3
 72
8
 73
4
 74
2
 42
0.0000001
 43
0.0000001
 44
0.0000000001
 12
0.0011802114
 22
0.0
 32
0.0
 13
0.0011802042
 23
-0.0000053411
 33
0.0
 40
0.0
 40
0.0
 40
0.0
 40
0.0
 40
1.0
 40
1.0
 40
1.0
 40
1.0
 10
10.1088794072
 20
7.6358259092
 30
0.0
 10
10.109272811
 20
7.6358259092
 30
0.0
 10
10.1096662051
 20
7.6358223471
 30
0.0
 10
10.1100596065
 20
7.6358205667
 30
0.0
 11
10.1088794072
 21
7.6358259092
 31
0.0
 11
10.1100596065
 21
7.6358205667
 31
0.0
  0
SPLINE
  5
438
100
AcDbEntity
  8
0
100
AcDbSpline
 62
7
  6
CONTINUOUS
 70
0
 71
3
 72
8
 73
4
 74
2
 42
0.0000001
 43
0.0000001
 44
0.0000000001
 12
0.0012173389
 22
0.0
 32
0.0
 13
0.0012173333
 23
-0.00000532
 33
0.0
 40
0.0
 40
0.0
 40
0.0
 40
0.0
 40
1.0
 40
1.0
 40
1.0
 40
1.0
 10
10.3904389127
 20
7.6358256937
 30
0.0
 10
10.3908446923
 20
7.6358256937
 30
0.0
 10
10.391250463
 20
7.6358223401
 30
0.0
 10
10.3916562408
 20
7.6358205667
 30
0.0
 11
10.3904389127
 21
7.6358256937
 31
0.0
 11
10.3916562408
 21
7.6358205667
 31
0.0
  0
SPLINE
  5
439
100
AcDbEntity
  8
0
100
AcDbSpline
 62
7
  6
CONTINUOUS
 70
0
 71
3
 72
20
 73
16
 74
14
 42
0.0000001
 43
0.0000001
 44
0.0000000001
 12
-0.2030916281
 22
-0.1047405856
 32
0.0
 13
-0.2030916281
 23
0.1047405856
 33
0.0
 40
0.0
 40
0.0
 40
0.0
 40
0.0
 40
0.08400078
 40
0.1642864135
 40
0.2416477124
 40
0.3168586769
 40
0.3906773904
 40
0.4636446335
 40
0.5363557412
 40
0.6093229916
 40
0.683141703
 40
0.7583526538
 40
0.8357137743
 40
0.9159992334
 40
1.0
 40
1.0
 40
1.0
 40
1.0
 10
10.7394978013
 20
8.3888842326
 30
0.0
 10
10.7338111829
 20
8.385951469
 30
0.0
 10
10.7225405617
 20
8.3804968743
 30
0.0
 10
10.7055180996
 20
8.3734646454
 30
0.0
 10
10.6886998945
 20
8.3677854677
 30
0.0
 10
10.6719859063
 20
8.3634744442
 30
0.0
 10
10.655308832
 20
8.360566296
 30
0.0
 10
10.6386331937
 20
8.3590995144
 30
0.0
 10
10.6219573777
 20
8.3590995182
 30
0.0
 10
10.6052817397
 20
8.3605663073
 30
0.0
 10
10.5886046673
 20
8.3634744625
 30
0.0
 10
10.5718906951
 20
8.3677854887
 30
0.0
 10
10.5550725179
 20
8.3734646615
 30
0.0
 10
10.5380500822
 20
8.3804968809
 30
0.0
 10
10.5267794738
 20
8.3859514694
 30
0.0
 10
10.5210928563
 20
8.3888842326
 30
0.0
 11
10.7394978013
 21
8.3888842326
 31
0.0
 11
10.7222066695
 21
8.3805496455
 31
0.0
 11
10.705239243
 21
8.373572211
 31
0.0
 11
10.6884817154
 21
8.3679427496
 31
0.0
 11
10.6718339644
 21
8.3636734881
 31
0.0
 11
10.6552133478
 21
8.3607933809
 31
0.0
 11
10.638602892
 21
8.3593420326
 31
0.0
 11
10.6219876801
 21
8.3593420364
 31
0.0
 11
10.6053772232
 21
8.3607933922
 31
0.0
 11
10.5887566083
 21
8.3636735064
 31
0.0
 11
10.572108862
 21
8.3679427735
 31
0.0
 11
10.5553513745
 21
8.3735722261
 31
0.0
 11
10.5383839854
 21
8.3805496468
 31
0.0
 11
10.5210928563
 21
8.3888842326
 31
0.0
  0
SPLINE
  5
43A
100
AcDbEntity
  8
0
100
AcDbSpline
 62
7
  6
CONTINUOUS
 70
0
 71
3
 72
22
 73
18
 74
16
 42
0.0000001
 43
0.0000001
 44
0.0000000001
 12
-0.1841159816
 22
0.1644656067
 32
0.0
 13
-0.1841159816
 23
-0.1644656067
 33
0.0
 40
0.0
 40
0.0
 40
0.0
 40
0.0
 40
0.0829707213
 40
0.1588845727
 40
0.2288969259
 40
0.2941011876
 40
0.3556367621
 40
0.4144633457
 40
0.4716805954
 40
0.5283199594
 40
0.5855371684
 40
0.6443637117
 40
0.7058992363
 40
0.7711034087
 40
0.8411155225
 40
0.9170292033
 40
1.0
 40
1.0
 40
1.0
 40
1.0
 10
10.7394978013
 20
8.7623205667
 30
0.0
 10
10.7344057227
 20
8.7668691767
 30
0.0
 10
10.7244101217
 20
8.7753131209
 30
0.0
 10
10.7092224623
 20
8.7864818881
 30
0.0
 10
10.6944493216
 20
8.7956648194
 30
0.0
 10
10.6799666845
 20
8.8029586934
 30
0.0
 10
10.6656728296
 20
8.808415825
 30
0.0
 10
10.6514848957
 20
8.8120562908
 30
0.0
 10
10.6373537442
 20
8.8138784676
 30
0.0
 10
10.6232367796
 20
8.8138784587
 30
0.0
 10
10.609105637
 20
8.8120562661
 30
0.0
 10
10.5949177172
 20
8.8084157889
 30
0.0
 10
10.5806238805
 20
8.8029586514
 30
0.0
 10
10.5661412754
 20
8.7956647836
 30
0.0
 10
10.551368172
 20
8.7864818706
 30
0.0
 10
10.5361805349
 20
8.7753131198
 30
0.0
 10
10.5261849396
 20
8.7668691809
 30
0.0
 10
10.5210928563
 20
8.7623205667
 30
0.0
 11
10.7394978013
 21
8.7623205667
 31
0.0
 11
10.7238170993
 21
8.7754996275
 31
0.0
 11
10.7086879241
 21
8.7865605469
 31
0.0
 11
10.6939810507
 21
8.7956411129
 31
0.0
 11
10.6795819204
 21
8.8028376212
 31
0.0
 11
10.6653739315
 21
8.8082152593
 31
0.0
 11
10.6512985662
 21
8.8117926109
 31
0.0
 11
10.6372867028
 21
8.8135811497
 31
0.0
 11
10.623303818
 21
8.8135811409
 31
0.0
 11
10.6092919667
 21
8.8117925871
 31
0.0
 11
10.5952166145
 21
8.8082152239
 31
0.0
 11
10.5810086414
 21
8.8028375791
 31
0.0
 11
10.5666095348
 21
8.7956410725
 31
0.0
 11
10.551902714
 21
8.7865605338
 31
0.0
 11
10.536773573
 21
8.775499639
 31
0.0
 11
10.5210928563
 21
8.7623205667
 31
0.0
  0
SPLINE
  5
43B
100
AcDbEntity
  8
0
100
AcDbSpline
 62
7
  6
CONTINUOUS
 70
0
 71
3
 72
20
 73
16
 74
14
 42
0.0000001
 43
0.0000001
 44
0.0000000001
 12
-0.428005649
 22
-0.1103678244
 32
0.0
 13
-0.428005649
 23
0.1103678244
 33
0.0
 40
0.0
 40
0.0
 40
0.0
 40
0.0
 40
0.0804794139
 40
0.158860024
 40
0.2357469907
 40
0.3116917631
 40
0.3871787918
 40
0.4624097832
 40
0.5375906041
 40
0.6128216008
 40
0.6883086233
 40
0.7642533764
 40
0.8411401611
 40
0.9195205991
 40
1.0
 40
1.0
 40
1.0
 40
1.0
 10
10.4698002738
 20
8.3888842326
 30
0.0
 10
10.4583183926
 20
8.3859234533
 30
0.0
 10
10.4355628957
 20
8.3804244557
 30
0.0
 10
10.4015380742
 20
8.3734079371
 30
0.0
 10
10.3679378253
 20
8.3677460954
 30
0.0
 10
10.3345644587
 20
8.3634520862
 30
0.0
 10
10.3012846631
 20
8.3605580516
 30
0.0
 10
10.2680232072
 20
8.3590993855
 30
0.0
 10
10.2347672785
 20
8.3590993893
 30
0.0
 10
10.2015058231
 20
8.3605580629
 30
0.0
 10
10.1682260311
 20
8.3634521045
 30
0.0
 10
10.1348526956
 20
8.3677461164
 30
0.0
 10
10.1012525017
 20
8.3734079534
 30
0.0
 10
10.0672277336
 20
8.3804244625
 30
0.0
 10
10.0444722632
 20
8.3859234538
 30
0.0
 10
10.0329903838
 20
8.3888842326
 30
0.0
 11
10.4698002738
 21
8.3888842326
 31
0.0
 11
10.4352180102
 21
8.3805496455
 31
0.0
 11
10.4012831571
 21
8.373572211
 31
0.0
 11
10.3677681019
 21
8.3679427496
 31
0.0
 11
10.3344726
 21
8.3636734881
 31
0.0
 11
10.3012313669
 21
8.3607933809
 31
0.0
 11
10.2680104552
 21
8.3593420326
 31
0.0
 11
10.2347800313
 21
8.3593420364
 31
0.0
 11
10.2015591176
 21
8.3607933922
 31
0.0
 11
10.1683178878
 21
8.3636735064
 31
0.0
 11
10.1350223952
 21
8.3679427735
 31
0.0
 11
10.1015074202
 21
8.3735722261
 31
0.0
 11
10.0675726419
 21
8.3805496468
 31
0.0
 11
10.0329903838
 21
8.3888842326
 31
0.0
  0
SPLINE
  5
43C
100
AcDbEntity
  8
0
100
AcDbSpline
 62
7
  6
CONTINUOUS
 70
0
 71
3
 72
22
 73
18
 74
16
 42
0.0000001
 43
0.0000001
 44
0.0000000001
 12
-0.4128214514
 22
0.184380872
 32
0.0
 13
-0.4128214514
 23
-0.184380872
 33
0.0
 40
0.0
 40
0.0
 40
0.0
 40
0.0
 40
0.0752401314
 40
0.1464960249
 40
0.2145821913
 40
0.2802360819
 40
0.3442013412
 40
0.4069650995
 40
0.4690733333
 40
0.5309272723
 40
0.5930354551
 40
0.6557991587
 40
0.7197643523
 40
0.7854181401
 40
0.8535040661
 40
0.9247597991
 40
1.0
 40
1.0
 40
1.0
 40
1.0
 10
10.4698002738
 20
8.7623205667
 30
0.0
 10
10.4594466938
 20
8.7669448471
 30
0.0
 10
10.4390935169
 20
8.7755232922
 30
0.0
 10
10.4087194843
 20
8.786661754
 30
0.0
 10
10.3791944189
 20
8.7958076093
 30
0.0
 10
10.3502783237
 20
8.803059589
 30
0.0
 10
10.3217771664
 20
8.8084738875
 30
0.0
 10
10.2935285441
 20
8.8120779277
 30
0.0
 10
10.2654260062
 20
8.8138788161
 30
0.0
 10
10.2373643852
 20
8.8138788073
 30
0.0
 10
10.2092618643
 20
8.8120779032
 30
0.0
 10
10.1810132696
 20
8.8084738517
 30
0.0
 10
10.1525121478
 20
8.8030595471
 30
0.0
 10
10.1235961147
 20
8.7958075729
 30
0.0
 10
10.0940711235
 20
8.7866617355
 30
0.0
 10
10.0636971379
 20
8.7755232908
 30
0.0
 10
10.0433439735
 20
8.7669448513
 30
0.0
 10
10.0329903838
 20
8.7623205667
 30
0.0
 11
10.4698002738
 21
8.7623205667
 31
0.0
 11
10.4384388698
 21
8.7754996275
 31
0.0
 11
10.4081805195
 21
8.7865605469
 31
0.0
 11
10.3787667725
 21
8.7956411129
 31
0.0
 11
10.3499685119
 21
8.8028376212
 31
0.0
 11
10.3215525342
 21
8.8082152593
 31
0.0
 11
10.2934018035
 21
8.8117926109
 31
0.0
 11
10.2653780768
 21
8.8135811497
 31
0.0
 11
10.2374123071
 21
8.8135811409
 31
0.0
 11
10.2093886045
 21
8.8117925871
 31
0.0
 11
10.1812379001
 21
8.8082152239
 31
0.0
 11
10.152821954
 21
8.8028375791
 31
0.0
 11
10.1240237408
 21
8.7956410725
 31
0.0
 11
10.0946100992
 21
8.7865605338
 31
0.0
 11
10.0643518171
 21
8.775499639
 31
0.0
 11
10.0329903838
 21
8.7623205667
 31
0.0
  0
SPLINE
  5
43D
100
AcDbEntity
  8
0
100
AcDbSpline
 62
7
  6
CONTINUOUS
 70
0
 71
3
 72
20
 73
16
 74
14
 42
0.0000001
 43
0.0000001
 44
0.0000000001
 12
-0.2030916281
 22
-0.1047405856
 32
0.0
 13
-0.2030916281
 23
0.1047405856
 33
0.0
 40
0.0
 40
0.0
 40
0.0
 40
0.0
 40
0.08400078
 40
0.1642864135
 40
0.2416477124
 40
0.3168586769
 40
0.3906773904
 40
0.4636446335
 40
0.5363557412
 40
0.6093229916
 40
0.683141703
 40
0.7583526538
 40
0.8357137743
 40
0.9159992334
 40
1.0
 40
1.0
 40
1.0
 40
1.0
 10
9.9816978013
 20
8.3888842326
 30
0.0
 10
9.9760111829
 20
8.385951469
 30
0.0
 10
9.9647405617
 20
8.3804968743
 30
0.0
 10
9.9477180996
 20
8.3734646454
 30
0.0
 10
9.9308998945
 20
8.3677854677
 30
0.0
 10
9.9141859063
 20
8.3634744442
 30
0.0
 10
9.897508832
 20
8.360566296
 30
0.0
 10
9.8808331937
 20
8.3590995144
 30
0.0
 10
9.8641573777
 20
8.3590995182
 30
0.0
 10
9.8474817397
 20
8.3605663073
 30
0.0
 10
9.8308046673
 20
8.3634744625
 30
0.0
 10
9.8140906951
 20
8.3677854887
 30
0.0
 10
9.7972725179
 20
8.3734646615
 30
0.0
 10
9.7802500822
 20
8.3804968809
 30
0.0
 10
9.7689794738
 20
8.3859514694
 30
0.0
 10
9.7632928563
 20
8.3888842326
 30
0.0
 11
9.9816978013
 21
8.3888842326
 31
0.0
 11
9.9644066695
 21
8.3805496455
 31
0.0
 11
9.947439243
 21
8.373572211
 31
0.0
 11
9.9306817154
 21
8.3679427496
 31
0.0
 11
9.9140339644
 21
8.3636734881
 31
0.0
 11
9.8974133478
 21
8.3607933809
 31
0.0
 11
9.880802892
 21
8.3593420326
 31
0.0
 11
9.8641876801
 21
8.3593420364
 31
0.0
 11
9.8475772232
 21
8.3607933922
 31
0.0
 11
9.8309566083
 21
8.3636735064
 31
0.0
 11
9.814308862
 21
8.3679427735
 31
0.0
 11
9.7975513745
 21
8.3735722261
 31
0.0
 11
9.7805839854
 21
8.3805496468
 31
0.0
 11
9.7632928563
 21
8.3888842326
 31
0.0
  0
SPLINE
  5
43E
100
AcDbEntity
  8
0
100
AcDbSpline
 62
7
  6
CONTINUOUS
 70
0
 71
3
 72
22
 73
18
 74
16
 42
0.0000001
 43
0.0000001
 44
0.0000000001
 12
-0.1841159816
 22
0.1644656067
 32
0.0
 13
-0.1841159816
 23
-0.1644656067
 33
0.0
 40
0.0
 40
0.0
 40
0.0
 40
0.0
 40
0.0829707213
 40
0.1588845727
 40
0.2288969259
 40
0.2941011876
 40
0.3556367621
 40
0.4144633457
 40
0.4716805954
 40
0.5283199594
 40
0.5855371684
 40
0.6443637117
 40
0.7058992363
 40
0.7711034087
 40
0.8411155225
 40
0.9170292033
 40
1.0
 40
1.0
 40
1.0
 40
1.0
 10
9.9816978013
 20
8.7623205667
 30
0.0
 10
9.9766057227
 20
8.7668691767
 30
0.0
 10
9.9666101217
 20
8.7753131209
 30
0.0
 10
9.9514224623
 20
8.7864818881
 30
0.0
 10
9.9366493216
 20
8.7956648194
 30
0.0
 10
9.9221666845
 20
8.8029586934
 30
0.0
 10
9.9078728296
 20
8.808415825
 30
0.0
 10
9.8936848957
 20
8.8120562908
 30
0.0
 10
9.8795537442
 20
8.8138784676
 30
0.0
 10
9.8654367796
 20
8.8138784587
 30
0.0
 10
9.851305637
 20
8.8120562661
 30
0.0
 10
9.8371177172
 20
8.8084157889
 30
0.0
 10
9.8228238805
 20
8.8029586514
 30
0.0
 10
9.8083412754
 20
8.7956647836
 30
0.0
 10
9.793568172
 20
8.7864818706
 30
0.0
 10
9.7783805349
 20
8.7753131198
 30
0.0
 10
9.7683849396
 20
8.7668691809
 30
0.0
 10
9.7632928563
 20
8.7623205667
 30
0.0
 11
9.9816978013
 21
8.7623205667
 31
0.0
 11
9.9660170993
 21
8.7754996275
 31
0.0
 11
9.9508879241
 21
8.7865605469
 31
0.0
 11
9.9361810507
 21
8.7956411129
 31
0.0
 11
9.9217819204
 21
8.8028376212
 31
0.0
 11
9.9075739315
 21
8.8082152593
 31
0.0
 11
9.8934985662
 21
8.8117926109
 31
0.0
 11
9.8794867028
 21
8.8135811497
 31
0.0
 11
9.865503818
 21
8.8135811409
 31
0.0
 11
9.8514919667
 21
8.8117925871
 31
0.0
 11
9.8374166145
 21
8.8082152239
 31
0.0
 11
9.8232086414
 21
8.8028375791
 31
0.0
 11
9.8088095348
 21
8.7956410725
 31
0.0
 11
9.794102714
 21
8.7865605338
 31
0.0
 11
9.778973573
 21
8.775499639
 31
0.0
 11
9.7632928563
 21
8.7623205667
 31
0.0
  0
SPLINE
  5
43F
100
AcDbEntity
  8
0
100
AcDbSpline
 62
7
  6
CONTINUOUS
 70
0
 71
3
 72
14
 73
10
 74
8
 42
0.0000001
 43
0.0000001
 44
0.0000000001
 12
-0.1346741183
 22
0.0448913728
 32
0.0
 13
-0.1419578358
 23
0.0005712515
 33
0.0
 40
0.0
 40
0.0
 40
0.0
 40
0.0
 40
0.1535438964
 40
0.3012243647
 40
0.4447298146
 40
0.5856437586
 40
0.7251327628
 40
0.8632804959
 40
1.0
 40
1.0
 40
1.0
 40
1.0
 10
10.2513953288
 20
7.82970583
 30
0.0
 10
10.2445025326
 20
7.8320034288
 30
0.0
 10
10.2309041314
 20
7.8362877373
 30
0.0
 10
10.2106052675
 20
7.8418592426
 30
0.0
 10
10.190676649
 20
7.8464614692
 30
0.0
 10
10.1709429788
 20
7.8500995848
 30
0.0
 10
10.1513073176
 20
7.8527536983
 30
0.0
 10
10.1317592439
 20
7.8543744448
 30
0.0
 10
10.1187522276
 20
7.854794533
 30
0.0
 10
10.1122827593
 20
7.8548205667
 30
0.0
 11
10.2513953288
 21
7.82970583
 31
0.0
 11
10.23060035
 21
7.8362384605
 31
0.0
 11
10.2103789601
 21
7.841770961
 31
0.0
 11
10.1905258965
 21
7.8463392963
 31
0.0
 11
10.1708510295
 21
7.8499531095
 31
0.0
 11
10.1512259266
 21
7.8525919254
 31
0.0
 11
10.1316818582
 21
7.8542145626
 31
0.0
 11
10.1122827593
 21
7.8548205667
 31
0.0
  0
SPLINE
  5
440
100
AcDbEntity
  8
0
100
AcDbSpline
 62
7
  6
CONTINUOUS
 70
0
 71
3
 72
14
 73
10
 74
8
 42
0.0000001
 43
0.0000001
 44
0.0000000001
 12
0.1418203627
 22
0.0005972253
 32
0.0
 13
0.1345438024
 23
0.0448479341
 33
0.0
 40
0.0
 40
0.0
 40
0.0
 40
0.0
 40
0.1372765795
 40
0.2760160442
 40
0.4158873884
 40
0.5569625007
 40
0.7003298239
 40
0.8474792555
 40
1.0
 40
1.0
 40
1.0
 40
1.0
 10
10.1124199992
 20
7.6358259021
 30
0.0
 10
10.1189095373
 20
7.6358532304
 30
0.0
 10
10.131958342
 20
7.6362753551
 30
0.0
 10
10.1515586255
 20
7.6379146847
 30
0.0
 10
10.1712266514
 20
7.640586697
 30
0.0
 10
10.1909575273
 20
7.644238612
 30
0.0
 10
10.210840714
 20
7.6488426036
 30
0.0
 10
10.2310405313
 20
7.6543954648
 30
0.0
 10
10.2445550885
 20
7.6586552233
 30
0.0
 10
10.2513953288
 20
7.6609353034
 30
0.0
 11
10.1124199992
 21
7.6358259021
 31
0.0
 11
10.1318791671
 21
7.6364378243
 31
0.0
 11
10.151486963
 21
7.6380777565
 31
0.0
 11
10.1711449601
 21
7.6407350136
 31
0.0
 11
10.1908207636
 21
7.6443630781
 31
0.0
 11
10.2106328328
 21
7.6489342889
 31
0.0
 11
10.2307598064
 21
7.6544496202
 31
0.0
 11
10.2513953288
 21
7.6609353034
 31
0.0
  0
SPLINE
  5
441
100
AcDbEntity
  8
0
100
AcDbSpline
 62
7
  6
CONTINUOUS
 70
0
 71
3
 72
14
 73
10
 74
8
 42
0.0000001
 43
0.0000001
 44
0.0000000001
 12
0.134101937
 22
-0.0447006457
 32
0.0
 13
0.1413537248
 23
-0.0007757047
 33
0.0
 40
0.0
 40
0.0
 40
0.0
 40
0.0
 40
0.1534990069
 40
0.301155363
 40
0.4446514546
 40
0.5855535902
 40
0.7250041383
 40
0.8632044205
 40
1.0
 40
1.0
 40
1.0
 40
1.0
 10
9.9703700853
 20
7.6609353034
 30
0.0
 10
9.97723159
 20
7.6586481352
 30
0.0
 10
9.9907687633
 20
7.6543820036
 30
0.0
 10
10.0109763013
 20
7.6488298057
 30
0.0
 10
10.0308158655
 20
7.6442379608
 30
0.0
 10
10.0504601517
 20
7.6406011784
 30
0.0
 10
10.0700096829
 20
7.6379384648
 30
0.0
 10
10.0894766857
 20
7.6362980468
 30
0.0
 10
10.1024338856
 20
7.6358612802
 30
0.0
 10
10.1088794072
 20
7.6358259092
 30
0.0
 11
9.9703700853
 21
7.6609353034
 31
0.0
 11
9.9910701229
 21
7.6544306196
 31
0.0
 11
10.0112008116
 21
7.6489170434
 31
0.0
 11
10.0309659861
 21
7.6443586401
 31
0.0
 11
10.0505529248
 21
7.6407458399
 31
0.0
 11
10.070086547
 21
7.6380988586
 31
0.0
 11
10.089552855
 21
7.6364570788
 31
0.0
 11
10.1088794072
 21
7.6358259092
 31
0.0
  0
SPLINE
  5
442
100
AcDbEntity
  8
0
100
AcDbSpline
 62
7
  6
CONTINUOUS
 70
0
 71
3
 72
14
 73
10
 74
8
 42
0.0000001
 43
0.0000001
 44
0.0000000001
 12
-0.1412419419
 22
-0.0008271806
 32
0.0
 13
-0.1339961691
 23
-0.0446653897
 33
0.0
 40
0.0
 40
0.0
 40
0.0
 40
0.0
 40
0.1371289322
 40
0.2758278362
 40
0.4157492806
 40
0.5568655288
 40
0.7002747073
 40
0.8474617287
 40
1.0
 40
1.0
 40
1.0
 40
1.0
 10
10.1087677759
 20
7.854818356
 30
0.0
 10
10.102311657
 20
7.8547805458
 30
0.0
 10
10.0893258176
 20
7.8543333886
 30
0.0
 10
10.0698136548
 20
7.8526822246
 30
0.0
 10
10.0502257972
 20
7.8500025068
 30
0.0
 10
10.0305714748
 20
7.8463519307
 30
0.0
 10
10.0107656823
 20
7.8417569932
 30
0.0
 10
9.9906449888
 20
7.8362209585
 30
0.0
 10
9.9771832666
 20
7.8319768905
 30
0.0
 10
9.9703700853
 20
7.82970583
 30
0.0
 11
10.1087677759
 21
7.854818356
 31
0.0
 11
10.0894097518
 21
7.8541756976
 31
0.0
 11
10.0698893632
 21
7.8525204915
 31
0.0
 11
10.050306724
 21
7.8498557261
 31
0.0
 11
10.0307076377
 21
7.8462286821
 31
0.0
 11
10.0109723962
 21
7.8416663172
 31
0.0
 11
9.9909235155
 21
7.836167324
 31
0.0
 11
9.9703700853
 21
7.82970583
 31
0.0
  0
SPLINE
  5
443
100
AcDbEntity
  8
0
100
AcDbSpline
 62
7
  6
CONTINUOUS
 70
0
 71
3
 72
14
 73
10
 74
8
 42
0.0000001
 43
0.0000001
 44
0.0000000001
 12
-0.1341020199
 22
0.0447006733
 32
0.0
 13
-0.1413538122
 23
0.0007757052
 33
0.0
 40
0.0
 40
0.0
 40
0.0
 40
0.0
 40
0.153498912
 40
0.3011551769
 40
0.4446511798
 40
0.5855532282
 40
0.7250036902
 40
0.8632038869
 40
1.0
 40
1.0
 40
1.0
 40
1.0
 10
10.5324205724
 20
7.82970583
 30
0.0
 10
10.5255590677
 20
7.8319929983
 30
0.0
 10
10.5120218944
 20
7.836259132
 30
0.0
 10
10.4918143562
 20
7.8418113206
 30
0.0
 10
10.471974793
 20
7.846403198
 30
0.0
 10
10.452330503
 20
7.8500398626
 30
0.0
 10
10.4327809859
 20
7.8527030087
 30
0.0
 10
10.413313902
 20
7.8543418376
 30
0.0
 10
10.4003568012
 20
7.8547825243
 30
0.0
 10
10.3939112505
 20
7.8548178955
 30
0.0
 11
10.5324205724
 21
7.82970583
 31
0.0
 11
10.5117205347
 21
7.8362105139
 31
0.0
 11
10.4915898461
 21
7.8417240901
 31
0.0
 11
10.4718246716
 21
7.8462824934
 31
0.0
 11
10.4522377328
 21
7.8498952936
 31
0.0
 11
10.4327041107
 21
7.8525422749
 31
0.0
 11
10.4132378027
 21
7.8541840547
 31
0.0
 11
10.3939112505
 21
7.8548178955
 31
0.0
  0
SPLINE
  5
444
100
AcDbEntity
  8
0
100
AcDbSpline
 62
7
  6
CONTINUOUS
 70
0
 71
3
 72
14
 73
10
 74
8
 42
0.0000001
 43
0.0000001
 44
0.0000000001
 12
0.1411737321
 22
0.0008441808
 32
0.0
 13
0.1339315562
 23
0.0446438521
 33
0.0
 40
0.0
 40
0.0
 40
0.0
 40
0.0
 40
0.137440239
 40
0.2761865377
 40
0.4160160227
 40
0.5570696608
 40
0.7004174394
 40
0.8475340068
 40
1.0
 40
1.0
 40
1.0
 40
1.0
 10
10.3940908935
 20
7.6358266589
 30
0.0
 10
10.400558544
 20
7.6358653337
 30
0.0
 10
10.4135550912
 20
7.6363113505
 30
0.0
 10
10.4330698347
 20
7.6379698794
 30
0.0
 10
10.4526426495
 20
7.6406514434
 30
0.0
 10
10.4722769052
 20
7.6443016142
 30
0.0
 10
10.4920637444
 20
7.6488942645
 30
0.0
 10
10.5121651522
 20
7.6544262071
 30
0.0
 10
10.5256139031
 20
7.6586664137
 30
0.0
 10
10.5324205724
 20
7.6609353034
 30
0.0
 11
10.3940908935
 21
7.6358266589
 31
0.0
 11
10.4134834751
 21
7.6364714598
 31
0.0
 11
10.4330006742
 21
7.6381316594
 31
0.0
 11
10.4525604156
 21
7.6407977298
 31
0.0
 11
10.4721407878
 21
7.6444245053
 31
0.0
 11
10.4918575917
 21
7.6489847754
 31
0.0
 11
10.5118868981
 21
7.6544796327
 31
0.0
 11
10.5324205724
 21
7.6609353034
 31
0.0
  0
SPLINE
  5
445
100
AcDbEntity
  8
0
100
AcDbSpline
 62
7
  6
CONTINUOUS
 70
0
 71
3
 72
14
 73
10
 74
8
 42
0.0000001
 43
0.0000001
 44
0.0000000001
 12
0.1346085506
 22
-0.0448695169
 32
0.0
 13
0.141888722
 23
-0.0005709857
 33
0.0
 40
0.0
 40
0.0
 40
0.0
 40
0.0
 40
0.1535473384
 40
0.3012315879
 40
0.4447431213
 40
0.5856617908
 40
0.7251455681
 40
0.8633390891
 40
1.0
 40
1.0
 40
1.0
 40
1.0
 10
10.2513953288
 20
7.6609353034
 30
0.0
 10
10.2582849237
 20
7.6586387718
 30
0.0
 10
10.2718769943
 20
7.6543563462
 30
0.0
 10
10.2921664245
 20
7.6487868223
 30
0.0
 10
10.3120857757
 20
7.6441857215
 30
0.0
 10
10.3318098039
 20
7.6405476543
 30
0.0
 10
10.3514377539
 20
7.6378930176
 30
0.0
 10
10.3709751565
 20
7.6362683918
 30
0.0
 10
10.3839753654
 20
7.6358517042
 30
0.0
 10
10.3904389127
 20
7.6358256937
 30
0.0
 11
10.2513953288
 21
7.6609353034
 31
0.0
 11
10.2721805942
 21
7.6544055314
 31
0.0
 11
10.2923925013
 21
7.6488750156
 31
0.0
 11
10.312236507
 21
7.6443076965
 31
0.0
 11
10.3319021749
 21
7.6406939995
 31
0.0
 11
10.3515167029
 21
7.6380544473
 31
0.0
 11
10.3710575164
 21
7.6364294856
 31
0.0
 11
10.3904389127
 21
7.6358256937
 31
0.0
  0
SPLINE
  5
446
100
AcDbEntity
  8
0
100
AcDbSpline
 62
7
  6
CONTINUOUS
 70
0
 71
3
 72
14
 73
10
 74
8
 42
0.0000001
 43
0.0000001
 44
0.0000000001
 12
-0.1413300094
 22
-0.000588089
 32
0.0
 13
-0.1340785802
 23
-0.0446928601
 33
0.0
 40
0.0
 40
0.0
 40
0.0
 40
0.0
 40
0.1372998056
 40
0.2760464591
 40
0.4159105428
 40
0.5569820706
 40
0.700350325
 40
0.8474968164
 40
1.0
 40
1.0
 40
1.0
 40
1.0
 10
10.3898800328
 20
7.8548153677
 30
0.0
 10
10.3834118385
 20
7.8547884529
 30
0.0
 10
10.3704074989
 20
7.854334421
 30
0.0
 10
10.3508756079
 20
7.8526872547
 30
0.0
 10
10.3312780234
 20
7.85000675
 30
0.0
 10
10.3116180265
 20
7.8463565478
 30
0.0
 10
10.2918056613
 20
7.841760822
 30
0.0
 10
10.2716777648
 20
7.8362232924
 30
0.0
 10
10.2582111323
 20
7.8319777645
 30
0.0
 10
10.2513953288
 20
7.82970583
 30
0.0
 11
10.3898800328
 21
7.8548153677
 31
0.0
 11
10.3704857304
 21
7.8541786668
 31
0.0
 11
10.3509464304
 21
7.852524014
 31
0.0
 11
10.3313595804
 21
7.8498601714
 31
0.0
 11
10.3117544455
 21
7.8462331797
 31
0.0
 11
10.2920125227
 21
7.841670085
 31
0.0
 11
10.2719567139
 21
7.8361696686
 31
0.0
 11
10.2513953288
 21
7.82970583
 31
0.0
  0
SPLINE
  5
447
100
AcDbEntity
  8
0
100
AcDbSpline
 62
7
  6
CONTINUOUS
 70
0
 71
3
 72
10
 73
6
 74
4
 42
0.0000001
 43
0.0000001
 44
0.0000000001
 12
0.0035406161
 22
0.0
 32
0.0
 13
0.0035406161
 23
0.0
 33
0.0
 40
0.0
 40
0.0
 40
0.0
 40
0.0
 40
0.3298539063
 40
0.6628480424
 40
1.0
 40
1.0
 40
1.0
 40
1.0
 10
10.1088794072
 20
7.6358259092
 30
0.0
 10
10.1092687026
 20
7.6358259092
 30
0.0
 10
10.1100509798
 20
7.6358187418
 30
0.0
 10
10.1112311997
 20
7.6358188395
 30
0.0
 10
10.1120220906
 20
7.6358259021
 30
0.0
 10
10.1124199992
 20
7.6358259021
 30
0.0
 11
10.1088794072
 21
7.6358259092
 31
0.0
 11
10.110047281
 21
7.6358205667
 31
0.0
 11
10.1112262854
 21
7.6358205667
 31
0.0
 11
10.1124199992
 21
7.6358259021
 31
0.0
  0
SPLINE
  5
448
100
AcDbEntity
  8
0
100
AcDbSpline
 62
7
  6
CONTINUOUS
 70
0
 71
3
 72
10
 73
6
 74
4
 42
0.0000001
 43
0.0000001
 44
0.0000000001
 12
0.0036520068
 22
0.0
 32
0.0
 13
0.0036520068
 23
0.0
 33
0.0
 40
0.0
 40
0.0
 40
0.0
 40
0.0
 40
0.3305672802
 40
0.663522172
 40
1.0
 40
1.0
 40
1.0
 40
1.0
 10
10.3904389127
 20
7.6358256937
 30
0.0
 10
10.390841324
 20
7.6358256937
 30
0.0
 10
10.3916490352
 20
7.6358189511
 30
0.0
 10
10.3928663863
 20
7.6358184522
 30
0.0
 10
10.3936812871
 20
7.6358266589
 30
0.0
 10
10.3940908935
 20
7.6358266589
 30
0.0
 11
10.3904389127
 21
7.6358256937
 31
0.0
 11
10.3916461358
 21
7.6358205667
 31
0.0
 11
10.3928620893
 21
7.6358205667
 31
0.0
 11
10.3940908935
 21
7.6358266589
 31
0.0
  0
SPLINE
  5
449
100
AcDbEntity
  8
0
100
AcDbSpline
 62
7
  6
CONTINUOUS
 70
0
 71
3
 72
29
 73
25
 74
23
 42
0.0000001
 43
0.0000001
 44
0.0000000001
 12
-0.2031214553
 22
-0.1047559684
 32
0.0
 13
-0.2031214553
 23
0.1047559684
 33
0.0
 40
0.0
 40
0.0
 40
0.0
 40
0.0
 40
0.0501645929
 40
0.0988539942
 40
0.1462731912
 40
0.1926207403
 40
0.2380755107
 40
0.2827939832
 40
0.3269170129
 40
0.3705812167
 40
0.4139046868
 40
0.4570078763
 40
0.5000000002
 40
0.5429921242
 40
0.5860953137
 40
0.6294187838
 40
0.6730829876
 40
0.7172060173
 40
0.7619244898
 40
0.8073792601
 40
0.853726809
 40
0.9011460059
 40
0.949835407
 40
1.0
 40
1.0
 40
1.0
 40
1.0
 10
10.7394978013
 20
8.3888842326
 30
0.0
 10
10.7361012996
 20
8.3871325524
 30
0.0
 10
10.7293551262
 20
8.3837821784
 30
0.0
 10
10.7192139896
 20
8.3791587022
 30
0.0
 10
10.7091832219
 20
8.3750097889
 30
0.0
 10
10.6992328398
 20
8.3713306542
 30
0.0
 10
10.6893369481
 20
8.3681211713
 30
0.0
 10
10.6794752006
 20
8.3653854188
 30
0.0
 10
10.6696321723
 20
8.3631302275
 30
0.0
 10
10.6597974406
 20
8.3613639515
 30
0.0
 10
10.6499643681
 20
8.3600949232
 30
0.0
 10
10.6401304542
 20
8.3593303109
 30
0.0
 10
10.6302953288
 20
8.3590748809
 30
0.0
 10
10.6204602033
 20
8.3593303109
 30
0.0
 10
10.6106262894
 20
8.3600949232
 30
0.0
 10
10.600793217
 20
8.3613639515
 30
0.0
 10
10.5909584853
 20
8.3631302275
 30
0.0
 10
10.581115457
 20
8.3653854189
 30
0.0
 10
10.5712537094
 20
8.3681211714
 30
0.0
 10
10.5613578178
 20
8.3713306542
 30
0.0
 10
10.5514074357
 20
8.3750097889
 30
0.0
 10
10.541376668
 20
8.3791587022
 30
0.0
 10
10.5312355314
 20
8.3837821784
 30
0.0
 10
10.5244893581
 20
8.3871325524
 30
0.0
 10
10.5210928563
 20
8.3888842326
 30
0.0
 11
10.7394978013
 21
8.3888842326
 31
0.0
 11
10.7292268001
 21
8.3837903149
 31
0.0
 11
10.7190992147
 21
8.3791798332
 31
0.0
 11
10.709082379
 21
8.3750432696
 31
0.0
 11
10.6991452872
 21
8.3713753251
 31
0.0
 11
10.6892618909
 21
8.3681757646
 31
0.0
 11
10.6794123195
 21
8.365448727
 31
0.0
 11
10.6695819644
 21
8.3632011005
 31
0.0
 11
10.6597592729
 21
8.3614408225
 31
0.0
 11
10.6499390523
 21
8.3601763171
 31
0.0
 11
10.6401176035
 21
8.3594144469
 31
0.0
 11
10.6302953288
 21
8.359159951
 31
0.0
 11
10.6204730541
 21
8.3594144469
 31
0.0
 11
10.6106516052
 21
8.3601763171
 31
0.0
 11
10.6008313847
 21
8.3614408225
 31
0.0
 11
10.5910086932
 21
8.3632011005
 31
0.0
 11
10.581178338
 21
8.3654487271
 31
0.0
 11
10.5713287667
 21
8.3681757646
 31
0.0
 11
10.5614453704
 21
8.3713753251
 31
0.0
 11
10.5515082786
 21
8.3750432696
 31
0.0
 11
10.541491443
 21
8.3791798332
 31
0.0
 11
10.5313638576
 21
8.3837903149
 31
0.0
 11
10.5210928563
 21
8.3888842326
 31
0.0
  0
SPLINE
  5
44A
100
AcDbEntity
  8
0
100
AcDbSpline
 62
7
  6
CONTINUOUS
 70
0
 71
3
 72
31
 73
27
 74
25
 42
0.0000001
 43
0.0000001
 44
0.0000000001
 12
-0.1841599752
 22
0.164504905
 32
0.0
 13
-0.1841599752
 23
-0.164504905
 33
0.0
 40
0.0
 40
0.0
 40
0.0
 40
0.0
 40
0.052816461
 40
0.1026317996
 40
0.1497770398
 40
0.194567141
 40
0.2372863838
 40
0.2782033548
 40
0.3175675253
 40
0.3556342449
 40
0.3926541658
 40
0.4288789048
 40
0.46457451
 40
0.5000000004
 40
0.5354254908
 40
0.5711210959
 40
0.6073458349
 40
0.6443657558
 40
0.6824324752
 40
0.7217966458
 40
0.7627136166
 40
0.8054328592
 40
0.8502229603
 40
0.8973682004
 40
0.947183539
 40
1.0
 40
1.0
 40
1.0
 40
1.0
 10
10.7394978013
 20
8.7623205667
 30
0.0
 10
10.7362555753
 20
8.7652167557
 30
0.0
 10
10.7298550924
 20
8.7707339469
 30
0.0
 10
10.7202003807
 20
8.778406015
 30
0.0
 10
10.7107535217
 20
8.7852608089
 30
0.0
 10
10.7014775701
 20
8.7913358232
 30
0.0
 10
10.6923391066
 20
8.7966598077
 30
0.0
 10
10.6833098863
 20
8.801252821
 30
0.0
 10
10.674365385
 20
8.8051284304
 30
0.0
 10
10.6654849944
 20
8.8082948203
 30
0.0
 10
10.6566512285
 20
8.810756292
 30
0.0
 10
10.6478494069
 20
8.8125145485
 30
0.0
 10
10.6390676482
 20
8.8135697167
 30
0.0
 10
10.6302953287
 20
8.8139214948
 30
0.0
 10
10.6215230093
 20
8.8135697167
 30
0.0
 10
10.6127412506
 20
8.8125145485
 30
0.0
 10
10.6039394291
 20
8.8107562919
 30
0.0
 10
10.5951056631
 20
8.8082948202
 30
0.0
 10
10.5862252726
 20
8.8051284303
 30
0.0
 10
10.5772807712
 20
8.801252821
 30
0.0
 10
10.568251551
 20
8.7966598077
 30
0.0
 10
10.5591130875
 20
8.7913358231
 30
0.0
 10
10.549837136
 20
8.7852608088
 30
0.0
 10
10.540390277
 20
8.778406015
 30
0.0
 10
10.5307355653
 20
8.7707339469
 30
0.0
 10
10.5243350824
 20
8.7652167557
 30
0.0
 10
10.5210928563
 20
8.7623205667
 30
0.0
 11
10.7394978013
 21
8.7623205667
 31
0.0
 11
10.729610934
 21
8.7708264068
 31
0.0
 11
10.7199723778
 21
8.7784694565
 31
0.0
 11
10.7105423418
 21
8.7852963052
 31
0.0
 11
10.7012828696
 21
8.7913453459
 31
0.0
 11
10.6921617494
 21
8.7966447526
 31
0.0
 11
10.6831506448
 21
8.8012150039
 31
0.0
 11
10.6742270368
 21
8.8050692252
 31
0.0
 11
10.6653696224
 21
8.8082166238
 31
0.0
 11
10.6565612892
 21
8.8106621018
 31
0.0
 11
10.6477881697
 21
8.8124079582
 31
0.0
 11
10.6390361435
 21
8.8134554193
 31
0.0
 11
10.6302953287
 21
8.8138045327
 31
0.0
 11
10.621554514
 21
8.8134554192
 31
0.0
 11
10.6128024878
 21
8.8124079582
 31
0.0
 11
10.6040293683
 21
8.8106621018
 31
0.0
 11
10.5952210351
 21
8.8082166237
 31
0.0
 11
10.5863636208
 21
8.8050692251
 31
0.0
 11
10.5774400127
 21
8.8012150038
 31
0.0
 11
10.5684289082
 21
8.7966447525
 31
0.0
 11
10.5593077881
 21
8.7913453459
 31
0.0
 11
10.5500483158
 21
8.7852963051
 31
0.0
 11
10.5406182799
 21
8.7784694565
 31
0.0
 11
10.5309797237
 21
8.7708264068
 31
0.0
 11
10.5210928563
 21
8.7623205667
 31
0.0
  0
SPLINE
  5
44B
100
AcDbEntity
  8
0
100
AcDbSpline
 62
7
  6
CONTINUOUS
 70
0
 71
3
 72
29
 73
25
 74
23
 42
0.0000001
 43
0.0000001
 44
0.0000000001
 12
-0.428023258
 22
-0.1103723652
 32
0.0
 13
-0.428023258
 23
0.1103723652
 33
0.0
 40
0.0
 40
0.0
 40
0.0
 40
0.0
 40
0.0478800336
 40
0.0948757254
 40
0.1411542863
 40
0.1868752999
 40
0.232176073
 40
0.277166767
 40
0.3219352193
 40
0.3665573442
 40
0.411082228
 40
0.4555540877
 40
0.5000000002
 40
0.5444459128
 40
0.5889177725
 40
0.6334426563
 40
0.6780647813
 40
0.7228332336
 40
0.7678239275
 40
0.8131247004
 40
0.8588457139
 40
0.9051242747
 40
0.9521199663
 40
1.0
 40
1.0
 40
1.0
 40
1.0
 10
10.4698002738
 20
8.3888842326
 30
0.0
 10
10.4629690178
 20
8.3871226884
 30
0.0
 10
10.4494006046
 20
8.3837549507
 30
0.0
 10
10.4291211215
 20
8.3791344589
 30
0.0
 10
10.4090638206
 20
8.3749887881
 30
0.0
 10
10.389168906
 20
8.3713130752
 30
0.0
 10
10.3693849922
 20
8.3681071327
 30
0.0
 10
10.3496716765
 20
8.365374913
 30
0.0
 10
10.3299982558
 20
8.3631230693
 30
0.0
 10
10.310343852
 20
8.3613597419
 30
0.0
 10
10.2906949108
 20
8.3600930349
 30
0.0
 10
10.2710458976
 20
8.3593299118
 30
0.0
 10
10.2513953287
 20
8.3590749954
 30
0.0
 10
10.2317447599
 20
8.3593299118
 30
0.0
 10
10.2120957467
 20
8.3600930349
 30
0.0
 10
10.1924468055
 20
8.3613597419
 30
0.0
 10
10.1727924016
 20
8.3631230693
 30
0.0
 10
10.153118981
 20
8.3653749131
 30
0.0
 10
10.1334056653
 20
8.3681071328
 30
0.0
 10
10.1136217515
 20
8.3713130753
 30
0.0
 10
10.093726837
 20
8.3749887881
 30
0.0
 10
10.0736695361
 20
8.3791344589
 30
0.0
 10
10.0533900531
 20
8.3837549507
 30
0.0
 10
10.0398216398
 20
8.3871226884
 30
0.0
 10
10.0329903838
 20
8.3888842326
 30
0.0
 11
10.4698002738
 21
8.3888842326
 31
0.0
 11
10.4492582713
 21
8.3837903149
 31
0.0
 11
10.4290031006
 21
8.3791798332
 31
0.0
 11
10.4089694293
 21
8.3750432696
 31
0.0
 11
10.3890952456
 21
8.3713753251
 31
0.0
 11
10.369328453
 21
8.3681757646
 31
0.0
 11
10.3496293102
 21
8.365448727
 31
0.0
 11
10.3299685999
 21
8.3632011005
 31
0.0
 11
10.3103232169
 21
8.3614408225
 31
0.0
 11
10.2906827758
 21
8.3601763171
 31
0.0
 11
10.2710398781
 21
8.3594144469
 31
0.0
 11
10.2513953287
 21
8.359159951
 31
0.0
 11
10.2317507793
 21
8.3594144469
 31
0.0
 11
10.2121078816
 21
8.3601763171
 31
0.0
 11
10.1924674405
 21
8.3614408225
 31
0.0
 11
10.1728220576
 21
8.3632011005
 31
0.0
 11
10.1531613472
 21
8.3654487271
 31
0.0
 11
10.1334622045
 21
8.3681757646
 31
0.0
 11
10.113695412
 21
8.3713753251
 31
0.0
 11
10.0938212283
 21
8.3750432696
 31
0.0
 11
10.0737875571
 21
8.3791798332
 31
0.0
 11
10.0535323864
 21
8.3837903149
 31
0.0
 11
10.0329903838
 21
8.3888842326
 31
0.0
  0
SPLINE
  5
44C
100
AcDbEntity
  8
0
100
AcDbSpline
 62
7
  6
CONTINUOUS
 70
0
 71
3
 72
31
 73
27
 74
25
 42
0.0000001
 43
0.0000001
 44
0.0000000001
 12
-0.41285429
 22
0.1843955388
 32
0.0
 13
-0.41285429
 23
-0.1843955388
 33
0.0
 40
0.0
 40
0.0
 40
0.0
 40
0.0
 40
0.0476058778
 40
0.0934677752
 40
0.1378271552
 40
0.1809131451
 40
0.2229255212
 40
0.2640450093
 40
0.3044257798
 40
0.3442174035
 40
0.3835519708
 40
0.4225488031
 40
0.4613299682
 40
0.5000000004
 40
0.5386700327
 40
0.5774511977
 40
0.6164480299
 40
0.6557825973
 40
0.6955742208
 40
0.7359549913
 40
0.7770744792
 40
0.8190868552
 40
0.8621728449
 40
0.9065322247
 40
0.9523941222
 40
1.0
 40
1.0
 40
1.0
 40
1.0
 10
10.4698002738
 20
8.7623205667
 30
0.0
 10
10.4632488436
 20
8.7652466706
 30
0.0
 10
10.4503081377
 20
8.7708196061
 30
0.0
 10
10.4309976488
 20
8.7784850183
 30
0.0
 10
10.4121047952
 20
8.7853322307
 30
0.0
 10
10.3935563274
 20
8.7913987529
 30
0.0
 10
10.3752863863
 20
8.7967133524
 30
0.0
 10
10.3572394865
 20
8.801296265
 30
0.0
 10
10.3393674644
 20
8.8051614323
 30
0.0
 10
10.3216297032
 20
8.8083176134
 30
0.0
 10
10.3039914006
 20
8.8107698503
 30
0.0
 10
10.2864226337
 20
8.8125206845
 30
0.0
 10
10.2688983516
 20
8.8135710213
 30
0.0
 10
10.2513953286
 20
8.8139211209
 30
0.0
 10
10.2338923057
 20
8.8135710213
 30
0.0
 10
10.2163680236
 20
8.8125206845
 30
0.0
 10
10.1987992568
 20
8.8107698502
 30
0.0
 10
10.1811609542
 20
8.8083176134
 30
0.0
 10
10.163423193
 20
8.8051614323
 30
0.0
 10
10.145551171
 20
8.801296265
 30
0.0
 10
10.1275042712
 20
8.7967133523
 30
0.0
 10
10.1092343301
 20
8.7913987528
 30
0.0
 10
10.0906858624
 20
8.7853322306
 30
0.0
 10
10.0717930089
 20
8.7784850183
 30
0.0
 10
10.05248252
 20
8.7708196061
 30
0.0
 10
10.0395418141
 20
8.7652466706
 30
0.0
 10
10.0329903838
 20
8.7623205667
 30
0.0
 11
10.4698002738
 21
8.7623205667
 31
0.0
 11
10.4500265391
 21
8.7708264068
 31
0.0
 11
10.4307494267
 21
8.7784694565
 31
0.0
 11
10.4118893548
 21
8.7852963052
 31
0.0
 11
10.3933704103
 21
8.7913453459
 31
0.0
 11
10.3751281699
 21
8.7966447526
 31
0.0
 11
10.3571059608
 21
8.8012150039
 31
0.0
 11
10.3392587447
 21
8.8050692252
 31
0.0
 11
10.321543916
 21
8.8082166238
 31
0.0
 11
10.3039272495
 21
8.8106621018
 31
0.0
 11
10.2863810106
 21
8.8124079582
 31
0.0
 11
10.2688769581
 21
8.8134554193
 31
0.0
 11
10.2513953287
 21
8.8138045327
 31
0.0
 11
10.2339136992
 21
8.8134554192
 31
0.0
 11
10.2164096467
 21
8.8124079582
 31
0.0
 11
10.1988634079
 21
8.8106621018
 31
0.0
 11
10.1812467414
 21
8.8082166237
 31
0.0
 11
10.1635319127
 21
8.8050692251
 31
0.0
 11
10.1456846966
 21
8.8012150038
 31
0.0
 11
10.1276624876
 21
8.7966447525
 31
0.0
 11
10.1094202473
 21
8.7913453459
 31
0.0
 11
10.0909013028
 21
8.7852963051
 31
0.0
 11
10.072041231
 21
8.7784694565
 31
0.0
 11
10.0527641186
 21
8.7708264068
 31
0.0
 11
10.0329903838
 21
8.7623205667
 31
0.0
  0
SPLINE
  5
44D
100
AcDbEntity
  8
0
100
AcDbSpline
 62
7
  6
CONTINUOUS
 70
0
 71
3
 72
29
 73
25
 74
23
 42
0.0000001
 43
0.0000001
 44
0.0000000001
 12
-0.2031214553
 22
-0.1047559684
 32
0.0
 13
-0.2031214553
 23
0.1047559684
 33
0.0
 40
0.0
 40
0.0
 40
0.0
 40
0.0
 40
0.0501645929
 40
0.0988539942
 40
0.1462731912
 40
0.1926207403
 40
0.2380755107
 40
0.2827939832
 40
0.3269170129
 40
0.3705812167
 40
0.4139046868
 40
0.4570078763
 40
0.5000000002
 40
0.5429921242
 40
0.5860953137
 40
0.6294187838
 40
0.6730829876
 40
0.7172060173
 40
0.7619244898
 40
0.8073792601
 40
0.853726809
 40
0.9011460059
 40
0.949835407
 40
1.0
 40
1.0
 40
1.0
 40
1.0
 10
9.9816978013
 20
8.3888842326
 30
0.0
 10
9.9783012996
 20
8.3871325524
 30
0.0
 10
9.9715551262
 20
8.3837821784
 30
0.0
 10
9.9614139896
 20
8.3791587022
 30
0.0
 10
9.9513832219
 20
8.3750097889
 30
0.0
 10
9.9414328398
 20
8.3713306542
 30
0.0
 10
9.9315369481
 20
8.3681211713
 30
0.0
 10
9.9216752006
 20
8.3653854188
 30
0.0
 10
9.9118321723
 20
8.3631302275
 30
0.0
 10
9.9019974406
 20
8.3613639515
 30
0.0
 10
9.8921643681
 20
8.3600949232
 30
0.0
 10
9.8823304542
 20
8.3593303109
 30
0.0
 10
9.8724953288
 20
8.3590748809
 30
0.0
 10
9.8626602033
 20
8.3593303109
 30
0.0
 10
9.8528262894
 20
8.3600949232
 30
0.0
 10
9.842993217
 20
8.3613639515
 30
0.0
 10
9.8331584853
 20
8.3631302275
 30
0.0
 10
9.823315457
 20
8.3653854189
 30
0.0
 10
9.8134537094
 20
8.3681211714
 30
0.0
 10
9.8035578178
 20
8.3713306542
 30
0.0
 10
9.7936074357
 20
8.3750097889
 30
0.0
 10
9.783576668
 20
8.3791587022
 30
0.0
 10
9.7734355314
 20
8.3837821784
 30
0.0
 10
9.7666893581
 20
8.3871325524
 30
0.0
 10
9.7632928563
 20
8.3888842326
 30
0.0
 11
9.9816978013
 21
8.3888842326
 31
0.0
 11
9.9714268001
 21
8.3837903149
 31
0.0
 11
9.9612992147
 21
8.3791798332
 31
0.0
 11
9.951282379
 21
8.3750432696
 31
0.0
 11
9.9413452872
 21
8.3713753251
 31
0.0
 11
9.9314618909
 21
8.3681757646
 31
0.0
 11
9.9216123195
 21
8.365448727
 31
0.0
 11
9.9117819644
 21
8.3632011005
 31
0.0
 11
9.9019592729
 21
8.3614408225
 31
0.0
 11
9.8921390523
 21
8.3601763171
 31
0.0
 11
9.8823176035
 21
8.3594144469
 31
0.0
 11
9.8724953288
 21
8.359159951
 31
0.0
 11
9.8626730541
 21
8.3594144469
 31
0.0
 11
9.8528516052
 21
8.3601763171
 31
0.0
 11
9.8430313847
 21
8.3614408225
 31
0.0
 11
9.8332086932
 21
8.3632011005
 31
0.0
 11
9.823378338
 21
8.3654487271
 31
0.0
 11
9.8135287667
 21
8.3681757646
 31
0.0
 11
9.8036453704
 21
8.3713753251
 31
0.0
 11
9.7937082786
 21
8.3750432696
 31
0.0
 11
9.783691443
 21
8.3791798332
 31
0.0
 11
9.7735638576
 21
8.3837903149
 31
0.0
 11
9.7632928563
 21
8.3888842326
 31
0.0
  0
SPLINE
  5
44E
100
AcDbEntity
  8
0
100
AcDbSpline
 62
7
  6
CONTINUOUS
 70
0
 71
3
 72
31
 73
27
 74
25
 42
0.0000001
 43
0.0000001
 44
0.0000000001
 12
-0.1841599752
 22
0.164504905
 32
0.0
 13
-0.1841599752
 23
-0.164504905
 33
0.0
 40
0.0
 40
0.0
 40
0.0
 40
0.0
 40
0.052816461
 40
0.1026317996
 40
0.1497770398
 40
0.194567141
 40
0.2372863838
 40
0.2782033548
 40
0.3175675253
 40
0.3556342449
 40
0.3926541658
 40
0.4288789048
 40
0.46457451
 40
0.5000000004
 40
0.5354254908
 40
0.5711210959
 40
0.6073458349
 40
0.6443657558
 40
0.6824324752
 40
0.7217966458
 40
0.7627136166
 40
0.8054328592
 40
0.8502229603
 40
0.8973682004
 40
0.947183539
 40
1.0
 40
1.0
 40
1.0
 40
1.0
 10
9.9816978013
 20
8.7623205667
 30
0.0
 10
9.9784555753
 20
8.7652167557
 30
0.0
 10
9.9720550924
 20
8.7707339469
 30
0.0
 10
9.9624003807
 20
8.778406015
 30
0.0
 10
9.9529535217
 20
8.7852608089
 30
0.0
 10
9.9436775701
 20
8.7913358232
 30
0.0
 10
9.9345391066
 20
8.7966598077
 30
0.0
 10
9.9255098863
 20
8.801252821
 30
0.0
 10
9.916565385
 20
8.8051284304
 30
0.0
 10
9.9076849944
 20
8.8082948203
 30
0.0
 10
9.8988512285
 20
8.810756292
 30
0.0
 10
9.8900494069
 20
8.8125145485
 30
0.0
 10
9.8812676482
 20
8.8135697167
 30
0.0
 10
9.8724953287
 20
8.8139214948
 30
0.0
 10
9.8637230093
 20
8.8135697167
 30
0.0
 10
9.8549412506
 20
8.8125145485
 30
0.0
 10
9.8461394291
 20
8.8107562919
 30
0.0
 10
9.8373056631
 20
8.8082948202
 30
0.0
 10
9.8284252726
 20
8.8051284303
 30
0.0
 10
9.8194807712
 20
8.801252821
 30
0.0
 10
9.810451551
 20
8.7966598077
 30
0.0
 10
9.8013130875
 20
8.7913358231
 30
0.0
 10
9.792037136
 20
8.7852608088
 30
0.0
 10
9.782590277
 20
8.778406015
 30
0.0
 10
9.7729355653
 20
8.7707339469
 30
0.0
 10
9.7665350824
 20
8.7652167557
 30
0.0
 10
9.7632928563
 20
8.7623205667
 30
0.0
 11
9.9816978013
 21
8.7623205667
 31
0.0
 11
9.971810934
 21
8.7708264068
 31
0.0
 11
9.9621723778
 21
8.7784694565
 31
0.0
 11
9.9527423418
 21
8.7852963052
 31
0.0
 11
9.9434828696
 21
8.7913453459
 31
0.0
 11
9.9343617494
 21
8.7966447526
 31
0.0
 11
9.9253506448
 21
8.8012150039
 31
0.0
 11
9.9164270368
 21
8.8050692252
 31
0.0
 11
9.9075696224
 21
8.8082166238
 31
0.0
 11
9.8987612892
 21
8.8106621018
 31
0.0
 11
9.8899881697
 21
8.8124079582
 31
0.0
 11
9.8812361435
 21
8.8134554193
 31
0.0
 11
9.8724953287
 21
8.8138045327
 31
0.0
 11
9.863754514
 21
8.8134554192
 31
0.0
 11
9.8550024878
 21
8.8124079582
 31
0.0
 11
9.8462293683
 21
8.8106621018
 31
0.0
 11
9.8374210351
 21
8.8082166237
 31
0.0
 11
9.8285636208
 21
8.8050692251
 31
0.0
 11
9.8196400127
 21
8.8012150038
 31
0.0
 11
9.8106289082
 21
8.7966447525
 31
0.0
 11
9.8015077881
 21
8.7913453459
 31
0.0
 11
9.7922483158
 21
8.7852963051
 31
0.0
 11
9.7828182799
 21
8.7784694565
 31
0.0
 11
9.7731797237
 21
8.7708264068
 31
0.0
 11
9.7632928563
 21
8.7623205667
 31
0.0
  0
SPLINE
  5
44F
100
AcDbEntity
  8
0
100
AcDbSpline
 62
7
  6
CONTINUOUS
 70
0
 71
3
 72
28
 73
24
 74
22
 42
0.0000001
 43
0.0000001
 44
0.0000000001
 12
0.0915129095
 22
-0.0322565279
 32
0.0
 13
-0.0088059783
 23
-0.0966412503
 33
0.0
 40
0.0
 40
0.0
 40
0.0
 40
0.0
 40
0.046594786
 40
0.0908416876
 40
0.1330642746
 40
0.1736930417
 40
0.2130891471
 40
0.2516373013
 40
0.2898191216
 40
0.3280638081
 40
0.3669001911
 40
0.4068597693
 40
0.4484894966
 40
0.4926041552
 40
0.5400134146
 40
0.5911347248
 40
0.6453883818
 40
0.7021558358
 40
0.7604689297
 40
0.8196444136
 40
0.8799745228
 40
0.9419456163
 40
1.0
 40
1.0
 40
1.0
 40
1.0
 10
10.2513953288
 20
11.7129625519
 30
0.0
 10
10.2528166703
 20
11.7124615565
 30
0.0
 10
10.2555758177
 20
11.7114504668
 30
0.0
 10
10.2595746821
 20
11.7098577276
 30
0.0
 10
10.2633464793
 20
11.7082211964
 30
0.0
 10
10.2669204688
 20
11.7065281366
 30
0.0
 10
10.2703260477
 20
11.7047626742
 30
0.0
 10
10.273591831
 20
11.702905383
 30
0.0
 10
10.2767452004
 20
11.700932077
 30
0.0
 10
10.2798130801
 20
11.6988115003
 30
0.0
 10
10.2828176503
 20
11.6965059197
 30
0.0
 10
10.2857758676
 20
11.6939688929
 30
0.0
 10
10.2887004745
 20
11.6911407356
 30
0.0
 10
10.2915946236
 20
11.6879468051
 30
0.0
 10
10.2944369337
 20
11.6843068167
 30
0.0
 10
10.2971561984
 20
11.6801735326
 30
0.0
 10
10.2996462831
 20
11.6755499293
 30
0.0
 10
10.3017901279
 20
11.6705012537
 30
0.0
 10
10.3034973887
 20
11.6651211501
 30
0.0
 10
10.3047191296
 20
11.6594926992
 30
0.0
 10
10.3054350837
 20
11.6536586933
 30
0.0
 10
10.3056237323
 20
11.6478210155
 30
0.0
 10
10.3054221548
 20
11.6439390051
 30
0.0
 10
10.3052517462
 20
11.6420688557
 30
0.0
 11
10.2513953288
 21
11.7129625519
 31
0.0
 11
10.2556394582
 21
11.7114042716
 31
0.0
 11
10.2596270063
 21
11.7098129747
 31
0.0
 11
10.2633842987
 21
11.7081797305
 31
0.0
 11
10.2669458972
 21
11.7064896168
 31
0.0
 11
10.270338482
 21
11.7047280556
 31
0.0
 11
10.2735886527
 21
11.7028768808
 31
0.0
 11
10.27672802
 21
11.7009096023
 31
0.0
 11
10.2797793956
 21
11.6987976945
 31
0.0
 11
10.2827676366
 21
11.6965018565
 31
0.0
 11
10.2857094216
 21
11.6939760646
 31
0.0
 11
10.2886117282
 21
11.691166563
 31
0.0
 11
10.2914845342
 21
11.6879932786
 31
0.0
 11
10.2943144332
 21
11.6843665172
 31
0.0
 11
10.2970399177
 21
11.6802219983
 31
0.0
 11
10.2995361744
 21
11.6755871676
 31
0.0
 11
10.301690388
 21
11.6705176584
 31
0.0
 11
10.303404233
 21
11.6651252574
 31
0.0
 11
10.3046254723
 21
11.6595147518
 31
0.0
 11
10.3053423294
 21
11.6537048938
 31
0.0
 11
10.3055406242
 21
11.6476950212
 31
0.0
 11
10.3052517462
 21
11.6420688557
 31
0.0
  0
SPLINE
  5
450
100
AcDbEntity
  8
0
100
AcDbSpline
 62
7
  6
CONTINUOUS
 70
0
 71
3
 72
31
 73
27
 74
25
 42
0.0000001
 43
0.0000001
 44
0.0000000001
 12
-0.0295288037
 22
0.1102029956
 32
0.0
 13
0.1035853041
 23
0.0478488184
 33
0.0
 40
0.0
 40
0.0
 40
0.0
 40
0.0
 40
0.0423738659
 40
0.0837973378
 40
0.1240410034
 40
0.1630117425
 40
0.2005503813
 40
0.2366852655
 40
0.2717110611
 40
0.305914712
 40
0.3396833126
 40
0.3733695517
 40
0.407352237
 40
0.4421594266
 40
0.4782933437
 40
0.5163727492
 40
0.5569851855
 40
0.6005588266
 40
0.6466417791
 40
0.6945555819
 40
0.7438634629
 40
0.7939499811
 40
0.8447872209
 40
0.8966597323
 40
0.9499883378
 40
1.0
 40
1.0
 40
1.0
 40
1.0
 10
10.3122413434
 20
11.7951242072
 30
0.0
 10
10.3118242602
 20
11.7966807828
 30
0.0
 10
10.3110292132
 20
11.7997670914
 30
0.0
 10
10.3099426737
 20
11.8043578689
 30
0.0
 10
10.3089792704
 20
11.808843828
 30
0.0
 10
10.3081457157
 20
11.8132054495
 30
0.0
 10
10.3074471084
 20
11.8174324836
 30
0.0
 10
10.3068858694
 20
11.8215286439
 30
0.0
 10
10.3064628553
 20
11.8255139589
 30
0.0
 10
10.3061799577
 20
11.8294215666
 30
0.0
 10
10.3060429631
 20
11.8332861883
 30
0.0
 10
10.3060628685
 20
11.837144987
 30
0.0
 10
10.3062575829
 20
11.8410387397
 30
0.0
 10
10.3066547038
 20
11.8450110252
 30
0.0
 10
10.3072952782
 20
11.8491096952
 30
0.0
 10
10.3082366854
 20
11.8533770689
 30
0.0
 10
10.3095540759
 20
11.8578407316
 30
0.0
 10
10.3113262558
 20
11.862473128
 30
0.0
 10
10.3136132111
 20
11.8671864707
 30
0.0
 10
10.3164373973
 20
11.8718569487
 30
0.0
 10
10.3197842474
 20
11.8763602453
 30
0.0
 10
10.3236214152
 20
11.8806049657
 30
0.0
 10
10.3279142336
 20
11.8845338922
 30
0.0
 10
10.3326506921
 20
11.8881228019
 30
0.0
 10
10.3376661525
 20
11.8912497563
 30
0.0
 10
10.3411708685
 20
11.8930398355
 30
0.0
 10
10.3428976929
 20
11.8938375019
 30
0.0
 11
10.3122413434
 21
11.7951242072
 31
0.0
 11
10.3110357997
 21
11.7998059419
 31
0.0
 11
10.3099485934
 21
11.8044052142
 31
0.0
 11
10.3089864106
 21
11.8088946857
 31
0.0
 11
10.3081541023
 21
11.8132622812
 31
0.0
 11
10.307458269
 21
11.8174881801
 31
0.0
 11
10.3069012159
 21
11.8215730205
 31
0.0
 11
10.3064820272
 21
11.8255470852
 31
0.0
 11
10.306202842
 21
11.8294393983
 31
0.0
 11
10.3060689504
 21
11.8332897488
 31
0.0
 11
10.306091383
 21
11.8371329644
 31
0.0
 11
10.3062876569
 21
11.841005096
 31
0.0
 11
10.3066853905
 21
11.8449562992
 31
0.0
 11
10.3073247137
 21
11.8490289623
 31
0.0
 11
10.3082633906
 21
11.8532708445
 31
0.0
 11
10.3095775983
 21
11.8577140562
 31
0.0
 11
10.3113560715
 21
11.8623563892
 31
0.0
 11
10.3136524438
 21
11.8670860122
 31
0.0
 11
10.3164810583
 21
11.8717637989
 31
0.0
 11
10.3198355759
 21
11.8762797889
 31
0.0
 11
10.3236657096
 21
11.8805205927
 31
0.0
 11
10.3279419996
 21
11.884438998
 31
0.0
 11
10.3326565991
 21
11.8880163156
 31
0.0
 11
10.3378173909
 21
11.8912388617
 31
0.0
 11
10.3428976929
 21
11.8938375019
 31
0.0
  0
SPLINE
  5
451
100
AcDbEntity
  8
0
100
AcDbSpline
 62
7
  6
CONTINUOUS
 70
0
 71
3
 72
8
 73
4
 74
2
 42
0.0000001
 43
0.0000001
 44
0.0000000001
 12
0.0004425539
 22
0.0002044275
 32
0.0
 13
0.0004438836
 23
0.0002014211
 33
0.0
 40
0.0
 40
0.0
 40
0.0
 40
0.0
 40
1.0
 40
1.0
 40
1.0
 40
1.0
 10
10.3428976929
 20
11.8938375019
 30
0.0
 10
10.3430452108
 20
11.8939056443
 30
0.0
 10
10.3431929529
 20
11.8939732859
 30
0.0
 10
10.3433409141
 20
11.8940404262
 30
0.0
 11
10.3428976929
 21
11.8938375019
 31
0.0
 11
10.3433409141
 21
11.8940404262
 31
0.0
  0
SPLINE
  5
452
100
AcDbEntity
  8
0
100
AcDbSpline
 62
7
  6
CONTINUOUS
 70
0
 71
3
 72
8
 73
4
 74
2
 42
0.0000001
 43
0.0000001
 44
0.0000000001
 12
-0.0006591199
 22
-0.0000647984
 32
0.0
 13
-0.0006597618
 23
-0.0000587614
 33
0.0
 40
0.0
 40
0.0
 40
0.0
 40
0.0
 40
1.0
 40
1.0
 40
1.0
 40
1.0
 10
10.3886599706
 20
11.7250127322
 30
0.0
 10
10.388440264
 20
11.7249911327
 30
0.0
 10
10.3882204448
 20
11.7249705365
 30
0.0
 10
10.3880005243
 20
11.7249509494
 30
0.0
 11
10.3886599706
 21
11.7250127322
 31
0.0
 11
10.3880005243
 21
11.7249509494
 31
0.0
  0
SPLINE
  5
453
100
AcDbEntity
  8
0
100
AcDbSpline
 62
7
  6
CONTINUOUS
 70
0
 71
3
 72
31
 73
27
 74
25
 42
0.0000001
 43
0.0000001
 44
0.0000000001
 12
-0.1135081145
 22
-0.010109547
 32
0.0
 13
-0.029490555
 23
0.1100602495
 33
0.0
 40
0.0
 40
0.0
 40
0.0
 40
0.0
 40
0.0482918615
 40
0.1015518707
 40
0.1533864958
 40
0.203936869
 40
0.2533117531
 40
0.3021869025
 40
0.3511953336
 40
0.3996410987
 40
0.4459723248
 40
0.489293875
 40
0.5291621105
 40
0.5664272451
 40
0.6021321768
 40
0.636767327
 40
0.6707357645
 40
0.7044735906
 40
0.7383954477
 40
0.772831885
 40
0.8080817946
 40
0.8443789873
 40
0.8818436499
 40
0.9204465901
 40
0.9599555797
 40
1.0
 40
1.0
 40
1.0
 40
1.0
 10
10.3880005243
 20
11.7249509494
 30
0.0
 10
10.3861733515
 20
11.7247882131
 30
0.0
 10
10.3823163072
 20
11.72459248
 30
0.0
 10
10.376486231
 20
11.7247846473
 30
0.0
 10
10.3706115229
 20
11.7255146061
 30
0.0
 10
10.3649732635
 20
11.726751162
 30
0.0
 10
10.3595821116
 20
11.7284744439
 30
0.0
 10
10.3544315103
 20
11.730676101
 30
0.0
 10
10.3495458314
 20
11.7333433096
 30
0.0
 10
10.3450168793
 20
11.7364094264
 30
0.0
 10
10.3409539706
 20
11.7397372817
 30
0.0
 10
10.3374165266
 20
11.7431630391
 30
0.0
 10
10.3343690162
 20
11.7465799455
 30
0.0
 10
10.3317236971
 20
11.7499549875
 30
0.0
 10
10.3293848076
 20
11.7533087897
 30
0.0
 10
10.3272814308
 20
11.7566677287
 30
0.0
 10
10.3253650406
 20
11.7600507825
 30
0.0
 10
10.3235958479
 20
11.7634823823
 30
0.0
 10
10.3219415566
 20
11.7669903053
 30
0.0
 10
10.3203770014
 20
11.7706016968
 30
0.0
 10
10.3188833607
 20
11.774340213
 30
0.0
 10
10.3174473281
 20
11.7782240148
 30
0.0
 10
10.3160615475
 20
11.7822608521
 30
0.0
 10
10.3147252515
 20
11.7864425437
 30
0.0
 10
10.3134437027
 20
11.7907436246
 30
0.0
 10
10.3126349874
 20
11.7936551076
 30
0.0
 10
10.3122413434
 20
11.7951242072
 30
0.0
 11
10.3880005243
 21
11.7249509494
 31
0.0
 11
10.3825043588
 21
11.7246750891
 31
0.0
 11
10.3764392003
 21
11.7248792035
 31
0.0
 11
10.3705785793
 21
11.7256113809
 31
0.0
 11
10.3649531624
 21
11.7268485319
 31
0.0
 11
10.3595951252
 21
11.7285638465
 31
0.0
 11
10.3544749351
 21
11.7307540681
 31
0.0
 11
10.3495736314
 21
11.7334298888
 31
0.0
 11
10.3450017247
 21
11.7365231967
 31
0.0
 11
10.3409159122
 21
11.7398661165
 31
0.0
 11
10.3373675951
 21
11.7432976303
 31
0.0
 11
10.3343414155
 21
11.7466855986
 31
0.0
 11
10.331719618
 21
11.7500255801
 31
0.0
 11
10.3293900256
 21
11.7533608781
 31
0.0
 11
10.3272931574
 21
11.7567041413
 31
0.0
 11
10.3253831661
 21
11.7600705004
 31
0.0
 11
10.3236193271
 21
11.7634861407
 31
0.0
 11
10.3219684546
 21
11.7669809945
 31
0.0
 11
10.3204064311
 21
11.77058046
 31
0.0
 11
10.3189140969
 21
11.7743093988
 31
0.0
 11
10.3174777166
 21
11.7781877581
 31
0.0
 11
10.3160898099
 21
11.7822246626
 31
0.0
 11
10.3147493827
 21
11.786413968
 31
0.0
 11
10.313462863
 21
11.7907279845
 31
0.0
 11
10.3122413434
 21
11.7951242072
 31
0.0
  0
SPLINE
  5
454
100
AcDbEntity
  8
0
100
AcDbSpline
 62
7
  6
CONTINUOUS
 70
0
 71
3
 72
8
 73
4
 74
2
 42
0.0000001
 43
0.0000001
 44
0.0000000001
 12
0.0002622116
 22
0.0005778512
 32
0.0
 13
0.0002673059
 23
0.0005755896
 33
0.0
 40
0.0
 40
0.0
 40
0.0
 40
0.0
 40
1.0
 40
1.0
 40
1.0
 40
1.0
 10
10.1361754707
 20
11.6868749844
 30
0.0
 10
10.1362628745
 20
11.6870676014
 30
0.0
 10
10.1363511277
 20
11.6872598471
 30
0.0
 10
10.1364402296
 20
11.6874517103
 30
0.0
 11
10.1361754707
 21
11.6868749844
 31
0.0
 11
10.1364402296
 21
11.6874517103
 31
0.0
  0
SPLINE
  5
455
100
AcDbEntity
  8
0
100
AcDbSpline
 62
7
  6
CONTINUOUS
 70
0
 71
3
 72
31
 73
27
 74
25
 42
0.0000001
 43
0.0000001
 44
0.0000000001
 12
0.0479990893
 22
0.1033563849
 32
0.0
 13
0.1100608115
 23
-0.0294907056
 33
0.0
 40
0.0
 40
0.0
 40
0.0
 40
0.0
 40
0.0486151741
 40
0.1020734574
 40
0.1541105709
 40
0.2048695479
 40
0.2545473319
 40
0.3035688338
 40
0.352374485
 40
0.39968041
 40
0.4437543474
 40
0.4842840229
 40
0.5221834123
 40
0.5581659294
 40
0.5928412912
 40
0.6267321435
 40
0.6602869048
 40
0.6939345972
 40
0.7280506431
 40
0.7630018528
 40
0.7990901205
 40
0.8365751055
 40
0.8756088696
 40
0.9160509428
 40
0.9576246044
 40
1.0
 40
1.0
 40
1.0
 40
1.0
 10
10.1364402296
 20
11.6874517103
 30
0.0
 10
10.1372180577
 20
11.6891266065
 30
0.0
 10
10.1389870223
 20
11.6925820595
 30
0.0
 10
10.1420865976
 20
11.6975562312
 30
0.0
 10
10.1456753464
 20
11.7022935444
 30
0.0
 10
10.1495902483
 20
11.7065723354
 30
0.0
 10
10.1538047227
 20
11.7103878296
 30
0.0
 10
10.1583028474
 20
11.7137417768
 30
0.0
 10
10.1630239004
 20
11.7166037099
 30
0.0
 10
10.1678229721
 20
11.7189272039
 30
0.0
 10
10.172511953
 20
11.7207083836
 30
0.0
 10
10.1769817901
 20
11.7220153149
 30
0.0
 10
10.1812301755
 20
11.7229432765
 30
0.0
 10
10.1853071464
 20
11.723573764
 30
0.0
 10
10.1892605754
 20
11.723964177
 30
0.0
 10
10.1931359845
 20
11.7241544896
 30
0.0
 10
10.1969767229
 20
11.7241719161
 30
0.0
 10
10.2008233886
 20
11.7240341405
 30
0.0
 10
10.2047151708
 20
11.7237516888
 30
0.0
 10
10.2086874325
 20
11.723329881
 30
0.0
 10
10.2127717502
 20
11.7227704537
 30
0.0
 10
10.2169920079
 20
11.7220734359
 30
0.0
 10
10.2213558548
 20
11.721239996
 30
0.0
 10
10.2258513739
 20
11.7202748237
 30
0.0
 10
10.2304491679
 20
11.7191866078
 30
0.0
 10
10.2335370649
 20
11.7183911123
 30
0.0
 10
10.2350916884
 20
11.7179745522
 30
0.0
 11
10.1364402296
 21
11.6874517103
 31
0.0
 11
10.1389675132
 21
11.6923816172
 31
0.0
 11
10.1421925121
 21
11.6975490425
 31
0.0
 11
10.1457760503
 21
11.7022728803
 31
0.0
 11
10.1496827166
 21
11.706537682
 31
0.0
 11
10.1538806481
 21
11.7103347983
 31
0.0
 11
10.1583594042
 21
11.713672536
 31
0.0
 11
10.163114931
 21
11.7165553404
 31
0.0
 11
10.1679657753
 21
11.7189055555
 31
0.0
 11
10.1726595377
 21
11.720691162
 31
0.0
 11
10.1770912701
 21
11.7219898039
 31
0.0
 11
10.1813095865
 21
11.7229140532
 31
0.0
 11
10.1853609706
 21
11.7235433588
 31
0.0
 11
10.189292608
 21
11.7239343025
 31
0.0
 11
10.1931494681
 21
11.7241263147
 31
0.0
 11
10.1969727577
 21
11.7241462292
 31
0.0
 11
10.2008043219
 21
11.7240115533
 31
0.0
 11
10.2046816054
 21
11.7237327283
 31
0.0
 11
10.2086420706
 21
11.7233147773
 31
0.0
 11
10.2127164013
 21
11.7227593329
 31
0.0
 11
10.2169308888
 21
11.7220658351
 31
0.0
 11
10.2213000038
 21
11.7212337826
 31
0.0
 11
10.22580585
 21
11.7202683918
 31
0.0
 11
10.2304158402
 21
11.7191786418
 31
0.0
 11
10.2350916884
 21
11.7179745522
 31
0.0
  0
SPLINE
  5
456
100
AcDbEntity
  8
0
100
AcDbSpline
 62
7
  6
CONTINUOUS
 70
0
 71
3
 72
31
 73
27
 74
25
 42
0.0000001
 43
0.0000001
 44
0.0000000001
 12
-0.0806743923
 22
-0.0806743923
 32
0.0
 13
-0.0932311462
 23
0.0657832473
 33
0.0
 40
0.0
 40
0.0
 40
0.0
 40
0.0
 40
0.0441000042
 40
0.0871969318
 40
0.1289312066
 40
0.1690584876
 40
0.207357634
 40
0.2440018732
 40
0.279264528
 40
0.3135057863
 40
0.3470676345
 40
0.3803614545
 40
0.4137719245
 40
0.4477658224
 40
0.4827970021
 40
0.5194731719
 40
0.5584620136
 40
0.6005389401
 40
0.6461361996
 40
0.6942044557
 40
0.7435244763
 40
0.7933831943
 40
0.8441901532
 40
0.8963605281
 40
0.9499773192
 40
1.0
 40
1.0
 40
1.0
 40
1.0
 10
10.2068529548
 20
11.8233629408
 30
0.0
 10
10.2056670411
 20
11.8221770271
 30
0.0
 10
10.2032985098
 20
11.8198557071
 30
0.0
 10
10.1997265555
 20
11.816496127
 30
0.0
 10
10.1961943108
 20
11.8133164038
 30
0.0
 10
10.1927257078
 20
11.8103405511
 30
0.0
 10
10.1893303704
 20
11.8075787851
 30
0.0
 10
10.1860036592
 20
11.8050284573
 30
0.0
 10
10.1827234411
 20
11.8026742778
 30
0.0
 10
10.17946144
 20
11.8004995623
 30
0.0
 10
10.1761835944
 20
11.7984882521
 30
0.0
 10
10.1728532711
 20
11.7966286902
 30
0.0
 10
10.1694277605
 20
11.7949133614
 30
0.0
 10
10.1658609214
 20
11.7933425948
 30
0.0
 10
10.1620971444
 20
11.7919245822
 30
0.0
 10
10.1580724618
 20
11.7906802759
 30
0.0
 10
10.1537114062
 20
11.7896481314
 30
0.0
 10
10.148948426
 20
11.7888950696
 30
0.0
 10
10.1437928251
 20
11.7885213255
 30
0.0
 10
10.1383479591
 20
11.7886270605
 30
0.0
 10
10.1327764263
 20
11.7892698503
 30
0.0
 10
10.1271899954
 20
11.7904637479
 30
0.0
 10
10.1216376985
 20
11.7922114676
 30
0.0
 10
10.1161399389
 20
11.7945228423
 30
0.0
 10
10.1109033125
 20
11.7973122828
 30
0.0
 10
10.1075911146
 20
11.7994585874
 30
0.0
 10
10.1060365573
 20
11.8005554722
 30
0.0
 11
10.2068529548
 21
11.8233629408
 31
0.0
 11
10.2032591896
 21
11.8198415924
 31
0.0
 11
10.1996764774
 21
11.8164739959
 31
0.0
 11
10.1961361401
 21
11.8132899935
 31
0.0
 11
10.1926597926
 21
11.8103109827
 31
0.0
 11
10.1892682355
 21
11.8075558821
 31
0.0
 11
10.185948584
 21
11.8050144726
 31
0.0
 11
10.1826785055
 21
11.8026709104
 31
0.0
 11
10.1794265683
 21
11.8005060706
 31
0.0
 11
10.1761615598
 21
11.7985056414
 31
0.0
 11
10.1728438055
 21
11.7966559781
 31
0.0
 11
10.1694343136
 21
11.7949514555
 31
0.0
 11
10.1658838582
 21
11.7933906261
 31
0.0
 11
10.1621428795
 21
11.7919838651
 31
0.0
 11
10.1581444359
 21
11.790750264
 31
0.0
 11
10.1538152015
 21
11.7897280965
 31
0.0
 11
10.1490731859
 21
11.788980459
 31
0.0
 11
10.1438844761
 21
11.7886056596
 31
0.0
 11
10.1384013636
 21
11.7887121602
 31
0.0
 11
10.1328113187
 21
11.7893556623
 31
0.0
 11
10.1272479829
 21
11.7905420178
 31
0.0
 11
10.121717814
 21
11.7922792256
 31
0.0
 11
10.1162292937
 21
11.7945823462
 31
0.0
 11
10.1108282922
 21
11.7974544741
 31
0.0
 11
10.1060365573
 21
11.8005554722
 31
0.0
  0
SPLINE
  5
457
100
AcDbEntity
  8
0
100
AcDbSpline
 62
7
  6
CONTINUOUS
 70
0
 71
3
 72
8
 73
4
 74
2
 42
0.0000001
 43
0.0000001
 44
0.0000000001
 12
-0.00006141
 22
0.0000433305
 32
0.0
 13
-0.0000613641
 23
0.0000433939
 33
0.0
 40
0.0
 40
0.0
 40
0.0
 40
0.0
 40
1.0
 40
1.0
 40
1.0
 40
1.0
 10
10.1060365573
 20
11.8005554722
 30
0.0
 10
10.1060160873
 20
11.8005699157
 30
0.0
 10
10.1059956249
 20
11.8005843698
 30
0.0
 10
10.1059751702
 20
11.8005988344
 30
0.0
 11
10.1060365573
 21
11.8005554722
 31
0.0
 11
10.1059751702
 21
11.8005988344
 31
0.0
  0
SPLINE
  5
458
100
AcDbEntity
  8
0
100
AcDbSpline
 62
7
  6
CONTINUOUS
 70
0
 71
3
 72
8
 73
4
 74
2
 42
0.0000001
 43
0.0000001
 44
0.0000000001
 12
0.0002999196
 22
-0.0004177961
 32
0.0
 13
0.0002969692
 23
-0.0004199575
 33
0.0
 40
0.0
 40
0.0
 40
0.0
 40
0.0
 40
1.0
 40
1.0
 40
1.0
 40
1.0
 10
10.229318956
 20
11.9246591205
 30
0.0
 10
10.2294189292
 20
11.9245198551
 30
0.0
 10
10.2295184131
 20
11.924380228
 30
0.0
 10
10.2296174029
 20
11.9242402421
 30
0.0
 11
10.229318956
 21
11.9246591205
 31
0.0
 11
10.2296174029
 21
11.9242402421
 31
0.0
  0
SPLINE
  5
459
100
AcDbEntity
  8
0
100
AcDbSpline
 62
7
  6
CONTINUOUS
 70
0
 71
3
 72
8
 73
4
 74
2
 42
0.0000001
 43
0.0000001
 44
0.0000000001
 12
0.0001279733
 22
-0.0001809728
 32
0.0
 13
0.0001274215
 23
-0.0001813717
 33
0.0
 40
0.0
 40
0.0
 40
0.0
 40
0.0
 40
1.0
 40
1.0
 40
1.0
 40
1.0
 10
10.2296174029
 20
11.9242402421
 30
0.0
 10
10.2296600607
 20
11.9241799179
 30
0.0
 10
10.2297026267
 20
11.924119527
 30
0.0
 10
10.2297451005
 20
11.9240590697
 30
0.0
 11
10.2296174029
 21
11.9242402421
 31
0.0
 11
10.2297451005
 21
11.9240590697
 31
0.0
  0
SPLINE
  5
45A
100
AcDbEntity
  8
0
100
AcDbSpline
 62
7
  6
CONTINUOUS
 70
0
 71
3
 72
31
 73
27
 74
25
 42
0.0000001
 43
0.0000001
 44
0.0000000001
 12
0.0655098653
 22
-0.0932467292
 32
0.0
 13
-0.0805701763
 23
-0.0805701763
 33
0.0
 40
0.0
 40
0.0
 40
0.0
 40
0.0
 40
0.0487600223
 40
0.1021428068
 40
0.1540747688
 40
0.204963847
 40
0.2550923659
 40
0.3044273829
 40
0.3523920424
 40
0.3985912016
 40
0.4423670439
 40
0.4832423086
 40
0.5215993646
 40
0.5579771983
 40
0.592988695
 40
0.6271247429
 40
0.660884903
 40
0.6947153516
 40
0.7289444601
 40
0.7639533292
 40
0.8000419846
 40
0.8374810327
 40
0.8763724308
 40
0.916530488
 40
0.9578216923
 40
1.0
 40
1.0
 40
1.0
 40
1.0
 10
10.2297451005
 20
11.9240590697
 30
0.0
 10
10.2308098546
 20
11.9225434989
 30
0.0
 10
10.2329189636
 20
11.9192813183
 30
0.0
 10
10.2356753443
 20
11.9141106391
 30
0.0
 10
10.2379826745
 20
11.9086357652
 30
0.0
 10
10.2397359515
 20
11.9030885814
 30
0.0
 10
10.2409368651
 20
11.8974968498
 30
0.0
 10
10.2415844743
 20
11.8919262503
 30
0.0
 10
10.2416964121
 20
11.8864690869
 30
0.0
 10
10.241320829
 20
11.8812363709
 30
0.0
 10
10.2405369105
 20
11.8763229581
 30
0.0
 10
10.2394392714
 20
11.8717773192
 30
0.0
 10
10.2381106774
 20
11.86758879
 30
0.0
 10
10.2366042277
 20
11.8636996775
 30
0.0
 10
10.234950377
 20
11.8600468228
 30
0.0
 10
10.2331625
 20
11.8565695341
 30
0.0
 10
10.2312431663
 20
11.8532149464
 30
0.0
 10
10.2291878148
 20
11.8499380007
 30
0.0
 10
10.2269869932
 20
11.8466996157
 30
0.0
 10
10.2246290292
 20
11.8434671595
 30
0.0
 10
10.222099637
 20
11.8402113072
 30
0.0
 10
10.2193882665
 20
11.8369122379
 30
0.0
 10
10.2164945962
 20
11.8335647988
 30
0.0
 10
10.2134279148
 20
11.8301751351
 30
0.0
 10
10.2102059402
 20
11.8267590593
 30
0.0
 10
10.207985726
 20
11.824495712
 30
0.0
 10
10.2068529548
 20
11.8233629408
 30
0.0
 11
10.2297451005
 21
11.9240590697
 31
0.0
 11
10.2327592958
 21
11.9193912006
 31
0.0
 11
10.2356169126
 21
11.914021632
 31
0.0
 11
10.237911308
 21
11.9085672519
 31
0.0
 11
10.2396555641
 21
11.9030373424
 31
0.0
 11
10.2408523882
 21
11.8974523222
 31
0.0
 11
10.2415001237
 21
11.8918683637
 31
0.0
 11
10.2416122073
 21
11.8864042551
 31
0.0
 11
10.2412367046
 21
11.881153574
 31
0.0
 11
10.2404531511
 21
11.8762275323
 31
0.0
 11
10.2393626337
 21
11.8716995326
 31
0.0
 11
10.2380439403
 21
11.8675326847
 31
0.0
 11
10.2365494013
 21
11.8636664842
 31
0.0
 11
10.2349065012
 21
11.8600311528
 31
0.0
 11
10.2331303293
 21
11.8565708009
 31
0.0
 11
10.2312222571
 21
11.8532306309
 31
0.0
 11
10.2291762406
 21
11.8499636794
 31
0.0
 11
10.2269861438
 21
11.8467364673
 31
0.0
 11
10.2246373886
 21
11.8435122285
 31
0.0
 11
10.2221166907
 21
11.8402633574
 31
0.0
 11
10.219410029
 21
11.8369660594
 31
0.0
 11
10.2165137671
 21
11.8336120848
 31
0.0
 11
10.2134453349
 21
11.8302176504
 31
0.0
 11
10.2102180877
 21
11.8267941144
 31
0.0
 11
10.2068529548
 21
11.8233629408
 31
0.0
  0
SPLINE
  5
45B
100
AcDbEntity
  8
0
100
AcDbSpline
 62
7
  6
CONTINUOUS
 70
0
 71
3
 72
12
 73
8
 74
6
 42
0.0000001
 43
0.0000001
 44
0.0000000001
 12
0.0164792835
 22
-0.0044156107
 32
0.0
 13
0.0160903144
 23
-0.0056715241
 33
0.0
 40
0.0
 40
0.0
 40
0.0
 40
0.0
 40
0.2034520541
 40
0.4056997158
 40
0.6062254963
 40
0.8044660003
 40
1.0
 40
1.0
 40
1.0
 40
1.0
 10
10.2350916884
 20
11.7179745522
 30
0.0
 10
10.2362092697
 20
11.7176750972
 30
0.0
 10
10.2384336897
 20
11.7170624294
 30
0.0
 10
10.2417443118
 20
11.7161001499
 30
0.0
 10
10.2450121743
 20
11.7150981814
 30
0.0
 10
10.2482277665
 20
11.7140573578
 30
0.0
 10
10.2503465943
 20
11.7133322105
 30
0.0
 10
10.2513953288
 20
11.7129625519
 30
0.0
 11
10.2350916884
 21
11.7179745522
 31
0.0
 11
10.2384380607
 21
11.7170527362
 31
0.0
 11
10.2417512989
 21
11.7160893125
 31
0.0
 11
10.2450219248
 21
11.7150858798
 31
0.0
 11
10.2482394261
 21
11.714043617
 31
0.0
 11
10.2513953288
 21
11.7129625519
 31
0.0
  0
SPLINE
  5
45C
100
AcDbEntity
  8
0
100
AcDbSpline
 62
7
  6
CONTINUOUS
 70
0
 71
3
 72
18
 73
14
 74
12
 42
0.0000001
 43
0.0000001
 44
0.0000000001
 12
-0.1346809099
 22
0.0448936366
 32
0.0
 13
-0.1419649948
 23
0.0005712803
 33
0.0
 40
0.0
 40
0.0
 40
0.0
 40
0.0
 40
0.0982034075
 40
0.1937413276
 40
0.2871210581
 40
0.3788283716
 40
0.4692581617
 40
0.5587492603
 40
0.6475728205
 40
0.7359365036
 40
0.8240125092
 40
0.911936962
 40
1.0
 40
1.0
 40
1.0
 40
1.0
 10
10.2513953288
 20
7.82970583
 30
0.0
 10
10.2469866207
 20
7.8311753994
 30
0.0
 10
10.2382578312
 20
7.8339827009
 30
0.0
 10
10.2252303043
 20
7.8378462558
 30
0.0
 10
10.2124094423
 20
7.8413124064
 30
0.0
 10
10.1997384483
 20
7.8443906224
 30
0.0
 10
10.1871681793
 20
7.8470844671
 30
0.0
 10
10.1746598605
 20
7.8493918649
 30
0.0
 10
10.1621842368
 20
7.8513071278
 30
0.0
 10
10.1497209476
 20
7.8528207439
 30
0.0
 10
10.1372572914
 20
7.8539278149
 30
0.0
 10
10.1247776865
 20
7.8546050156
 30
0.0
 10
10.1164500488
 20
7.8548037972
 30
0.0
 10
10.1122827593
 20
7.8548205667
 30
0.0
 11
10.2513953288
 21
7.82970583
 31
0.0
 11
10.2381218565
 21
7.833969866
 31
0.0
 11
10.225117216
 21
7.8378219261
 31
0.0
 11
10.2123187558
 21
7.8412775174
 31
0.0
 11
10.1996664164
 21
7.8443469401
 31
0.0
 11
10.1871126463
 21
7.8470332563
 31
0.0
 11
10.1746181017
 21
7.8493345419
 31
0.0
 11
10.1621536812
 21
7.8512447162
 31
0.0
 11
10.1497002981
 21
7.8527551896
 31
0.0
 11
10.1372451184
 21
7.8538569083
 31
0.0
 11
10.1247816169
 21
7.8545416233
 31
0.0
 11
10.1122827593
 21
7.8548205667
 31
0.0
  0
SPLINE
  5
45D
100
AcDbEntity
  8
0
100
AcDbSpline
 62
7
  6
CONTINUOUS
 70
0
 71
3
 72
18
 73
14
 74
12
 42
0.0000001
 43
0.0000001
 44
0.0000000001
 12
0.1418275554
 22
0.0005972556
 32
0.0
 13
0.134550626
 23
0.0448502087
 33
0.0
 40
0.0
 40
0.0
 40
0.0
 40
0.0
 40
0.0880512186
 40
0.1762351617
 40
0.2646072744
 40
0.353214502
 40
0.4422114947
 40
0.5318106465
 40
0.6222636532
 40
0.7138931527
 40
0.8070787152
 40
0.902285703
 40
1.0
 40
1.0
 40
1.0
 40
1.0
 10
10.1124199992
 20
7.6358259021
 30
0.0
 10
10.1165826955
 20
7.6358434318
 30
0.0
 10
10.1249140608
 20
7.6360394372
 30
0.0
 10
10.1374069662
 20
7.636724301
 30
0.0
 10
10.1498957513
 20
7.6378384069
 30
0.0
 10
10.1623797218
 20
7.6393608291
 30
0.0
 10
10.1748668475
 20
7.6412842655
 30
0.0
 10
10.1873760846
 20
7.6435982652
 30
0.0
 10
10.1999354208
 20
7.6462958024
 30
0.0
 10
10.2125815039
 20
7.6493732612
 30
0.0
 10
10.2253613779
 20
7.6528325205
 30
0.0
 10
10.2383295729
 20
7.6566812107
 30
0.0
 10
10.2470128222
 20
7.6594744679
 30
0.0
 10
10.2513953288
 20
7.6609353034
 30
0.0
 11
10.1124199992
 21
7.6358259021
 31
0.0
 11
10.1249050971
 21
7.6361042245
 31
0.0
 11
10.1373930374
 21
7.6367948742
 31
0.0
 11
10.1498775259
 21
7.6379045949
 31
0.0
 11
10.1623524214
 21
7.6394237804
 31
0.0
 11
10.1748281334
 21
7.641342119
 31
0.0
 11
10.1873245202
 21
7.6436501501
 31
0.0
 11
10.1998681304
 21
7.6463403258
 31
0.0
 11
10.21249629
 21
7.649409183
 31
0.0
 11
10.2252547227
 21
7.6528581775
 31
0.0
 11
10.2382010258
 21
7.6566957269
 31
0.0
 11
10.2513953288
 21
7.6609353034
 31
0.0
  0
SPLINE
  5
45E
100
AcDbEntity
  8
0
100
AcDbSpline
 62
7
  6
CONTINUOUS
 70
0
 71
3
 72
18
 73
14
 74
12
 42
0.0000001
 43
0.0000001
 44
0.0000000001
 12
0.1341086504
 22
-0.0447028835
 32
0.0
 13
0.1413608013
 23
-0.0007757435
 33
0.0
 40
0.0
 40
0.0
 40
0.0
 40
0.0
 40
0.0981960497
 40
0.1937381624
 40
0.2871295086
 40
0.3788520351
 40
0.4692983594
 40
0.5588049908
 40
0.6476404898
 40
0.7360165821
 40
0.8241043918
 40
0.9120450059
 40
1.0
 40
1.0
 40
1.0
 40
1.0
 10
9.9703700853
 20
7.6609353034
 30
0.0
 10
9.9747597319
 20
7.6594720879
 30
0.0
 10
9.9834511554
 20
7.6566763654
 30
0.0
 10
9.9964231146
 20
7.652827146
 30
0.0
 10
10.0091899652
 20
7.6493718943
 30
0.0
 10
10.0218078597
 20
7.6463012155
 30
0.0
 10
10.0343254159
 20
7.643611537
 30
0.0
 10
10.0467809959
 20
7.6413048506
 30
0.0
 10
10.0592037937
 20
7.639386722
 30
0.0
 10
10.0716142254
 20
7.6378664101
 30
0.0
 10
10.0840254614
 20
7.6367491406
 30
0.0
 10
10.0964472822
 20
7.6360569646
 30
0.0
 10
10.1047349444
 20
7.6358486527
 30
0.0
 10
10.1088794072
 20
7.6358259092
 30
0.0
 11
9.9703700853
 21
7.6609353034
 31
0.0
 11
9.9835859618
 21
7.6566890606
 31
0.0
 11
9.9965353199
 21
7.6528511949
 31
0.0
 11
10.0092800444
 21
7.6494063782
 31
0.0
 11
10.0218794786
 21
7.6463444024
 31
0.0
 11
10.0343807282
 21
7.6436621738
 31
0.0
 11
10.0468227323
 21
7.6413615412
 31
0.0
 11
10.0592342082
 21
7.6394484825
 31
0.0
 11
10.0716348531
 21
7.6379313673
 31
0.0
 11
10.084037439
 21
7.6368192049
 31
0.0
 11
10.0964493152
 21
7.6361202155
 31
0.0
 11
10.1088794072
 21
7.6358259092
 31
0.0
  0
SPLINE
  5
45F
100
AcDbEntity
  8
0
100
AcDbSpline
 62
7
  6
CONTINUOUS
 70
0
 71
3
 72
18
 73
14
 74
12
 42
0.0000001
 43
0.0000001
 44
0.0000000001
 12
-0.1412489766
 22
-0.0008272218
 32
0.0
 13
-0.1340028429
 23
-0.0446676143
 33
0.0
 40
0.0
 40
0.0
 40
0.0
 40
0.0
 40
0.0885976143
 40
0.1768666944
 40
0.2651411138
 40
0.3536701056
 40
0.4426161836
 40
0.5321548324
 40
0.6225477831
 40
0.7141182356
 40
0.8072395166
 40
0.902372792
 40
1.0
 40
1.0
 40
1.0
 40
1.0
 10
10.1087677759
 20
7.854818356
 30
0.0
 10
10.1045963351
 20
7.854793926
 30
0.0
 10
10.0962696831
 20
7.8545761748
 30
0.0
 10
10.0838035683
 20
7.8538763891
 30
0.0
 10
10.0713715066
 20
7.85274887
 30
0.0
 10
10.0589508017
 20
7.8512193645
 30
0.0
 10
10.0465252749
 20
7.8492927094
 30
0.0
 10
10.0340767844
 20
7.8469796059
 30
0.0
 10
10.021578549
 20
7.8442870172
 30
0.0
 10
10.0089937668
 20
7.8412183534
 30
0.0
 10
9.9962759579
 20
7.8377716754
 30
0.0
 10
9.9833713964
 20
7.8339394358
 30
0.0
 10
9.9747308598
 20
7.8311594215
 30
0.0
 10
9.9703700853
 20
7.82970583
 30
0.0
 11
10.1087677759
 21
7.854818356
 31
0.0
 11
10.0962569581
 21
7.8545132757
 31
0.0
 11
10.0838089518
 21
7.8538051576
 31
0.0
 11
10.0713905956
 21
7.8526837624
 31
0.0
 11
10.0589792706
 21
7.8511572852
 31
0.0
 11
10.046563364
 21
7.849235495
 31
0.0
 11
10.0341281133
 21
7.8469283824
 31
0.0
 11
10.0216455474
 21
7.8442431054
 31
0.0
 11
10.0090783176
 21
7.8411829013
 31
0.0
 11
9.9963816645
 21
7.8377463541
 31
0.0
 11
9.983498726
 21
7.8339251111
 31
0.0
 11
9.9703700853
 21
7.82970583
 31
0.0
  0
SPLINE
  5
460
100
AcDbEntity
  8
0
100
AcDbSpline
 62
7
  6
CONTINUOUS
 70
0
 71
3
 72
18
 73
14
 74
12
 42
0.0000001
 43
0.0000001
 44
0.0000000001
 12
-0.1413370876
 22
-0.0005881185
 32
0.0
 13
-0.1340852953
 23
-0.0446950984
 33
0.0
 40
0.0
 40
0.0
 40
0.0
 40
0.0
 40
0.0898313503
 40
0.1785967088
 40
0.2666055075
 40
0.3549223382
 40
0.4437215768
 40
0.5330802716
 40
0.6232916042
 40
0.7146850395
 40
0.8076238321
 40
0.9025680743
 40
1.0
 40
1.0
 40
1.0
 40
1.0
 10
10.3898800328
 20
7.8548153677
 30
0.0
 10
10.3856478657
 20
7.8547977572
 30
0.0
 10
10.3772344486
 20
7.8545740706
 30
0.0
 10
10.3646920408
 20
7.8538668033
 30
0.0
 10
10.3522519355
 20
7.852732992
 30
0.0
 10
10.339853324
 20
7.8512020807
 30
0.0
 10
10.3274457873
 20
7.8492746594
 30
0.0
 10
10.3150137236
 20
7.8469616851
 30
0.0
 10
10.3025330847
 20
7.8442705911
 30
0.0
 10
10.2899657292
 20
7.8412044642
 30
0.0
 10
10.2772653432
 20
7.8377613276
 30
0.0
 10
10.2643786313
 20
7.8339337096
 30
0.0
 10
10.2557500583
 20
7.8311574065
 30
0.0
 10
10.2513953288
 20
7.82970583
 30
0.0
 11
10.3898800328
 21
7.8548153677
 31
0.0
 11
10.3771871072
 21
7.8545094604
 31
0.0
 11
10.3646616697
 21
7.8537924012
 31
0.0
 11
10.3522735291
 21
7.8526685395
 31
0.0
 11
10.3398848416
 21
7.8511406264
 31
0.0
 11
10.3274823396
 21
7.8492173794
 31
0.0
 11
10.3150649716
 21
7.8469106505
 31
0.0
 11
10.302600294
 21
7.8442269206
 31
0.0
 11
10.2900500364
 21
7.8411691281
 31
0.0
 11
10.277370768
 21
7.8377360959
 31
0.0
 11
10.2645057055
 21
7.8339194644
 31
0.0
 11
10.2513953288
 21
7.82970583
 31
0.0
  0
SPLINE
  5
461
100
AcDbEntity
  8
0
100
AcDbSpline
 62
7
  6
CONTINUOUS
 70
0
 71
3
 72
18
 73
14
 74
12
 42
0.0000001
 43
0.0000001
 44
0.0000000001
 12
0.1346153725
 22
-0.0448717908
 32
0.0
 13
0.1418959128
 23
-0.0005710146
 33
0.0
 40
0.0
 40
0.0
 40
0.0
 40
0.0
 40
0.0982361002
 40
0.1938065857
 40
0.2872183704
 40
0.3789570958
 40
0.4694191295
 40
0.5589420119
 40
0.6477916144
 40
0.7361925536
 40
0.8243132584
 40
0.9122229524
 40
1.0
 40
1.0
 40
1.0
 40
1.0
 10
10.2513953288
 20
7.6609353034
 30
0.0
 10
10.2558033586
 20
7.6594659602
 30
0.0
 10
10.2645308344
 20
7.6566590655
 30
0.0
 10
10.2775564141
 20
7.652796012
 30
0.0
 10
10.2903753891
 20
7.6493302413
 30
0.0
 10
10.3030445729
 20
7.6462522752
 30
0.0
 10
10.3156130881
 20
7.6435585605
 30
0.0
 10
10.3281194539
 20
7.6412511995
 30
0.0
 10
10.3405933947
 20
7.6393358534
 30
0.0
 10
10.3530556318
 20
7.6378217403
 30
0.0
 10
10.3655163632
 20
7.6367150842
 30
0.0
 10
10.3779777056
 20
7.6360359043
 30
0.0
 10
10.3862871779
 20
7.6358424011
 30
0.0
 10
10.3904389127
 20
7.6358256937
 30
0.0
 11
10.2513953288
 21
7.6609353034
 31
0.0
 11
10.2646667514
 21
7.6566719006
 31
0.0
 11
10.2776694733
 21
7.6528203315
 31
0.0
 11
10.2904660636
 21
7.6493651135
 31
0.0
 11
10.3031165344
 21
7.6462959542
 31
0.0
 11
10.3156686186
 21
7.6436097489
 31
0.0
 11
10.3281614631
 21
7.6413084652
 31
0.0
 11
10.3406234129
 21
7.6393982815
 31
0.0
 11
10.3530759297
 21
7.6378874593
 31
0.0
 11
10.3655313249
 21
7.6367852459
 31
0.0
 11
10.3779866365
 21
7.6361003624
 31
0.0
 11
10.3904389127
 21
7.6358256937
 31
0.0
  0
SPLINE
  5
462
100
AcDbEntity
  8
0
100
AcDbSpline
 62
7
  6
CONTINUOUS
 70
0
 71
3
 72
18
 73
14
 74
12
 42
0.0000001
 43
0.0000001
 44
0.0000000001
 12
0.141180789
 22
0.000844223
 32
0.0
 13
0.1339382511
 23
0.0446460837
 33
0.0
 40
0.0
 40
0.0
 40
0.0
 40
0.0
 40
0.0882652535
 40
0.1764863721
 40
0.2648185394
 40
0.3533950699
 40
0.4423742709
 40
0.531953144
 40
0.6223867183
 40
0.7139965618
 40
0.8071578976
 40
0.9023318452
 40
1.0
 40
1.0
 40
1.0
 40
1.0
 10
10.3940908935
 20
7.6358266589
 30
0.0
 10
10.3982446795
 20
7.6358514975
 30
0.0
 10
10.4065494987
 20
7.6360650075
 30
0.0
 10
10.4189943795
 20
7.6367657286
 30
0.0
 10
10.4314231389
 20
7.6378925709
 30
0.0
 10
10.4438443007
 20
7.6394224202
 30
0.0
 10
10.4562694403
 20
7.6413491181
 30
0.0
 10
10.468717185
 20
7.643662199
 30
0.0
 10
10.4812149098
 20
7.6463547649
 30
0.0
 10
10.4937990998
 20
7.6494233556
 30
0.0
 10
10.5065162224
 20
7.6528698969
 30
0.0
 10
10.5194200452
 20
7.6567019468
 30
0.0
 10
10.5280600718
 20
7.6594818032
 30
0.0
 10
10.5324205724
 20
7.6609353034
 30
0.0
 11
10.3940908935
 21
7.6358266589
 31
0.0
 11
10.4065488192
 21
7.6361284627
 31
0.0
 11
10.4189840482
 21
7.6368361485
 31
0.0
 11
10.4314045285
 21
7.6379578481
 31
0.0
 11
10.4438165138
 21
7.6394845612
 31
0.0
 11
10.456231036
 21
7.641406276
 31
0.0
 11
10.4686658573
 21
7.6437134154
 31
0.0
 11
10.481147995
 21
7.6463986901
 31
0.0
 11
10.4937145543
 21
7.6494588018
 31
0.0
 11
10.5064105334
 21
7.6528952165
 31
0.0
 11
10.5192927591
 21
7.6567162781
 31
0.0
 11
10.5324205724
 21
7.6609353034
 31
0.0
  0
SPLINE
  5
463
100
AcDbEntity
  8
0
100
AcDbSpline
 62
7
  6
CONTINUOUS
 70
0
 71
3
 72
18
 73
14
 74
12
 42
0.0000001
 43
0.0000001
 44
0.0000000001
 12
-0.1341087101
 22
0.0447029034
 32
0.0
 13
-0.1413608641
 23
0.0007757439
 33
0.0
 40
0.0
 40
0.0
 40
0.0
 40
0.0
 40
0.0981357484
 40
0.1936201136
 40
0.2869561158
 40
0.3786251612
 40
0.4690167418
 40
0.5584692004
 40
0.6472601913
 40
0.7355716949
 40
0.8235807263
 40
0.9116023925
 40
1.0
 40
1.0
 40
1.0
 40
1.0
 10
10.5324205724
 20
7.82970583
 30
0.0
 10
10.5280336195
 20
7.8311681476
 30
0.0
 10
10.5193475071
 20
7.8339622237
 30
0.0
 10
10.5063834601
 20
7.8378093991
 30
0.0
 10
10.4936243157
 20
7.8412630917
 30
0.0
 10
10.4810140828
 20
7.8443326679
 30
0.0
 10
10.4685042153
 20
7.8470217145
 30
0.0
 10
10.4560559739
 20
7.8493283281
 30
0.0
 10
10.4436410144
 20
7.8512468399
 30
0.0
 10
10.4312395924
 20
7.8527678057
 30
0.0
 10
10.4188314915
 20
7.8538874477
 30
0.0
 10
10.4063888223
 20
7.8545815806
 30
0.0
 10
10.3980765712
 20
7.8547950375
 30
0.0
 10
10.3939112505
 20
7.8548178955
 30
0.0
 11
10.5324205724
 21
7.82970583
 31
0.0
 11
10.5192128349
 21
7.833949558
 31
0.0
 11
10.5062713822
 21
7.8377853898
 31
0.0
 11
10.4935343382
 21
7.8412286613
 31
0.0
 11
10.4809424207
 21
7.8442895765
 31
0.0
 11
10.4684489415
 21
7.8469711587
 31
0.0
 11
10.456014694
 21
7.849271653
 31
0.0
 11
10.4436096666
 21
7.8511852823
 31
0.0
 11
10.4312183041
 21
7.8527031274
 31
0.0
 11
10.4188270049
 21
7.853816528
 31
0.0
 11
10.4064038124
 21
7.8545184471
 31
0.0
 11
10.3939112505
 21
7.8548178955
 31
0.0
  0
ENDSEC
  0
SECTION
  2
OBJECTS
  0
DICTIONARY
  5
C
100
AcDbDictionary
280
0
281
1
  3
ACAD_GROUP
350
D
  3
ACAD_MLINESTYLE
350
17
  3
ACAD_LAYOUT
350
1A
  3
ACAD_PLOTSETTINGS
350
19
  3
ACAD_PLOTSTYLENAME
350
E
  0
DICTIONARY
  5
D
102
{ACAD_REACTORS
330
C
102
}
100
AcDbDictionary
280
0
281
1
  0
ACDBDICTIONARYWDFLT
  5
E
102
{ACAD_REACTORS
330
C
102
}
100
AcDbDictionary
281
1
  3
Normal
350
F
100
AcDbDictionaryWithDefault
340
F
  0
DICTIONARY
  5
17
102
{ACAD_REACTORS
330
C
102
}
100
AcDbDictionary
280
0
281
1
  3
Standard
350
18
  0
DICTIONARY
  5
19
102
{ACAD_REACTORS
330
C
102
}
100
AcDbDictionary
281
1
  0
DICTIONARY
  5
1A
102
{ACAD_REACTORS
330
C
102
}
100
AcDbDictionary
281
1
  3
Layout1
350
1E
  3
Model
350
22
  0
ACDBPLACEHOLDER
  5
F
102
{ACAD_REACTORS
330
E
102
}
  0
MLINESTYLE
  5
18
102
{ACAD_REACTORS
330
17
102
}
100
AcDbMlineStyle
  2
STANDARD
 70
0
  3

 62
256
 51
90.0
 52
90.0
 71
2
 49
0.5
 62
256
  6
BYLAYER
 49
-0.5
 62
256
  6
BYLAYER
  0
LAYOUT
  5
1E
102
{ACAD_REACTORS
330
1A
102
}
100
AcDbPlotSettings
  1

  2

  4

  6

 40
0.0
 41
0.0
 42
0.0
 43
0.0
 44
0.0
 45
0.0
 46
0.0
 47
0.0
 48
0.0
 49
0.0
140
0.0
141
0.0
142
1.0
143
1.0
 70
0
 72
0
 73
0
 74
0
  7

 75
0
147
1.0
148
0.0
149
0.0
100
AcDbLayout
  1
Layout1
 70
0
 71
0
 10
0.0
 20
0.0
 11
0.0
 21
0.0
 12
0.0
 22
0.0
 32
0.0
 14
0.0
 24
0.0
 34
0.0
 15
0.0
 25
0.0
 35
0.0
146
0.0
 13
0.0
 23
0.0
 33
0.0
 16
0.0
 26
0.0
 36
0.0
 17
0.0
 27
0.0
 37
0.0
 76
0
330
1B
331
0
345
0
346
0
  0
LAYOUT
  5
22
102
{ACAD_REACTORS
330
1A
102
}
100
AcDbPlotSettings
  1

  2

  4

  6

 40
0.0
 41
0.0
 42
0.0
 43
0.0
 44
0.0
 45
0.0
 46
0.0
 47
0.0
 48
0.0
 49
0.0
140
0.0
141
0.0
142
1.0
143
1.0
 70
0
 72
0
 73
0
 74
0
  7

 75
0
147
1.0
148
0.0
149
0.0
100
AcDbLayout
  1
Model
 70
0
 71
0
 10
0.0
 20
0.0
 11
0.0
 21
0.0
 12
0.0
 22
0.0
 32
0.0
 14
0.0
 24
0.0
 34
0.0
 15
0.0
 25
0.0
 35
0.0
146
0.0
 13
0.0
 23
0.0
 33
0.0
 16
0.0
 26
0.0
 36
0.0
 17
0.0
 27
0.0
 37
0.0
 76
0
330
1F
331
0
345
0
346
0
  0
ENDSEC
  0
EOF
