999
DXF file: CBCGLJNX4F_6.dxf
999
Pro/ENGINEER 2006240 by Parametric Technology Corporation
  0
SECTION
  2
HEADER
  9
$ACADVER
  1
AC1015
  9
$DWGCODEPAGE
  3
ANSI_1252
  9
$EXTMAX
 10
22.0
 20
17.0
 30
0.0
  9
$EXTMIN
 10
0.0
 20
0.0
 30
0.0
  9
$LIMMIN
 10
0.0
 20
0.0
  9
$LIMMAX
 10
22.0
 20
17.0
  9
$VIEWCTR
 10
11.0
 20
8.5
  9
$VIEWSIZE
 40
17.0
  9
$CLAYER
  8
0
  9
$LTSCALE
 40
1.21
  9
$CELTYPE
  6
BYLAYER
  9
$DIMSCALE
 40
1.0
  9
$DIMASZ
 40
0.1875
  9
$DIMEXO
 40
0.1375
  9
$DIMDLI
 40
0.836
  9
$DIMEXE
 40
0.396
  9
$DIMCEN
 40
0.198
  9
$DIMLFAC
 40
1.0
  9
$DIMBLK
  1
_CLOSED
  9
$DIMTXT
 40
0.15625
  9
$DIMTOL
 70
0
  9
$DIMLIM
 70
0
  9
$DIMTFAC
 40
1.0
  9
$PDMODE
 70
3
  9
$PDSIZE
 40
0.3125
  9
$HANDSEED
  5
537
  9
$MEASUREMENT
 70
0
  9
$INSUNITS
 70
1
  0
ENDSEC
  0
SECTION
  2
CLASSES
  0
CLASS
  1
ACDBDICTIONARYWDFLT
  2
AcDbDictionaryWithDefault
  3
AutoCAD 2000
 90
0
280
0
281
0
  0
CLASS
  1
ACDBPLACEHOLDER
  2
AcDbPlaceHolder
  3
AutoCAD 2000
 90
0
280
0
281
0
  0
CLASS
  1
LAYOUT
  2
AcDbLayout
  3
AutoCAD 2000
 90
0
280
0
281
0
  0
ENDSEC
  0
SECTION
  2
TABLES
  0
TABLE
  2
VPORT
  5
8
100
AcDbSymbolTable
 70
2
  0
VPORT
  5
1F4
100
AcDbSymbolTableRecord
100
AcDbViewportTableRecord
  2
*ACTIVE
 70
0
 10
0.0
 20
0.0
 11
1.0
 21
1.0
 12
11.0
 22
8.5
 13
0.0
 23
0.0
 14
1.0
 24
1.0
 15
0.0
 25
0.0
 16
0.0
 26
0.0
 36
1.0
 17
0.0
 27
0.0
 37
0.0
 40
17.0
 41
1.2941176471
 42
50.0
 43
0.0
 44
0.0
 50
0.0
 51
0.0
 71
0
 72
100
 73
1
 74
1
 75
0
 76
0
 77
0
 78
0
  0
ENDTAB
  0
TABLE
  2
LTYPE
  5
5
100
AcDbSymbolTable
 70
6
  0
LTYPE
  5
14
100
AcDbSymbolTableRecord
100
AcDbLinetypeTableRecord
  2
BYBLOCK
 70
0
  3

 72
65
 73
0
 40
0.0
  0
LTYPE
  5
15
100
AcDbSymbolTableRecord
100
AcDbLinetypeTableRecord
  2
BYLAYER
 70
0
  3

 72
65
 73
0
 40
0.0
  0
LTYPE
  5
16
100
AcDbSymbolTableRecord
100
AcDbLinetypeTableRecord
  2
CONTINUOUS
 70
64
  3
Solid line
 72
65
 73
0
 40
0.0
  0
LTYPE
  5
1F5
100
AcDbSymbolTableRecord
100
AcDbLinetypeTableRecord
  2
CENTER
 70
64
  3
____ _ ____ _ ____ _ ____ _ ____ _ ____ _ ____
 72
65
 73
4
 40
0.6
 49
0.375
 74
0
 49
-0.075
 74
0
 49
0.075
 74
0
 49
-0.075
 74
0
  0
LTYPE
  5
1F6
100
AcDbSymbolTableRecord
100
AcDbLinetypeTableRecord
  2
HIDDEN
 70
64
  3
- - - - - - - - - - - - - - - - - - - -
 72
65
 73
2
 40
0.2
 49
0.1
 74
0
 49
-0.1
 74
0
  0
LTYPE
  5
1F7
100
AcDbSymbolTableRecord
100
AcDbLinetypeTableRecord
  2
PHANTOM
 70
64
  3
_____ _ _ _____ _ _ _____ _ _ _____
 72
65
 73
6
 40
0.8
 49
0.45
 74
0
 49
-0.05
 74
0
 49
0.1
 74
0
 49
-0.05
 74
0
 49
0.1
 74
0
 49
-0.05
 74
0
  0
LTYPE
  5
1F8
100
AcDbSymbolTableRecord
100
AcDbLinetypeTableRecord
  2
DOT
 70
64
  3
. . . . . . . . . . . . . . . . . . . .
 72
65
 73
2
 40
0.2
 49
0.1
 74
0
 49
-0.1
 74
0
  0
LTYPE
  5
1F9
100
AcDbSymbolTableRecord
100
AcDbLinetypeTableRecord
  2
DASHED
 70
64
  3
- - - - - - - - - - - - - - - - - - - -
 72
65
 73
2
 40
0.2
 49
0.1
 74
0
 49
-0.1
 74
0
  0
ENDTAB
  0
TABLE
  2
LAYER
  5
2
100
AcDbSymbolTable
 70
36
  0
LAYER
  5
10
100
AcDbSymbolTableRecord
100
AcDbLayerTableRecord
  2
0
 70
0
 62
7
  6
CONTINUOUS
370
-3
390
F
  0
LAYER
  5
1FA
100
AcDbSymbolTableRecord
100
AcDbLayerTableRecord
  2
DEFAULT_1
 70
0
 62
7
  6
CENTER
370
-3
390
F
  0
LAYER
  5
1FB
100
AcDbSymbolTableRecord
100
AcDbLayerTableRecord
  2
DEFAULT_2
 70
0
 62
8
  6
HIDDEN
370
-3
390
F
  0
LAYER
  5
1FC
100
AcDbSymbolTableRecord
100
AcDbLayerTableRecord
  2
DEFAULT_3
 70
0
 62
7
  6
PHANTOM
370
-3
390
F
  0
LAYER
  5
1FD
100
AcDbSymbolTableRecord
100
AcDbLayerTableRecord
  2
01_ALL_DTM_PLN
 70
0
 62
7
  6
CONTINUOUS
370
-3
390
F
  0
LAYER
  5
1FE
100
AcDbSymbolTableRecord
100
AcDbLayerTableRecord
  2
01__ASM_ALL_DTM_PLN
 70
0
 62
7
  6
CONTINUOUS
370
-3
390
F
  0
LAYER
  5
1FF
100
AcDbSymbolTableRecord
100
AcDbLayerTableRecord
  2
01__ASM_DEF_DTM_PLN
 70
0
 62
7
  6
CONTINUOUS
370
-3
390
F
  0
LAYER
  5
200
100
AcDbSymbolTableRecord
100
AcDbLayerTableRecord
  2
01___PRT_ALL_DTM_PLN
 70
0
 62
7
  6
CONTINUOUS
370
-3
390
F
  0
LAYER
  5
201
100
AcDbSymbolTableRecord
100
AcDbLayerTableRecord
  2
01___PRT_DEF_DTM_PLN
 70
0
 62
7
  6
CONTINUOUS
370
-3
390
F
  0
LAYER
  5
202
100
AcDbSymbolTableRecord
100
AcDbLayerTableRecord
  2
02_ALL_AXES
 70
0
 62
7
  6
CONTINUOUS
370
-3
390
F
  0
LAYER
  5
203
100
AcDbSymbolTableRecord
100
AcDbLayerTableRecord
  2
02__ASM_ALL_AXES
 70
0
 62
7
  6
CONTINUOUS
370
-3
390
F
  0
LAYER
  5
204
100
AcDbSymbolTableRecord
100
AcDbLayerTableRecord
  2
02___PRT_ALL_AXES
 70
0
 62
7
  6
CONTINUOUS
370
-3
390
F
  0
LAYER
  5
205
100
AcDbSymbolTableRecord
100
AcDbLayerTableRecord
  2
03_ALL_CURVES
 70
0
 62
7
  6
CONTINUOUS
370
-3
390
F
  0
LAYER
  5
206
100
AcDbSymbolTableRecord
100
AcDbLayerTableRecord
  2
03__ASM_ALL_CURVES
 70
0
 62
7
  6
CONTINUOUS
370
-3
390
F
  0
LAYER
  5
207
100
AcDbSymbolTableRecord
100
AcDbLayerTableRecord
  2
03___PRT_ALL_CURVES
 70
0
 62
7
  6
CONTINUOUS
370
-3
390
F
  0
LAYER
  5
208
100
AcDbSymbolTableRecord
100
AcDbLayerTableRecord
  2
04_ALL_DTM_PNT
 70
0
 62
7
  6
CONTINUOUS
370
-3
390
F
  0
LAYER
  5
209
100
AcDbSymbolTableRecord
100
AcDbLayerTableRecord
  2
04__ASM_ALL_DTM_PNT
 70
0
 62
7
  6
CONTINUOUS
370
-3
390
F
  0
LAYER
  5
20A
100
AcDbSymbolTableRecord
100
AcDbLayerTableRecord
  2
04___PRT_ALL_DTM_PNT
 70
0
 62
7
  6
CONTINUOUS
370
-3
390
F
  0
LAYER
  5
20B
100
AcDbSymbolTableRecord
100
AcDbLayerTableRecord
  2
05_ALL_DTM_CSYS
 70
0
 62
7
  6
CONTINUOUS
370
-3
390
F
  0
LAYER
  5
20C
100
AcDbSymbolTableRecord
100
AcDbLayerTableRecord
  2
05__ASM_ALL_DTM_CSYS
 70
0
 62
7
  6
CONTINUOUS
370
-3
390
F
  0
LAYER
  5
20D
100
AcDbSymbolTableRecord
100
AcDbLayerTableRecord
  2
05__ASM_DEF_DTM_CSYS
 70
0
 62
7
  6
CONTINUOUS
370
-3
390
F
  0
LAYER
  5
20E
100
AcDbSymbolTableRecord
100
AcDbLayerTableRecord
  2
05___PRT_ALL_DTM_CSYS
 70
0
 62
7
  6
CONTINUOUS
370
-3
390
F
  0
LAYER
  5
20F
100
AcDbSymbolTableRecord
100
AcDbLayerTableRecord
  2
05___PRT_DEF_DTM_CSYS
 70
0
 62
7
  6
CONTINUOUS
370
-3
390
F
  0
LAYER
  5
210
100
AcDbSymbolTableRecord
100
AcDbLayerTableRecord
  2
06_ALL_SURFS
 70
0
 62
7
  6
CONTINUOUS
370
-3
390
F
  0
LAYER
  5
211
100
AcDbSymbolTableRecord
100
AcDbLayerTableRecord
  2
06__ASM_ALL_SURFS
 70
0
 62
7
  6
CONTINUOUS
370
-3
390
F
  0
LAYER
  5
212
100
AcDbSymbolTableRecord
100
AcDbLayerTableRecord
  2
06___PRT_ALL_SURFS
 70
0
 62
7
  6
CONTINUOUS
370
-3
390
F
  0
LAYER
  5
213
100
AcDbSymbolTableRecord
100
AcDbLayerTableRecord
  2
07__ASM_ALL_SKELETONS
 70
0
 62
7
  6
CONTINUOUS
370
-3
390
F
  0
LAYER
  5
214
100
AcDbSymbolTableRecord
100
AcDbLayerTableRecord
  2
CBCGLJNX4F_10
 70
0
 62
7
  6
CONTINUOUS
370
-3
390
F
  0
LAYER
  5
215
100
AcDbSymbolTableRecord
100
AcDbLayerTableRecord
  2
CBCGLJNX4F_5
 70
0
 62
7
  6
CONTINUOUS
370
-3
390
F
  0
LAYER
  5
216
100
AcDbSymbolTableRecord
100
AcDbLayerTableRecord
  2
CBCGLJNX4F_6
 70
0
 62
7
  6
CONTINUOUS
370
-3
390
F
  0
LAYER
  5
217
100
AcDbSymbolTableRecord
100
AcDbLayerTableRecord
  2
CBCGLJNX4F_7
 70
0
 62
7
  6
CONTINUOUS
370
-3
390
F
  0
LAYER
  5
218
100
AcDbSymbolTableRecord
100
AcDbLayerTableRecord
  2
CBCGLJNX4F_8
 70
0
 62
7
  6
CONTINUOUS
370
-3
390
F
  0
LAYER
  5
219
100
AcDbSymbolTableRecord
100
AcDbLayerTableRecord
  2
COPY_GEO_FET
 70
0
 62
7
  6
CONTINUOUS
370
-3
390
F
  0
LAYER
  5
21A
100
AcDbSymbolTableRecord
100
AcDbLayerTableRecord
  2
COSMETIC
 70
0
 62
7
  6
CONTINUOUS
370
-3
390
F
  0
LAYER
  5
21B
100
AcDbSymbolTableRecord
100
AcDbLayerTableRecord
  2
CUT_REF_SURF
 70
0
 62
7
  6
CONTINUOUS
370
-3
390
F
  0
LAYER
  5
21C
100
AcDbSymbolTableRecord
100
AcDbLayerTableRecord
  2
DATESTAMP
 70
0
 62
7
  6
CONTINUOUS
370
-3
390
F
  0
LAYER
  5
21D
100
AcDbSymbolTableRecord
100
AcDbLayerTableRecord
  2
DATUM
 70
0
 62
7
  6
CONTINUOUS
370
-3
390
F
  0
LAYER
  5
21E
100
AcDbSymbolTableRecord
100
AcDbLayerTableRecord
  2
DATUM_B
 70
0
 62
7
  6
CONTINUOUS
370
-3
390
F
  0
LAYER
  5
21F
100
AcDbSymbolTableRecord
100
AcDbLayerTableRecord
  2
DATUM_PLANES
 70
0
 62
7
  6
CONTINUOUS
370
-3
390
F
  0
LAYER
  5
220
100
AcDbSymbolTableRecord
100
AcDbLayerTableRecord
  2
DIM
 70
0
 62
7
  6
CONTINUOUS
370
-3
390
F
  0
LAYER
  5
221
100
AcDbSymbolTableRecord
100
AcDbLayerTableRecord
  2
DIMENSIONS
 70
0
 62
7
  6
CONTINUOUS
370
-3
390
F
  0
LAYER
  5
222
100
AcDbSymbolTableRecord
100
AcDbLayerTableRecord
  2
DIM_1
 70
0
 62
7
  6
CONTINUOUS
370
-3
390
F
  0
LAYER
  5
223
100
AcDbSymbolTableRecord
100
AcDbLayerTableRecord
  2
DIM_2
 70
0
 62
7
  6
CONTINUOUS
370
-3
390
F
  0
LAYER
  5
224
100
AcDbSymbolTableRecord
100
AcDbLayerTableRecord
  2
DIM_3
 70
0
 62
7
  6
CONTINUOUS
370
-3
390
F
  0
LAYER
  5
225
100
AcDbSymbolTableRecord
100
AcDbLayerTableRecord
  2
DTM
 70
0
 62
7
  6
CONTINUOUS
370
-3
390
F
  0
LAYER
  5
226
100
AcDbSymbolTableRecord
100
AcDbLayerTableRecord
  2
EXT_COPY_GEO
 70
0
 62
7
  6
CONTINUOUS
370
-3
390
F
  0
LAYER
  5
227
100
AcDbSymbolTableRecord
100
AcDbLayerTableRecord
  2
LS
 70
0
 62
7
  6
CONTINUOUS
370
-3
390
F
  0
LAYER
  5
228
100
AcDbSymbolTableRecord
100
AcDbLayerTableRecord
  2
ORIGIN
 70
0
 62
7
  6
CONTINUOUS
370
-3
390
F
  0
LAYER
  5
229
100
AcDbSymbolTableRecord
100
AcDbLayerTableRecord
  2
PARAMETERDIMENSIONS
 70
0
 62
7
  6
CONTINUOUS
370
-3
390
F
  0
LAYER
  5
22A
100
AcDbSymbolTableRecord
100
AcDbLayerTableRecord
  2
PARTNUMBER
 70
0
 62
7
  6
CONTINUOUS
370
-3
390
F
  0
LAYER
  5
22B
100
AcDbSymbolTableRecord
100
AcDbLayerTableRecord
  2
PORT_AREAS
 70
0
 62
7
  6
CONTINUOUS
370
-3
390
F
  0
LAYER
  5
22C
100
AcDbSymbolTableRecord
100
AcDbLayerTableRecord
  2
TEXT
 70
0
 62
7
  6
CONTINUOUS
370
-3
390
F
  0
LAYER
  5
22D
100
AcDbSymbolTableRecord
100
AcDbLayerTableRecord
  2
THREAD
 70
0
 62
7
  6
CONTINUOUS
370
-3
390
F
  0
LAYER
  5
22E
100
AcDbSymbolTableRecord
100
AcDbLayerTableRecord
  2
THREADS
 70
0
 62
7
  6
CONTINUOUS
370
-3
390
F
  0
ENDTAB
  0
TABLE
  2
STYLE
  5
3
100
AcDbSymbolTable
 70
1
  0
STYLE
  5
11
100
AcDbSymbolTableRecord
100
AcDbTextStyleTableRecord
  2
STANDARD
 70
0
 40
0.0
 41
0.8
 50
0.0
 71
0
 42
0.2
  3
txt
  4

  0
ENDTAB
  0
TABLE
  2
VIEW
  5
6
100
AcDbSymbolTable
 70
0
  0
ENDTAB
  0
TABLE
  2
UCS
  5
7
100
AcDbSymbolTable
 70
0
  0
ENDTAB
  0
TABLE
  2
APPID
  5
9
100
AcDbSymbolTable
 70
1
  0
APPID
  5
22F
100
AcDbSymbolTableRecord
100
AcDbRegAppTableRecord
  2
ACAD
 70
0
  0
ENDTAB
  0
TABLE
  2
BLOCK_RECORD
  5
1
100
AcDbSymbolTable
 70
0
  0
BLOCK_RECORD
  5
1F
100
AcDbSymbolTableRecord
100
AcDbBlockTableRecord
  2
*MODEL_SPACE
  0
BLOCK_RECORD
  5
1B
100
AcDbSymbolTableRecord
100
AcDbBlockTableRecord
  2
*PAPER_SPACE
  0
ENDTAB
  0
TABLE
  2
DIMSTYLE
  5
A
100
AcDbSymbolTable
 70
1
100
AcDbDimStyleTable
 71
0
  0
DIMSTYLE
105
230
100
AcDbSymbolTableRecord
100
AcDbDimStyleTableRecord
  2
STANDARD
 70
0
  3

  4

 40
1.0
 41
0.1875
 42
0.0625
 43
0.38
 44
0.18
 45
0.0
 46
0.0
 47
0.01
 48
0.01
140
0.15625
141
0.09
142
0.0
143
25.4
144
1.0
145
0.0
146
1.0
147
0.09
 71
0.0
 72
0.0
 73
1
 74
1
 75
0
 76
0
 77
0
 78
4
170
0
171
2
172
0
173
0
174
0
175
0
176
0
177
0
178
0
270
2
271
2
272
2
273
2
274
2
275
0
280
0
281
0
282
0
283
1
284
4
285
0
286
0
287
3
288
0
340
11
  0
ENDTAB
  0
ENDSEC
  0
SECTION
  2
BLOCKS
  0
BLOCK
  5
20
100
AcDbEntity
  8
0
100
AcDbBlockBegin
  2
*MODEL_SPACE
 70
0
 10
0.0
 20
0.0
 30
0.0
  3
*MODEL_SPACE
  1

  0
ENDBLK
  5
21
100
AcDbEntity
  8
0
100
AcDbBlockEnd
  0
BLOCK
  5
1C
100
AcDbEntity
  8
0
100
AcDbBlockBegin
  2
*PAPER_SPACE
 70
0
 10
0.0
 20
0.0
 30
0.0
  3
*PAPER_SPACE
  1

  0
ENDBLK
  5
1D
100
AcDbEntity
  8
0
100
AcDbBlockEnd
  0
ENDSEC
  0
SECTION
  2
ENTITIES
  0
LINE
  5
231
100
AcDbEntity
  8
03__ASM_ALL_CURVES
100
AcDbLine
 62
4
  6
CONTINUOUS
 10
8.6618382635
 20
12.2506362296
 11
8.6726882635
 21
12.2578695612
  0
LINE
  5
232
100
AcDbEntity
  8
03__ASM_ALL_CURVES
100
AcDbLine
 62
4
  6
CONTINUOUS
 10
8.6943882635
 20
12.2289362296
 11
8.6835382635
 21
12.2217028929
  0
LINE
  5
233
100
AcDbEntity
  8
03__ASM_ALL_CURVES
100
AcDbLine
 62
4
  6
CONTINUOUS
 10
8.6943882635
 20
12.1783028948
 11
8.6835382635
 21
12.1710695612
  0
LINE
  5
234
100
AcDbEntity
  8
03__ASM_ALL_CURVES
100
AcDbLine
 62
4
  6
CONTINUOUS
 10
8.6998132635
 20
12.2361695612
 11
8.6943882635
 21
12.2289362296
  0
LINE
  5
235
100
AcDbEntity
  8
03__ASM_ALL_CURVES
100
AcDbLine
 62
4
  6
CONTINUOUS
 10
8.7052382635
 20
12.1927695612
 11
8.6943882635
 21
12.1783028948
  0
LINE
  5
236
100
AcDbEntity
  8
03__ASM_ALL_CURVES
100
AcDbLine
 62
4
  6
CONTINUOUS
 10
9.1012632635
 20
12.2506362296
 11
9.1121132635
 21
12.2578695612
  0
LINE
  5
237
100
AcDbEntity
  8
03__ASM_ALL_CURVES
100
AcDbLine
 62
4
  6
CONTINUOUS
 10
9.1826382635
 20
12.2506362296
 11
9.1934882635
 21
12.2578695612
  0
LINE
  5
238
100
AcDbEntity
  8
03__ASM_ALL_CURVES
100
AcDbLine
 62
4
  6
CONTINUOUS
 10
9.1229632635
 20
12.1783028948
 11
9.1121132635
 21
12.1710695612
  0
LINE
  5
239
100
AcDbEntity
  8
03__ASM_ALL_CURVES
100
AcDbLine
 62
4
  6
CONTINUOUS
 10
9.2151882635
 20
12.2289362296
 11
9.2043382635
 21
12.2217028929
  0
LINE
  5
23A
100
AcDbEntity
  8
03__ASM_ALL_CURVES
100
AcDbLine
 62
4
  6
CONTINUOUS
 10
9.2151882635
 20
12.1783028948
 11
9.2043382635
 21
12.1710695612
  0
LINE
  5
23B
100
AcDbEntity
  8
03__ASM_ALL_CURVES
100
AcDbLine
 62
4
  6
CONTINUOUS
 10
9.3616632635
 20
12.2506362296
 11
9.3725132635
 21
12.2578695612
  0
LINE
  5
23C
100
AcDbEntity
  8
03__ASM_ALL_CURVES
100
AcDbLine
 62
4
  6
CONTINUOUS
 10
9.1283882635
 20
12.2144695612
 11
9.1121132635
 21
12.207236227
  0
LINE
  5
23D
100
AcDbEntity
  8
03__ASM_ALL_CURVES
100
AcDbLine
 62
4
  6
CONTINUOUS
 10
9.3887882635
 20
12.2144695612
 11
9.3725132635
 21
12.207236227
  0
LINE
  5
23E
100
AcDbEntity
  8
03__ASM_ALL_CURVES
100
AcDbLine
 62
4
  6
CONTINUOUS
 10
12.5307465977
 20
6.5716195612
 11
12.5524465964
 21
6.5770445612
  0
LINE
  5
23F
100
AcDbEntity
  8
03__ASM_ALL_CURVES
100
AcDbLine
 62
4
  6
CONTINUOUS
 10
9.0307382635
 20
12.2578695612
 11
9.0198882635
 21
12.2434028929
  0
LINE
  5
240
100
AcDbEntity
  8
03__ASM_ALL_CURVES
100
AcDbLine
 62
4
  6
CONTINUOUS
 10
9.0958382635
 20
12.2434028929
 11
9.1012632635
 21
12.2506362296
  0
LINE
  5
241
100
AcDbEntity
  8
03__ASM_ALL_CURVES
100
AcDbLine
 62
4
  6
CONTINUOUS
 10
9.4430382635
 20
12.2506362296
 11
9.4538882635
 21
12.2578695612
  0
LINE
  5
242
100
AcDbEntity
  8
03__ASM_ALL_CURVES
100
AcDbLine
 62
4
  6
CONTINUOUS
 10
9.3833632635
 20
12.1783028948
 11
9.3725132635
 21
12.1710695612
  0
LINE
  5
243
100
AcDbEntity
  8
03__ASM_ALL_CURVES
100
AcDbLine
 62
4
  6
CONTINUOUS
 10
9.4430382635
 20
12.2144695612
 11
9.4538882635
 21
12.2217028929
  0
LINE
  5
244
100
AcDbEntity
  8
03__ASM_ALL_CURVES
100
AcDbLine
 62
4
  6
CONTINUOUS
 10
9.4755882635
 20
12.2289362296
 11
9.4647382635
 21
12.2217028929
  0
LINE
  5
245
100
AcDbEntity
  8
03__ASM_ALL_CURVES
100
AcDbLine
 62
4
  6
CONTINUOUS
 10
9.4755882635
 20
12.1783028948
 11
9.4647382635
 21
12.1710695612
  0
LINE
  5
246
100
AcDbEntity
  8
03__ASM_ALL_CURVES
100
AcDbLine
 62
4
  6
CONTINUOUS
 10
12.4945799319
 20
6.2569695612
 11
12.5090465951
 21
6.2569695612
  0
LINE
  5
247
100
AcDbEntity
  8
03__ASM_ALL_CURVES
100
AcDbLine
 62
4
  6
CONTINUOUS
 10
12.5669132635
 20
6.3356320612
 11
12.5560632632
 21
6.3356320612
  0
LINE
  5
248
100
AcDbEntity
  8
03__ASM_ALL_CURVES
100
AcDbLine
 62
4
  6
CONTINUOUS
 10
8.268709951
 20
7.1905823117
 11
8.2794317635
 21
7.1762865612
  0
LINE
  5
249
100
AcDbEntity
  8
03__ASM_ALL_CURVES
100
AcDbLine
 62
4
  6
CONTINUOUS
 10
9.1283882635
 20
12.1855362283
 11
9.1229632635
 21
12.1783028948
  0
LINE
  5
24A
100
AcDbEntity
  8
03__ASM_ALL_CURVES
100
AcDbLine
 62
4
  6
CONTINUOUS
 10
9.2206132635
 20
12.2361695612
 11
9.2151882635
 21
12.2289362296
  0
LINE
  5
24B
100
AcDbEntity
  8
03__ASM_ALL_CURVES
100
AcDbLine
 62
4
  6
CONTINUOUS
 10
9.2260382635
 20
12.1927695612
 11
9.2151882635
 21
12.1783028948
  0
LINE
  5
24C
100
AcDbEntity
  8
03__ASM_ALL_CURVES
100
AcDbLine
 62
4
  6
CONTINUOUS
 10
9.3562382635
 20
12.2434028929
 11
9.3616632635
 21
12.2506362296
  0
LINE
  5
24D
100
AcDbEntity
  8
03__ASM_ALL_CURVES
100
AcDbLine
 62
4
  6
CONTINUOUS
 10
9.3887882635
 20
12.1855362283
 11
9.3833632635
 21
12.1783028948
  0
LINE
  5
24E
100
AcDbEntity
  8
03__ASM_ALL_CURVES
100
AcDbLine
 62
4
  6
CONTINUOUS
 10
12.4945799319
 20
7.0218945612
 11
12.5162799319
 21
7.0273195612
  0
LINE
  5
24F
100
AcDbEntity
  8
03__ASM_ALL_CURVES
100
AcDbLine
 62
4
  6
CONTINUOUS
 10
12.5162799319
 20
6.5716195612
 11
12.5307465977
 21
6.5716195612
  0
LINE
  5
250
100
AcDbEntity
  8
03__ASM_ALL_CURVES
100
AcDbLine
 62
4
  6
CONTINUOUS
 10
12.5379799293
 20
6.6475695612
 11
12.5090465951
 21
6.6475695612
  0
LINE
  5
251
100
AcDbEntity
  8
03__ASM_ALL_CURVES
100
AcDbLine
 62
4
  6
CONTINUOUS
 10
8.4724243885
 20
7.1762865612
 11
8.4581286385
 21
7.1858170615
  0
LINE
  5
252
100
AcDbEntity
  8
03__ASM_ALL_CURVES
100
AcDbLine
 62
4
  6
CONTINUOUS
 10
8.3723541385
 20
7.2906525612
 11
8.3866498885
 21
7.2811220635
  0
LINE
  5
253
100
AcDbEntity
  8
03__ASM_ALL_CURVES
100
AcDbLine
 62
4
  6
CONTINUOUS
 10
8.4724243885
 20
7.243000059
 11
8.4581286385
 21
7.2525305635
  0
LINE
  5
254
100
AcDbEntity
  8
03__ASM_ALL_CURVES
100
AcDbLine
 62
4
  6
CONTINUOUS
 10
8.4867201385
 20
7.243000059
 11
8.5010158885
 21
7.2334695612
  0
LINE
  5
255
100
AcDbEntity
  8
03__ASM_ALL_CURVES
100
AcDbLine
 62
4
  6
CONTINUOUS
 10
8.4867201385
 20
7.2906525612
 11
8.5010158885
 21
7.2811220635
  0
LINE
  5
256
100
AcDbEntity
  8
03__ASM_ALL_CURVES
100
AcDbLine
 62
4
  6
CONTINUOUS
 10
8.3866498885
 20
7.2811220635
 11
8.3937977635
 21
7.271591559
  0
LINE
  5
257
100
AcDbEntity
  8
03__ASM_ALL_CURVES
100
AcDbLine
 62
4
  6
CONTINUOUS
 10
8.4581286385
 20
7.1858170615
 11
8.4438328885
 21
7.2048780612
  0
LINE
  5
258
100
AcDbEntity
  8
03__ASM_ALL_CURVES
100
AcDbLine
 62
4
  6
CONTINUOUS
 10
8.4581286385
 20
7.2525305635
 11
8.4509807635
 21
7.2620610612
  0
LINE
  5
259
100
AcDbEntity
  8
03__ASM_ALL_CURVES
100
AcDbLine
 62
4
  6
CONTINUOUS
 10
8.5010158885
 20
7.2334695612
 11
8.5153116385
 21
7.2144085624
  0
LINE
  5
25A
100
AcDbEntity
  8
03__ASM_ALL_CURVES
100
AcDbLine
 62
4
  6
CONTINUOUS
 10
8.5010158885
 20
7.2811220635
 11
8.5081637635
 21
7.271591559
  0
LINE
  5
25B
100
AcDbEntity
  8
03__ASM_ALL_CURVES
100
AcDbLine
 62
4
  6
CONTINUOUS
 10
8.8625632635
 20
12.2289362296
 11
8.8734132635
 21
12.2578695612
  0
LINE
  5
25C
100
AcDbEntity
  8
03__ASM_ALL_CURVES
100
AcDbLine
 62
4
  6
CONTINUOUS
 10
9.4376132635
 20
12.2434028929
 11
9.4430382635
 21
12.2506362296
  0
LINE
  5
25D
100
AcDbEntity
  8
03__ASM_ALL_CURVES
100
AcDbLine
 62
4
  6
CONTINUOUS
 10
9.4321882635
 20
12.2000028954
 11
9.4430382635
 21
12.2144695612
  0
LINE
  5
25E
100
AcDbEntity
  8
03__ASM_ALL_CURVES
100
AcDbLine
 62
4
  6
CONTINUOUS
 10
9.4810132635
 20
12.2361695612
 11
9.4755882635
 21
12.2289362296
  0
LINE
  5
25F
100
AcDbEntity
  8
03__ASM_ALL_CURVES
100
AcDbLine
 62
4
  6
CONTINUOUS
 10
9.4864382635
 20
12.1927695612
 11
9.4755882635
 21
12.1783028948
  0
LINE
  5
260
100
AcDbEntity
  8
03__ASM_ALL_CURVES
100
AcDbLine
 62
4
  6
CONTINUOUS
 10
9.5515382635
 20
12.1855362283
 11
9.5406882635
 21
12.1710695612
  0
LINE
  5
261
100
AcDbEntity
  8
03__ASM_ALL_CURVES
100
AcDbLine
 62
4
  6
CONTINUOUS
 10
12.4945799319
 20
6.7777695612
 11
12.5018132635
 21
6.7777695612
  0
LINE
  5
262
100
AcDbEntity
  8
03__ASM_ALL_CURVES
100
AcDbLine
 62
4
  6
CONTINUOUS
 10
12.5379799293
 20
6.7831945612
 11
12.5452132635
 21
6.7831945612
  0
LINE
  5
263
100
AcDbEntity
  8
03__ASM_ALL_CURVES
100
AcDbLine
 62
4
  6
CONTINUOUS
 10
12.5669132635
 20
6.8564320612
 11
12.5560632632
 21
6.8564320612
  0
LINE
  5
264
100
AcDbEntity
  8
03__ASM_ALL_CURVES
100
AcDbLine
 62
4
  6
CONTINUOUS
 10
12.4801132635
 20
6.3980195612
 11
12.5162799319
 21
6.3925945612
  0
LINE
  5
265
100
AcDbEntity
  8
03__ASM_ALL_CURVES
100
AcDbLine
 62
4
  6
CONTINUOUS
 10
12.5452132635
 20
6.2189945612
 11
12.5669132635
 21
6.2135695612
  0
LINE
  5
266
100
AcDbEntity
  8
03__ASM_ALL_CURVES
100
AcDbLine
 62
4
  6
CONTINUOUS
 10
8.8155223885
 20
7.1762865612
 11
8.8012266385
 21
7.1858170615
  0
LINE
  5
267
100
AcDbEntity
  8
03__ASM_ALL_CURVES
100
AcDbLine
 62
4
  6
CONTINUOUS
 10
8.8298181385
 20
7.243000059
 11
8.8441138885
 21
7.2334695612
  0
LINE
  5
268
100
AcDbEntity
  8
03__ASM_ALL_CURVES
100
AcDbLine
 62
4
  6
CONTINUOUS
 10
8.8298181385
 20
7.2906525612
 11
8.8441138885
 21
7.2811220635
  0
LINE
  5
269
100
AcDbEntity
  8
03__ASM_ALL_CURVES
100
AcDbLine
 62
4
  6
CONTINUOUS
 10
8.9441841385
 20
7.2906525612
 11
8.9584798885
 21
7.2811220635
  0
LINE
  5
26A
100
AcDbEntity
  8
03__ASM_ALL_CURVES
100
AcDbLine
 62
4
  6
CONTINUOUS
 10
9.1586203885
 20
7.1762865612
 11
9.1443246385
 21
7.1858170615
  0
LINE
  5
26B
100
AcDbEntity
  8
03__ASM_ALL_CURVES
100
AcDbLine
 62
4
  6
CONTINUOUS
 10
8.7011563885
 20
7.1953475618
 11
8.7154521385
 21
7.1762865612
  0
LINE
  5
26C
100
AcDbEntity
  8
03__ASM_ALL_CURVES
100
AcDbLine
 62
4
  6
CONTINUOUS
 10
8.8012266385
 20
7.1858170615
 11
8.7940787635
 21
7.1953475618
  0
LINE
  5
26D
100
AcDbEntity
  8
03__ASM_ALL_CURVES
100
AcDbLine
 62
4
  6
CONTINUOUS
 10
8.8441138885
 20
7.2334695612
 11
8.8584096385
 21
7.2144085624
  0
LINE
  5
26E
100
AcDbEntity
  8
03__ASM_ALL_CURVES
100
AcDbLine
 62
4
  6
CONTINUOUS
 10
8.8441138885
 20
7.2811220635
 11
8.8512617635
 21
7.271591559
  0
LINE
  5
26F
100
AcDbEntity
  8
03__ASM_ALL_CURVES
100
AcDbLine
 62
4
  6
CONTINUOUS
 10
8.1364742635
 20
7.2906525612
 11
8.1364742635
 21
7.1762865612
  0
LINE
  5
270
100
AcDbEntity
  8
03__ASM_ALL_CURVES
100
AcDbLine
 62
4
  6
CONTINUOUS
 10
8.2224132635
 20
9.1880028954
 11
8.2224132635
 21
9.2169362296
  0
LINE
  5
271
100
AcDbEntity
  8
03__ASM_ALL_CURVES
100
AcDbLine
 62
4
  6
CONTINUOUS
 10
8.2658132635
 20
9.2169362296
 11
8.2658132635
 21
9.1880028954
  0
LINE
  5
272
100
AcDbEntity
  8
03__ASM_ALL_CURVES
100
AcDbLine
 62
4
  6
CONTINUOUS
 10
8.268709951
 20
7.1762865612
 11
8.268709951
 21
7.1905823117
  0
LINE
  5
273
100
AcDbEntity
  8
03__ASM_ALL_CURVES
100
AcDbLine
 62
4
  6
CONTINUOUS
 10
8.8571382635
 20
12.207236227
 11
8.8625632635
 21
12.2289362296
  0
LINE
  5
274
100
AcDbEntity
  8
03__ASM_ALL_CURVES
100
AcDbLine
 62
4
  6
CONTINUOUS
 10
9.0904132635
 20
12.2289362296
 11
9.0958382635
 21
12.2434028929
  0
LINE
  5
275
100
AcDbEntity
  8
03__ASM_ALL_CURVES
100
AcDbLine
 62
4
  6
CONTINUOUS
 10
9.1338132635
 20
12.2289362296
 11
9.1283882635
 21
12.2144695612
  0
LINE
  5
276
100
AcDbEntity
  8
03__ASM_ALL_CURVES
100
AcDbLine
 62
4
  6
CONTINUOUS
 10
9.1338132635
 20
12.2000028954
 11
9.1283882635
 21
12.1855362283
  0
LINE
  5
277
100
AcDbEntity
  8
03__ASM_ALL_CURVES
100
AcDbLine
 62
4
  6
CONTINUOUS
 10
12.5162799319
 20
7.0273195612
 11
12.5307465977
 21
7.0273195612
  0
LINE
  5
278
100
AcDbEntity
  8
03__ASM_ALL_CURVES
100
AcDbLine
 62
4
  6
CONTINUOUS
 10
9.1729161385
 20
7.1762865612
 11
9.1586203885
 21
7.1762865612
  0
LINE
  5
279
100
AcDbEntity
  8
03__ASM_ALL_CURVES
100
AcDbLine
 62
4
  6
CONTINUOUS
 10
9.0799937635
 20
7.1762865612
 11
9.069271951
 21
7.1762865612
  0
LINE
  5
27A
100
AcDbEntity
  8
03__ASM_ALL_CURVES
100
AcDbLine
 62
4
  6
CONTINUOUS
 10
8.8298181385
 20
7.1762865612
 11
8.8155223885
 21
7.1762865612
  0
LINE
  5
27B
100
AcDbEntity
  8
03__ASM_ALL_CURVES
100
AcDbLine
 62
4
  6
CONTINUOUS
 10
8.4867201385
 20
7.1762865612
 11
8.4724243885
 21
7.1762865612
  0
LINE
  5
27C
100
AcDbEntity
  8
03__ASM_ALL_CURVES
100
AcDbLine
 62
4
  6
CONTINUOUS
 10
8.2794317635
 20
7.1762865612
 11
8.268709951
 21
7.1762865612
  0
LINE
  5
27D
100
AcDbEntity
  8
03__ASM_ALL_CURVES
100
AcDbLine
 62
4
  6
CONTINUOUS
 10
8.3366147635
 20
7.1762865612
 11
8.3937977635
 21
7.1762865612
  0
LINE
  5
27E
100
AcDbEntity
  8
03__ASM_ALL_CURVES
100
AcDbLine
 62
4
  6
CONTINUOUS
 10
8.9084447635
 20
7.1762865612
 11
8.9656277635
 21
7.1762865612
  0
LINE
  5
27F
100
AcDbEntity
  8
03__ASM_ALL_CURVES
100
AcDbLine
 62
4
  6
CONTINUOUS
 10
12.4945799319
 20
6.5770445612
 11
12.5162799319
 21
6.5716195612
  0
LINE
  5
280
100
AcDbEntity
  8
03__ASM_ALL_CURVES
100
AcDbLine
 62
4
  6
CONTINUOUS
 10
9.1729161385
 20
7.2525305635
 11
9.1872118885
 21
7.243000059
  0
LINE
  5
281
100
AcDbEntity
  8
03__ASM_ALL_CURVES
100
AcDbLine
 62
4
  6
CONTINUOUS
 10
8.9584798885
 20
7.2811220635
 11
8.9656277635
 21
7.271591559
  0
LINE
  5
282
100
AcDbEntity
  8
03__ASM_ALL_CURVES
100
AcDbLine
 62
4
  6
CONTINUOUS
 10
9.069271951
 20
7.1905823117
 11
9.0799937635
 21
7.1762865612
  0
LINE
  5
283
100
AcDbEntity
  8
03__ASM_ALL_CURVES
100
AcDbLine
 62
4
  6
CONTINUOUS
 10
9.1443246385
 20
7.1858170615
 11
9.1371767635
 21
7.1953475618
  0
LINE
  5
284
100
AcDbEntity
  8
03__ASM_ALL_CURVES
100
AcDbLine
 62
4
  6
CONTINUOUS
 10
9.1872118885
 20
7.243000059
 11
9.1943597635
 21
7.2334695612
  0
LINE
  5
285
100
AcDbEntity
  8
03__ASM_ALL_CURVES
100
AcDbLine
 62
4
  6
CONTINUOUS
 10
8.6940085135
 20
7.2239390601
 11
8.7011563885
 21
7.1953475618
  0
LINE
  5
286
100
AcDbEntity
  8
03__ASM_ALL_CURVES
100
AcDbLine
 62
4
  6
CONTINUOUS
 10
8.3444757635
 20
9.1590695612
 11
8.3444757635
 21
9.1699195616
  0
LINE
  5
287
100
AcDbEntity
  8
03__ASM_ALL_CURVES
100
AcDbLine
 62
4
  6
CONTINUOUS
 10
8.3937977635
 20
7.271591559
 11
8.3937977635
 21
7.2525305635
  0
LINE
  5
288
100
AcDbEntity
  8
03__ASM_ALL_CURVES
100
AcDbLine
 62
4
  6
CONTINUOUS
 10
8.3960132635
 20
9.1880028954
 11
8.3960132635
 21
9.2169362296
  0
LINE
  5
289
100
AcDbEntity
  8
03__ASM_ALL_CURVES
100
AcDbLine
 62
4
  6
CONTINUOUS
 10
8.4438328885
 20
7.2048780612
 11
8.4438328885
 21
7.2144085624
  0
LINE
  5
28A
100
AcDbEntity
  8
03__ASM_ALL_CURVES
100
AcDbLine
 62
4
  6
CONTINUOUS
 10
8.4509807635
 20
7.2620610612
 11
8.4509807635
 21
7.271591559
  0
LINE
  5
28B
100
AcDbEntity
  8
03__ASM_ALL_CURVES
100
AcDbLine
 62
4
  6
CONTINUOUS
 10
8.4773882635
 20
9.1807695612
 11
8.4773882635
 21
9.1880028954
  0
LINE
  5
28C
100
AcDbEntity
  8
03__ASM_ALL_CURVES
100
AcDbLine
 62
4
  6
CONTINUOUS
 10
8.4828132635
 20
9.2241695612
 11
8.4828132635
 21
9.2314028929
  0
LINE
  5
28D
100
AcDbEntity
  8
03__ASM_ALL_CURVES
100
AcDbLine
 62
4
  6
CONTINUOUS
 10
8.5081637635
 20
7.271591559
 11
8.5081637635
 21
7.2620610612
  0
LINE
  5
28E
100
AcDbEntity
  8
03__ASM_ALL_CURVES
100
AcDbLine
 62
4
  6
CONTINUOUS
 10
8.5153116385
 20
7.2144085624
 11
8.5153116385
 21
7.2048780612
  0
LINE
  5
28F
100
AcDbEntity
  8
03__ASM_ALL_CURVES
100
AcDbLine
 62
4
  6
CONTINUOUS
 10
8.5262132635
 20
9.2314028929
 11
8.5262132635
 21
9.2241695612
  0
LINE
  5
290
100
AcDbEntity
  8
03__ASM_ALL_CURVES
100
AcDbLine
 62
4
  6
CONTINUOUS
 10
8.5316382635
 20
9.1880028954
 11
8.5316382635
 21
9.1807695612
  0
LINE
  5
291
100
AcDbEntity
  8
03__ASM_ALL_CURVES
100
AcDbLine
 62
4
  6
CONTINUOUS
 10
8.8517132635
 20
12.1710695612
 11
8.8571382635
 21
12.207236227
  0
LINE
  5
292
100
AcDbEntity
  8
03__ASM_ALL_CURVES
100
AcDbLine
 62
4
  6
CONTINUOUS
 10
9.0198882635
 20
12.2434028929
 11
9.0144632635
 21
12.2217028929
  0
LINE
  5
293
100
AcDbEntity
  8
03__ASM_ALL_CURVES
100
AcDbLine
 62
4
  6
CONTINUOUS
 10
9.3508132635
 20
12.2289362296
 11
9.3562382635
 21
12.2434028929
  0
LINE
  5
294
100
AcDbEntity
  8
03__ASM_ALL_CURVES
100
AcDbLine
 62
4
  6
CONTINUOUS
 10
8.2224132635
 20
9.2169362296
 11
8.2278382635
 21
9.2314028929
  0
LINE
  5
295
100
AcDbEntity
  8
03__ASM_ALL_CURVES
100
AcDbLine
 62
4
  6
CONTINUOUS
 10
9.3942132635
 20
12.2289362296
 11
9.3887882635
 21
12.2144695612
  0
LINE
  5
296
100
AcDbEntity
  8
03__ASM_ALL_CURVES
100
AcDbLine
 62
4
  6
CONTINUOUS
 10
9.3942132635
 20
12.2000028954
 11
9.3887882635
 21
12.1855362283
  0
LINE
  5
297
100
AcDbEntity
  8
03__ASM_ALL_CURVES
100
AcDbLine
 62
4
  6
CONTINUOUS
 10
8.2658132635
 20
9.1880028954
 11
8.2603882635
 21
9.1735362283
  0
LINE
  5
298
100
AcDbEntity
  8
03__ASM_ALL_CURVES
100
AcDbLine
 62
4
  6
CONTINUOUS
 10
8.3960132635
 20
9.2169362296
 11
8.4014382635
 21
9.2314028929
  0
LINE
  5
299
100
AcDbEntity
  8
03__ASM_ALL_CURVES
100
AcDbLine
 62
4
  6
CONTINUOUS
 10
8.3960132635
 20
9.1880028954
 11
8.4014382635
 21
9.2024695612
  0
LINE
  5
29A
100
AcDbEntity
  8
0
100
AcDbLine
 62
7
  6
CONTINUOUS
 10
11.2735132635
 20
11.9850655656
 11
10.8010132635
 21
11.7122675634
  0
LINE
  5
29B
100
AcDbEntity
  8
0
100
AcDbLine
 62
7
  6
CONTINUOUS
 10
11.4270133181
 20
7.2334695612
 11
11.1200132089
 21
7.2334695612
  0
LINE
  5
29C
100
AcDbEntity
  8
03__ASM_ALL_CURVES
100
AcDbLine
 62
4
  6
CONTINUOUS
 10
9.9091472635
 20
7.2334695612
 11
9.5660492635
 21
7.2334695612
  0
LINE
  5
29D
100
AcDbEntity
  8
03__ASM_ALL_CURVES
100
AcDbLine
 62
4
  6
CONTINUOUS
 10
8.4724243885
 20
7.243000059
 11
8.4867201385
 21
7.243000059
  0
LINE
  5
29E
100
AcDbEntity
  8
03__ASM_ALL_CURVES
100
AcDbLine
 62
4
  6
CONTINUOUS
 10
8.8155223885
 20
7.243000059
 11
8.8298181385
 21
7.243000059
  0
LINE
  5
29F
100
AcDbEntity
  8
03__ASM_ALL_CURVES
100
AcDbLine
 62
4
  6
CONTINUOUS
 10
9.1586203885
 20
7.2525305635
 11
9.1729161385
 21
7.2525305635
  0
LINE
  5
2A0
100
AcDbEntity
  8
0
100
AcDbLine
 62
7
  6
CONTINUOUS
 10
11.4580132635
 20
7.2644695612
 11
11.0890132635
 21
7.2644695612
  0
LINE
  5
2A1
100
AcDbEntity
  8
03__ASM_ALL_CURVES
100
AcDbLine
 62
4
  6
CONTINUOUS
 10
9.1943597635
 20
7.2906525612
 11
9.1514725135
 21
7.2906525612
  0
LINE
  5
2A2
100
AcDbEntity
  8
03__ASM_ALL_CURVES
100
AcDbLine
 62
4
  6
CONTINUOUS
 10
8.3580583885
 20
7.2906525612
 11
8.3723541385
 21
7.2906525612
  0
LINE
  5
2A3
100
AcDbEntity
  8
03__ASM_ALL_CURVES
100
AcDbLine
 62
4
  6
CONTINUOUS
 10
8.4724243885
 20
7.2906525612
 11
8.4867201385
 21
7.2906525612
  0
LINE
  5
2A4
100
AcDbEntity
  8
03__ASM_ALL_CURVES
100
AcDbLine
 62
4
  6
CONTINUOUS
 10
8.8155223885
 20
7.2906525612
 11
8.8298181385
 21
7.2906525612
  0
LINE
  5
2A5
100
AcDbEntity
  8
03__ASM_ALL_CURVES
100
AcDbLine
 62
4
  6
CONTINUOUS
 10
8.9298883885
 20
7.2906525612
 11
8.9441841385
 21
7.2906525612
  0
LINE
  5
2A6
100
AcDbEntity
  8
0
100
AcDbLine
 62
7
  6
CONTINUOUS
 10
11.4125528336
 20
7.2964695612
 11
11.1321775409
 21
7.2964695612
  0
LINE
  5
2A7
100
AcDbEntity
  8
0
100
AcDbLine
 62
7
  6
CONTINUOUS
 10
10.9924968238
 20
7.2964695612
 11
11.1310022622
 21
7.2964695612
  0
LINE
  5
2A8
100
AcDbEntity
  8
0
100
AcDbLine
 62
7
  6
CONTINUOUS
 10
11.4137741755
 20
7.2964695612
 11
11.5545295805
 21
7.2964695612
  0
LINE
  5
2A9
100
AcDbEntity
  8
03__ASM_ALL_CURVES
100
AcDbLine
 62
4
  6
CONTINUOUS
 10
12.4801132635
 20
6.9188195612
 11
12.5162799319
 21
6.9133945612
  0
LINE
  5
2AA
100
AcDbEntity
  8
03__ASM_ALL_CURVES
100
AcDbLine
 62
4
  6
CONTINUOUS
 10
12.5379799293
 20
6.4359945612
 11
12.5524465964
 21
6.4305695612
  0
LINE
  5
2AB
100
AcDbEntity
  8
03__ASM_ALL_CURVES
100
AcDbLine
 62
4
  6
CONTINUOUS
 10
9.3873523885
 20
7.2906525612
 11
9.4016481385
 21
7.271591559
  0
LINE
  5
2AC
100
AcDbEntity
  8
03__ASM_ALL_CURVES
100
AcDbLine
 62
4
  6
CONTINUOUS
 10
8.2278382635
 20
9.1735362283
 11
8.2224132635
 21
9.1880028954
  0
LINE
  5
2AD
100
AcDbEntity
  8
03__ASM_ALL_CURVES
100
AcDbLine
 62
4
  6
CONTINUOUS
 10
8.2603882635
 20
9.2314028929
 11
8.2658132635
 21
9.2169362296
  0
LINE
  5
2AE
100
AcDbEntity
  8
03__ASM_ALL_CURVES
100
AcDbLine
 62
4
  6
CONTINUOUS
 10
8.4014382635
 20
9.1735362283
 11
8.3960132635
 21
9.1880028954
  0
LINE
  5
2AF
100
AcDbEntity
  8
03__ASM_ALL_CURVES
100
AcDbLine
 62
4
  6
CONTINUOUS
 10
8.6672632635
 20
9.2097028929
 11
8.6672632635
 21
9.195236227
  0
LINE
  5
2B0
100
AcDbEntity
  8
03__ASM_ALL_CURVES
100
AcDbLine
 62
4
  6
CONTINUOUS
 10
8.6940085135
 20
7.243000059
 11
8.6940085135
 21
7.2239390601
  0
LINE
  5
2B1
100
AcDbEntity
  8
03__ASM_ALL_CURVES
100
AcDbLine
 62
4
  6
CONTINUOUS
 10
8.6998132635
 20
12.2434028929
 11
8.6998132635
 21
12.2361695612
  0
LINE
  5
2B2
100
AcDbEntity
  8
03__ASM_ALL_CURVES
100
AcDbLine
 62
4
  6
CONTINUOUS
 10
8.7052382635
 20
12.2000028954
 11
8.7052382635
 21
12.1927695612
  0
LINE
  5
2B3
100
AcDbEntity
  8
03__ASM_ALL_CURVES
100
AcDbLine
 62
4
  6
CONTINUOUS
 10
8.7649132635
 20
9.2458695612
 11
8.7649132635
 21
9.1590695612
  0
LINE
  5
2B4
100
AcDbEntity
  8
03__ASM_ALL_CURVES
100
AcDbLine
 62
4
  6
CONTINUOUS
 10
8.7784757635
 20
12.1710695612
 11
8.7784757635
 21
12.1819195616
  0
LINE
  5
2B5
100
AcDbEntity
  8
03__ASM_ALL_CURVES
100
AcDbLine
 62
4
  6
CONTINUOUS
 10
8.6726882635
 20
9.2314028929
 11
8.6672632635
 21
9.2097028929
  0
LINE
  5
2B6
100
AcDbEntity
  8
03__ASM_ALL_CURVES
100
AcDbLine
 62
4
  6
CONTINUOUS
 10
8.4394132635
 20
9.1880028954
 11
8.4339882635
 21
9.1735362283
  0
LINE
  5
2B7
100
AcDbEntity
  8
03__ASM_ALL_CURVES
100
AcDbLine
 62
4
  6
CONTINUOUS
 10
8.2278382635
 20
9.2314028929
 11
8.2332632635
 21
9.2386362296
  0
LINE
  5
2B8
100
AcDbEntity
  8
03__ASM_ALL_CURVES
100
AcDbLine
 62
4
  6
CONTINUOUS
 10
8.2603882635
 20
9.1735362283
 11
8.2549632635
 21
9.1663028948
  0
LINE
  5
2B9
100
AcDbEntity
  8
03__ASM_ALL_CURVES
100
AcDbLine
 62
4
  6
CONTINUOUS
 10
8.4014382635
 20
9.2314028929
 11
8.4068632635
 21
9.2386362296
  0
LINE
  5
2BA
100
AcDbEntity
  8
0
100
AcDbLine
 62
7
  6
CONTINUOUS
 10
11.5970132635
 20
7.5154695612
 11
10.9500132635
 21
7.5154695612
  0
LINE
  5
2BB
100
AcDbEntity
  8
0
100
AcDbLine
 62
7
  6
CONTINUOUS
 10
11.6470132635
 20
7.5654695612
 11
10.9000132635
 21
7.5654695612
  0
LINE
  5
2BC
100
AcDbEntity
  8
0
100
AcDbLine
 62
7
  6
CONTINUOUS
 10
11.6470132635
 20
7.6164695612
 11
10.9000132635
 21
7.6164695612
  0
LINE
  5
2BD
100
AcDbEntity
  8
0
100
AcDbLine
 62
7
  6
CONTINUOUS
 10
11.6420132635
 20
7.6214695612
 11
10.9050165334
 21
7.6214695612
  0
LINE
  5
2BE
100
AcDbEntity
  8
0
100
AcDbLine
 62
7
  6
CONTINUOUS
 10
10.9235132635
 20
7.6294695612
 11
11.6235132635
 21
7.6294695612
  0
LINE
  5
2BF
100
AcDbEntity
  8
0
100
AcDbLine
 62
7
  6
CONTINUOUS
 10
10.9235132635
 20
7.6514695612
 11
11.6235132635
 21
7.6514695612
  0
LINE
  5
2C0
100
AcDbEntity
  8
0
100
AcDbLine
 62
7
  6
CONTINUOUS
 10
11.6420132635
 20
7.6594695612
 11
10.9050132635
 21
7.6594695612
  0
LINE
  5
2C1
100
AcDbEntity
  8
0
100
AcDbLine
 62
7
  6
CONTINUOUS
 10
11.6470132635
 20
7.6644695612
 11
10.9000132635
 21
7.6644695612
  0
LINE
  5
2C2
100
AcDbEntity
  8
03__ASM_ALL_CURVES
100
AcDbLine
 62
4
  6
CONTINUOUS
 10
12.5307465977
 20
7.0273195612
 11
12.5524465964
 21
7.0218945612
  0
LINE
  5
2C3
100
AcDbEntity
  8
03__ASM_ALL_CURVES
100
AcDbLine
 62
4
  6
CONTINUOUS
 10
12.5090465951
 20
6.6475695612
 11
12.4945799319
 21
6.6529945612
  0
LINE
  5
2C4
100
AcDbEntity
  8
03__ASM_ALL_CURVES
100
AcDbLine
 62
4
  6
CONTINUOUS
 10
12.5379799293
 20
6.6475695612
 11
12.5235132635
 21
6.6529945612
  0
LINE
  5
2C5
100
AcDbEntity
  8
03__ASM_ALL_CURVES
100
AcDbLine
 62
4
  6
CONTINUOUS
 10
12.5379799293
 20
6.6909695612
 11
12.5524465964
 21
6.6855445612
  0
LINE
  5
2C6
100
AcDbEntity
  8
03__ASM_ALL_CURVES
100
AcDbLine
 62
4
  6
CONTINUOUS
 10
8.2332632635
 20
9.1663028948
 11
8.2278382635
 21
9.1735362283
  0
LINE
  5
2C7
100
AcDbEntity
  8
03__ASM_ALL_CURVES
100
AcDbLine
 62
4
  6
CONTINUOUS
 10
8.2549632635
 20
9.2386362296
 11
8.2603882635
 21
9.2314028929
  0
LINE
  5
2C8
100
AcDbEntity
  8
03__ASM_ALL_CURVES
100
AcDbLine
 62
4
  6
CONTINUOUS
 10
8.3444757635
 20
9.1699195616
 11
8.3526132635
 21
9.1590695612
  0
LINE
  5
2C9
100
AcDbEntity
  8
03__ASM_ALL_CURVES
100
AcDbLine
 62
4
  6
CONTINUOUS
 10
8.4068632635
 20
9.1663028948
 11
8.4014382635
 21
9.1735362283
  0
LINE
  5
2CA
100
AcDbEntity
  8
03__ASM_ALL_CURVES
100
AcDbLine
 62
4
  6
CONTINUOUS
 10
8.4339882635
 20
9.2024695612
 11
8.4394132635
 21
9.1880028954
  0
LINE
  5
2CB
100
AcDbEntity
  8
03__ASM_ALL_CURVES
100
AcDbLine
 62
4
  6
CONTINUOUS
 10
9.1943597635
 20
7.2334695612
 11
9.2015076385
 21
7.2144085624
  0
LINE
  5
2CC
100
AcDbEntity
  8
03__ASM_ALL_CURVES
100
AcDbLine
 62
4
  6
CONTINUOUS
 10
8.6672632635
 20
9.195236227
 11
8.6726882635
 21
9.1735362283
  0
LINE
  5
2CD
100
AcDbEntity
  8
03__ASM_ALL_CURVES
100
AcDbLine
 62
4
  6
CONTINUOUS
 10
8.8512617635
 20
7.271591559
 11
8.8512617635
 21
7.2620610612
  0
LINE
  5
2CE
100
AcDbEntity
  8
03__ASM_ALL_CURVES
100
AcDbLine
 62
4
  6
CONTINUOUS
 10
8.8584096385
 20
7.2144085624
 11
8.8584096385
 21
7.2048780612
  0
LINE
  5
2CF
100
AcDbEntity
  8
03__ASM_ALL_CURVES
100
AcDbLine
 62
4
  6
CONTINUOUS
 10
8.9520757635
 20
9.1590695612
 11
8.9520757635
 21
9.1699195616
  0
LINE
  5
2D0
100
AcDbEntity
  8
03__ASM_ALL_CURVES
100
AcDbLine
 62
4
  6
CONTINUOUS
 10
8.9656277635
 20
7.271591559
 11
8.9656277635
 21
7.2525305635
  0
LINE
  5
2D1
100
AcDbEntity
  8
03__ASM_ALL_CURVES
100
AcDbLine
 62
4
  6
CONTINUOUS
 10
9.0144632635
 20
12.2217028929
 11
9.0144632635
 21
12.207236227
  0
LINE
  5
2D2
100
AcDbEntity
  8
03__ASM_ALL_CURVES
100
AcDbLine
 62
4
  6
CONTINUOUS
 10
9.0470132635
 20
9.2314028929
 11
9.0470132635
 21
9.2169362296
  0
LINE
  5
2D3
100
AcDbEntity
  8
03__ASM_ALL_CURVES
100
AcDbLine
 62
4
  6
CONTINUOUS
 10
8.8517132635
 20
9.1590695612
 11
8.8571382635
 21
9.195236227
  0
LINE
  5
2D4
100
AcDbEntity
  8
03__ASM_ALL_CURVES
100
AcDbLine
 62
4
  6
CONTINUOUS
 10
9.5569632635
 20
12.207236227
 11
9.5515382635
 21
12.1855362283
  0
LINE
  5
2D5
100
AcDbEntity
  8
03__ASM_ALL_CURVES
100
AcDbLine
 62
4
  6
CONTINUOUS
 10
8.3437626385
 20
7.2048780612
 11
8.3366147635
 21
7.1762865612
  0
LINE
  5
2D6
100
AcDbEntity
  8
03__ASM_ALL_CURVES
100
AcDbLine
 62
4
  6
CONTINUOUS
 10
8.8571382635
 20
9.195236227
 11
8.8625632635
 21
9.2169362296
  0
LINE
  5
2D7
100
AcDbEntity
  8
03__ASM_ALL_CURVES
100
AcDbLine
 62
4
  6
CONTINUOUS
 10
8.8625632635
 20
9.2169362296
 11
8.8734132635
 21
9.2458695612
  0
LINE
  5
2D8
100
AcDbEntity
  8
03__ASM_ALL_CURVES
100
AcDbLine
 62
4
  6
CONTINUOUS
 10
8.4339882635
 20
9.1735362283
 11
8.4285632635
 21
9.1663028948
  0
LINE
  5
2D9
100
AcDbEntity
  8
03__ASM_ALL_CURVES
100
AcDbLine
 62
4
  6
CONTINUOUS
 10
8.4828132635
 20
9.2314028929
 11
8.4882382635
 21
9.2386362296
  0
LINE
  5
2DA
100
AcDbEntity
  8
03__ASM_ALL_CURVES
100
AcDbLine
 62
4
  6
CONTINUOUS
 10
8.4773882635
 20
9.1880028954
 11
8.4882382635
 21
9.2024695612
  0
LINE
  5
2DB
100
AcDbEntity
  8
03__ASM_ALL_CURVES
100
AcDbLine
 62
4
  6
CONTINUOUS
 10
8.5262132635
 20
9.2241695612
 11
8.5207882635
 21
9.2169362296
  0
LINE
  5
2DC
100
AcDbEntity
  8
03__ASM_ALL_CURVES
100
AcDbLine
 62
4
  6
CONTINUOUS
 10
8.5316382635
 20
9.1807695612
 11
8.5207882635
 21
9.1663028948
  0
LINE
  5
2DD
100
AcDbEntity
  8
03__ASM_ALL_CURVES
100
AcDbLine
 62
4
  6
CONTINUOUS
 10
8.6835382635
 20
9.2458695612
 11
8.6726882635
 21
9.2314028929
  0
LINE
  5
2DE
100
AcDbEntity
  8
03__ASM_ALL_CURVES
100
AcDbLine
 62
4
  6
CONTINUOUS
 10
10.0379799293
 20
7.9285695612
 11
10.0090465951
 21
7.9285695612
  0
LINE
  5
2DF
100
AcDbEntity
  8
03__ASM_ALL_CURVES
100
AcDbLine
 62
4
  6
CONTINUOUS
 10
12.5379799293
 20
6.9567945612
 11
12.5524465964
 21
6.9513695612
  0
LINE
  5
2E0
100
AcDbEntity
  8
03__ASM_ALL_CURVES
100
AcDbLine
 62
4
  6
CONTINUOUS
 10
10.0090465951
 20
7.9285695612
 11
9.9945799319
 21
7.9339945612
  0
LINE
  5
2E1
100
AcDbEntity
  8
03__ASM_ALL_CURVES
100
AcDbLine
 62
4
  6
CONTINUOUS
 10
8.4285632635
 20
9.2386362296
 11
8.4339882635
 21
9.2314028929
  0
LINE
  5
2E2
100
AcDbEntity
  8
03__ASM_ALL_CURVES
100
AcDbLine
 62
4
  6
CONTINUOUS
 10
8.4882382635
 20
9.1663028948
 11
8.4773882635
 21
9.1807695612
  0
LINE
  5
2E3
100
AcDbEntity
  8
03__ASM_ALL_CURVES
100
AcDbLine
 62
4
  6
CONTINUOUS
 10
8.4882382635
 20
9.2169362296
 11
8.4828132635
 21
9.2241695612
  0
LINE
  5
2E4
100
AcDbEntity
  8
03__ASM_ALL_CURVES
100
AcDbLine
 62
4
  6
CONTINUOUS
 10
8.5207882635
 20
9.2024695612
 11
8.5316382635
 21
9.1880028954
  0
LINE
  5
2E5
100
AcDbEntity
  8
03__ASM_ALL_CURVES
100
AcDbLine
 62
4
  6
CONTINUOUS
 10
8.5207882635
 20
9.2386362296
 11
8.5262132635
 21
9.2314028929
  0
LINE
  5
2E6
100
AcDbEntity
  8
03__ASM_ALL_CURVES
100
AcDbLine
 62
4
  6
CONTINUOUS
 10
8.6726882635
 20
9.1735362283
 11
8.6835382635
 21
9.1590695612
  0
LINE
  5
2E7
100
AcDbEntity
  8
03__ASM_ALL_CURVES
100
AcDbLine
 62
4
  6
CONTINUOUS
 10
9.4016481385
 20
7.271591559
 11
9.4087960135
 21
7.243000059
  0
LINE
  5
2E8
100
AcDbEntity
  8
03__ASM_ALL_CURVES
100
AcDbLine
 62
4
  6
CONTINUOUS
 10
9.069271951
 20
7.1762865612
 11
9.069271951
 21
7.1905823117
  0
LINE
  5
2E9
100
AcDbEntity
  8
03__ASM_ALL_CURVES
100
AcDbLine
 62
4
  6
CONTINUOUS
 10
9.1338132635
 20
12.2289362296
 11
9.1338132635
 21
12.2000028954
  0
LINE
  5
2EA
100
AcDbEntity
  8
03__ASM_ALL_CURVES
100
AcDbLine
 62
4
  6
CONTINUOUS
 10
9.2097632635
 20
9.2097028929
 11
9.2097632635
 21
9.195236227
  0
LINE
  5
2EB
100
AcDbEntity
  8
03__ASM_ALL_CURVES
100
AcDbLine
 62
4
  6
CONTINUOUS
 10
9.2206132635
 20
12.2434028929
 11
9.2206132635
 21
12.2361695612
  0
LINE
  5
2EC
100
AcDbEntity
  8
03__ASM_ALL_CURVES
100
AcDbLine
 62
4
  6
CONTINUOUS
 10
9.2260382635
 20
12.2000028954
 11
9.2260382635
 21
12.1927695612
  0
LINE
  5
2ED
100
AcDbEntity
  8
03__ASM_ALL_CURVES
100
AcDbLine
 62
4
  6
CONTINUOUS
 10
9.2801342635
 20
7.2906525612
 11
9.2801342635
 21
7.1762865612
  0
LINE
  5
2EE
100
AcDbEntity
  8
03__ASM_ALL_CURVES
100
AcDbLine
 62
4
  6
CONTINUOUS
 10
9.2992757635
 20
12.1710695612
 11
9.2992757635
 21
12.1819195616
  0
LINE
  5
2EF
100
AcDbEntity
  8
03__ASM_ALL_CURVES
100
AcDbLine
 62
4
  6
CONTINUOUS
 10
9.1121132635
 20
9.1590695612
 11
9.1175382635
 21
9.195236227
  0
LINE
  5
2F0
100
AcDbEntity
  8
03__ASM_ALL_CURVES
100
AcDbLine
 62
4
  6
CONTINUOUS
 10
9.0090382635
 20
9.1807695612
 11
9.0036132635
 21
9.1590695612
  0
LINE
  5
2F1
100
AcDbEntity
  8
03__ASM_ALL_CURVES
100
AcDbLine
 62
4
  6
CONTINUOUS
 10
9.1175382635
 20
9.195236227
 11
9.1229632635
 21
9.2169362296
  0
LINE
  5
2F2
100
AcDbEntity
  8
03__ASM_ALL_CURVES
100
AcDbLine
 62
4
  6
CONTINUOUS
 10
8.7011563885
 20
7.271591559
 11
8.6940085135
 21
7.243000059
  0
LINE
  5
2F3
100
AcDbEntity
  8
03__ASM_ALL_CURVES
100
AcDbLine
 62
4
  6
CONTINUOUS
 10
9.2097632635
 20
9.195236227
 11
9.2043382635
 21
9.1735362283
  0
LINE
  5
2F4
100
AcDbEntity
  8
03__ASM_ALL_CURVES
100
AcDbLine
 62
4
  6
CONTINUOUS
 10
9.1229632635
 20
9.2169362296
 11
9.1338132635
 21
9.2458695612
  0
LINE
  5
2F5
100
AcDbEntity
  8
03__ASM_ALL_CURVES
100
AcDbLine
 62
4
  6
CONTINUOUS
 10
9.0036132635
 20
9.2314028929
 11
9.0090382635
 21
9.2386362296
  0
LINE
  5
2F6
100
AcDbEntity
  8
03__ASM_ALL_CURVES
100
AcDbLine
 62
4
  6
CONTINUOUS
 10
9.0198882635
 20
9.195236227
 11
9.0090382635
 21
9.1807695612
  0
LINE
  5
2F7
100
AcDbEntity
  8
03__ASM_ALL_CURVES
100
AcDbLine
 62
4
  6
CONTINUOUS
 10
9.0470132635
 20
9.2169362296
 11
9.0415882635
 21
9.2097028929
  0
LINE
  5
2F8
100
AcDbEntity
  8
03__ASM_ALL_CURVES
100
AcDbLine
 62
4
  6
CONTINUOUS
 10
8.2332632635
 20
9.2386362296
 11
8.2441132635
 21
9.2458695612
  0
LINE
  5
2F9
100
AcDbEntity
  8
03__ASM_ALL_CURVES
100
AcDbLine
 62
4
  6
CONTINUOUS
 10
8.2549632635
 20
9.1663028948
 11
8.2441132635
 21
9.1590695612
  0
LINE
  5
2FA
100
AcDbEntity
  8
03__ASM_ALL_CURVES
100
AcDbLine
 62
4
  6
CONTINUOUS
 10
8.4068632635
 20
9.2386362296
 11
8.4177132635
 21
9.2458695612
  0
LINE
  5
2FB
100
AcDbEntity
  8
03__ASM_ALL_CURVES
100
AcDbLine
 62
4
  6
CONTINUOUS
 10
8.4882382635
 20
9.2386362296
 11
8.4990882635
 21
9.2458695612
  0
LINE
  5
2FC
100
AcDbEntity
  8
03__ASM_ALL_CURVES
100
AcDbLine
 62
4
  6
CONTINUOUS
 10
8.4285632635
 20
9.1663028948
 11
8.4177132635
 21
9.1590695612
  0
LINE
  5
2FD
100
AcDbEntity
  8
03__ASM_ALL_CURVES
100
AcDbLine
 62
4
  6
CONTINUOUS
 10
8.4882382635
 20
9.2024695612
 11
8.4990882635
 21
9.2097028929
  0
LINE
  5
2FE
100
AcDbEntity
  8
03__ASM_ALL_CURVES
100
AcDbLine
 62
4
  6
CONTINUOUS
 10
8.5207882635
 20
9.2169362296
 11
8.5099382635
 21
9.2097028929
  0
LINE
  5
2FF
100
AcDbEntity
  8
03__ASM_ALL_CURVES
100
AcDbLine
 62
4
  6
CONTINUOUS
 10
10.0090465951
 20
7.9719695612
 11
10.0379799293
 21
7.9719695612
  0
LINE
  5
300
100
AcDbEntity
  8
0
100
AcDbLine
 62
7
  6
CONTINUOUS
 10
10.8435132635
 20
8.0154695612
 11
11.7035132635
 21
8.0154695612
  0
LINE
  5
301
100
AcDbEntity
  8
0
100
AcDbLine
 62
7
  6
CONTINUOUS
 10
10.7845132635
 20
8.0495332271
 11
10.785410791
 21
8.0495332271
  0
LINE
  5
302
100
AcDbEntity
  8
0
100
AcDbLine
 62
7
  6
CONTINUOUS
 10
11.003815736
 20
8.0495332271
 11
11.0551083185
 21
8.0495332271
  0
LINE
  5
303
100
AcDbEntity
  8
0
100
AcDbLine
 62
7
  6
CONTINUOUS
 10
11.4919182085
 20
8.0495332271
 11
11.543210791
 21
8.0495332271
  0
LINE
  5
304
100
AcDbEntity
  8
0
100
AcDbLine
 62
7
  6
CONTINUOUS
 10
11.761615736
 20
8.0495332271
 11
11.7625132635
 21
8.0495332271
  0
LINE
  5
305
100
AcDbEntity
  8
03__ASM_ALL_CURVES
100
AcDbLine
 62
4
  6
CONTINUOUS
 10
10.0379799293
 20
7.9719695612
 11
10.0524465964
 21
7.9665445612
  0
LINE
  5
306
100
AcDbEntity
  8
03__ASM_ALL_CURVES
100
AcDbLine
 62
4
  6
CONTINUOUS
 10
8.2441132635
 20
9.1590695612
 11
8.2332632635
 21
9.1663028948
  0
LINE
  5
307
100
AcDbEntity
  8
03__ASM_ALL_CURVES
100
AcDbLine
 62
4
  6
CONTINUOUS
 10
8.2441132635
 20
9.2458695612
 11
8.2549632635
 21
9.2386362296
  0
LINE
  5
308
100
AcDbEntity
  8
03__ASM_ALL_CURVES
100
AcDbLine
 62
4
  6
CONTINUOUS
 10
8.4177132635
 20
9.1590695612
 11
8.4068632635
 21
9.1663028948
  0
LINE
  5
309
100
AcDbEntity
  8
03__ASM_ALL_CURVES
100
AcDbLine
 62
4
  6
CONTINUOUS
 10
9.4593132635
 20
8.4710695612
 11
9.4484632635
 21
8.4783028948
  0
LINE
  5
30A
100
AcDbEntity
  8
03__ASM_ALL_CURVES
100
AcDbLine
 62
4
  6
CONTINUOUS
 10
8.4990882635
 20
9.1590695612
 11
8.4882382635
 21
9.1663028948
  0
LINE
  5
30B
100
AcDbEntity
  8
03__ASM_ALL_CURVES
100
AcDbLine
 62
4
  6
CONTINUOUS
 10
8.4177132635
 20
9.2458695612
 11
8.4285632635
 21
9.2386362296
  0
LINE
  5
30C
100
AcDbEntity
  8
03__ASM_ALL_CURVES
100
AcDbLine
 62
4
  6
CONTINUOUS
 10
9.4593132635
 20
8.5578695612
 11
9.4701632635
 21
8.5506362296
  0
LINE
  5
30D
100
AcDbEntity
  8
03__ASM_ALL_CURVES
100
AcDbLine
 62
4
  6
CONTINUOUS
 10
9.9945799319
 20
7.9339945612
 11
9.9873465951
 21
7.9394195612
  0
LINE
  5
30E
100
AcDbEntity
  8
03__ASM_ALL_CURVES
100
AcDbLine
 62
4
  6
CONTINUOUS
 10
10.0524465964
 20
7.9665445612
 11
10.0596799299
 21
7.9611195612
  0
LINE
  5
30F
100
AcDbEntity
  8
03__ASM_ALL_CURVES
100
AcDbLine
 62
4
  6
CONTINUOUS
 10
12.4945799319
 20
6.2135695612
 11
12.4873465951
 21
6.2189945612
  0
LINE
  5
310
100
AcDbEntity
  8
03__ASM_ALL_CURVES
100
AcDbLine
 62
4
  6
CONTINUOUS
 10
12.5307465977
 20
6.2298445612
 11
12.5452132635
 21
6.2189945612
  0
LINE
  5
311
100
AcDbEntity
  8
03__ASM_ALL_CURVES
100
AcDbLine
 62
4
  6
CONTINUOUS
 10
12.5090465951
 20
6.2569695612
 11
12.5162799319
 21
6.2515445612
  0
LINE
  5
312
100
AcDbEntity
  8
03__ASM_ALL_CURVES
100
AcDbLine
 62
4
  6
CONTINUOUS
 10
9.4484632635
 20
8.4783028948
 11
9.4430382635
 21
8.4855362283
  0
LINE
  5
313
100
AcDbEntity
  8
03__ASM_ALL_CURVES
100
AcDbLine
 62
4
  6
CONTINUOUS
 10
8.9520757635
 20
9.1699195616
 11
8.9602132635
 21
9.1590695612
  0
LINE
  5
314
100
AcDbEntity
  8
03__ASM_ALL_CURVES
100
AcDbLine
 62
4
  6
CONTINUOUS
 10
9.4701632635
 20
8.5506362296
 11
9.4755882635
 21
8.5434028929
  0
LINE
  5
315
100
AcDbEntity
  8
03__ASM_ALL_CURVES
100
AcDbLine
 62
4
  6
CONTINUOUS
 10
9.4430382635
 20
8.4855362283
 11
9.4376132635
 21
8.5000028954
  0
LINE
  5
316
100
AcDbEntity
  8
03__ASM_ALL_CURVES
100
AcDbLine
 62
4
  6
CONTINUOUS
 10
9.4755882635
 20
8.5434028929
 11
9.4810132635
 21
8.5289362296
  0
LINE
  5
317
100
AcDbEntity
  8
03__ASM_ALL_CURVES
100
AcDbLine
 62
4
  6
CONTINUOUS
 10
9.2043382635
 20
9.2314028929
 11
9.2097632635
 21
9.2097028929
  0
LINE
  5
318
100
AcDbEntity
  8
03__ASM_ALL_CURVES
100
AcDbLine
 62
4
  6
CONTINUOUS
 10
9.3616632635
 20
9.2097028929
 11
9.3616632635
 21
9.195236227
  0
LINE
  5
319
100
AcDbEntity
  8
03__ASM_ALL_CURVES
100
AcDbLine
 62
4
  6
CONTINUOUS
 10
9.3942132635
 20
12.2289362296
 11
9.3942132635
 21
12.2000028954
  0
LINE
  5
31A
100
AcDbEntity
  8
03__ASM_ALL_CURVES
100
AcDbLine
 62
4
  6
CONTINUOUS
 10
9.4087960135
 20
7.243000059
 11
9.4087960135
 21
7.2239390601
  0
LINE
  5
31B
100
AcDbEntity
  8
03__ASM_ALL_CURVES
100
AcDbLine
 62
4
  6
CONTINUOUS
 10
9.4321882635
 20
12.1927695612
 11
9.4321882635
 21
12.2000028954
  0
LINE
  5
31C
100
AcDbEntity
  8
03__ASM_ALL_CURVES
100
AcDbLine
 62
4
  6
CONTINUOUS
 10
9.4376132635
 20
9.2458695612
 11
9.4376132635
 21
9.1590695612
  0
LINE
  5
31D
100
AcDbEntity
  8
03__ASM_ALL_CURVES
100
AcDbLine
 62
4
  6
CONTINUOUS
 10
9.4376132635
 20
8.5000028954
 11
9.4376132635
 21
8.5289362296
  0
LINE
  5
31E
100
AcDbEntity
  8
03__ASM_ALL_CURVES
100
AcDbLine
 62
4
  6
CONTINUOUS
 10
9.4376132635
 20
12.2361695612
 11
9.4376132635
 21
12.2434028929
  0
LINE
  5
31F
100
AcDbEntity
  8
03__ASM_ALL_CURVES
100
AcDbLine
 62
4
  6
CONTINUOUS
 10
9.4810132635
 20
12.2434028929
 11
9.4810132635
 21
12.2361695612
  0
LINE
  5
320
100
AcDbEntity
  8
03__ASM_ALL_CURVES
100
AcDbLine
 62
4
  6
CONTINUOUS
 10
9.4810132635
 20
8.5289362296
 11
9.4810132635
 21
8.5000028954
  0
LINE
  5
321
100
AcDbEntity
  8
03__ASM_ALL_CURVES
100
AcDbLine
 62
4
  6
CONTINUOUS
 10
9.4864382635
 20
12.2000028954
 11
9.4864382635
 21
12.1927695612
  0
LINE
  5
322
100
AcDbEntity
  8
03__ASM_ALL_CURVES
100
AcDbLine
 62
4
  6
CONTINUOUS
 10
9.5244132635
 20
9.2314028929
 11
9.5244132635
 21
9.2241695612
  0
LINE
  5
323
100
AcDbEntity
  8
03__ASM_ALL_CURVES
100
AcDbLine
 62
4
  6
CONTINUOUS
 10
9.5569632635
 20
12.2217028929
 11
9.5569632635
 21
12.207236227
  0
LINE
  5
324
100
AcDbEntity
  8
03__ASM_ALL_CURVES
100
AcDbLine
 62
4
  6
CONTINUOUS
 10
9.1514725135
 20
7.2906525612
 11
9.1443246385
 21
7.243000059
  0
LINE
  5
325
100
AcDbEntity
  8
03__ASM_ALL_CURVES
100
AcDbLine
 62
4
  6
CONTINUOUS
 10
9.3670882635
 20
9.2314028929
 11
9.3616632635
 21
9.2097028929
  0
LINE
  5
326
100
AcDbEntity
  8
03__ASM_ALL_CURVES
100
AcDbLine
 62
4
  6
CONTINUOUS
 10
8.9155926385
 20
7.2048780612
 11
8.9084447635
 21
7.1762865612
  0
LINE
  5
327
100
AcDbEntity
  8
03__ASM_ALL_CURVES
100
AcDbLine
 62
4
  6
CONTINUOUS
 10
9.2043382635
 20
9.1735362283
 11
9.1934882635
 21
9.1590695612
  0
LINE
  5
328
100
AcDbEntity
  8
03__ASM_ALL_CURVES
100
AcDbLine
 62
4
  6
CONTINUOUS
 10
9.3779382635
 20
9.2458695612
 11
9.3670882635
 21
9.2314028929
  0
LINE
  5
329
100
AcDbEntity
  8
03__ASM_ALL_CURVES
100
AcDbLine
 62
4
  6
CONTINUOUS
 10
8.5207882635
 20
9.1663028948
 11
8.5099382635
 21
9.1590695612
  0
LINE
  5
32A
100
AcDbEntity
  8
03__ASM_ALL_CURVES
100
AcDbLine
 62
4
  6
CONTINUOUS
 10
9.0090382635
 20
9.2386362296
 11
9.0198882635
 21
9.2458695612
  0
LINE
  5
32B
100
AcDbEntity
  8
0
100
AcDbLine
 62
7
  6
CONTINUOUS
 10
11.2735132635
 20
10.8938735569
 11
11.7460132635
 21
11.1666715591
  0
LINE
  5
32C
100
AcDbEntity
  8
03__ASM_ALL_CURVES
100
AcDbLine
 62
4
  6
CONTINUOUS
 10
8.4014382635
 20
9.2024695612
 11
8.4177132635
 21
9.2097028929
  0
LINE
  5
32D
100
AcDbEntity
  8
0
100
AcDbLine
 62
7
  6
CONTINUOUS
 10
10.7845132635
 20
8.4229695612
 11
10.785410791
 21
8.4229695612
  0
LINE
  5
32E
100
AcDbEntity
  8
0
100
AcDbLine
 62
7
  6
CONTINUOUS
 10
11.003815736
 20
8.4229695612
 11
11.0551083185
 21
8.4229695612
  0
LINE
  5
32F
100
AcDbEntity
  8
0
100
AcDbLine
 62
7
  6
CONTINUOUS
 10
11.4919182085
 20
8.4229695612
 11
11.543210791
 21
8.4229695612
  0
LINE
  5
330
100
AcDbEntity
  8
0
100
AcDbLine
 62
7
  6
CONTINUOUS
 10
11.761615736
 20
8.4229695612
 11
11.7625132635
 21
8.4229695612
  0
LINE
  5
331
100
AcDbEntity
  8
03__ASM_ALL_CURVES
100
AcDbLine
 62
4
  6
CONTINUOUS
 10
8.4177132635
 20
9.2097028929
 11
8.4339882635
 21
9.2024695612
  0
LINE
  5
332
100
AcDbEntity
  8
0
100
AcDbLine
 62
7
  6
CONTINUOUS
 10
10.7845132635
 20
8.0495332271
 11
10.8435132635
 21
8.0154695612
  0
LINE
  5
333
100
AcDbEntity
  8
03__ASM_ALL_CURVES
100
AcDbLine
 62
4
  6
CONTINUOUS
 10
8.4990882635
 20
9.2097028929
 11
8.4882382635
 21
9.2169362296
  0
LINE
  5
334
100
AcDbEntity
  8
03__ASM_ALL_CURVES
100
AcDbLine
 62
4
  6
CONTINUOUS
 10
8.5099382635
 20
9.2097028929
 11
8.5207882635
 21
9.2024695612
  0
LINE
  5
335
100
AcDbEntity
  8
03__ASM_ALL_CURVES
100
AcDbLine
 62
4
  6
CONTINUOUS
 10
8.5099382635
 20
9.2458695612
 11
8.5207882635
 21
9.2386362296
  0
LINE
  5
336
100
AcDbEntity
  8
03__ASM_ALL_CURVES
100
AcDbLine
 62
4
  6
CONTINUOUS
 10
12.5524465964
 20
6.4305695612
 11
12.5596799299
 21
6.4251445612
  0
LINE
  5
337
100
AcDbEntity
  8
03__ASM_ALL_CURVES
100
AcDbLine
 62
4
  6
CONTINUOUS
 10
12.4801132635
 20
6.5878945612
 11
12.4945799319
 21
6.5770445612
  0
LINE
  5
338
100
AcDbEntity
  8
0
100
AcDbLine
 62
7
  6
CONTINUOUS
 10
11.0890132635
 20
7.2644695612
 11
11.1200132635
 21
7.2334695612
  0
LINE
  5
339
100
AcDbEntity
  8
03__ASM_ALL_CURVES
100
AcDbLine
 62
4
  6
CONTINUOUS
 10
9.0415882635
 20
9.2386362296
 11
9.0470132635
 21
9.2314028929
  0
LINE
  5
33A
100
AcDbEntity
  8
03__ASM_ALL_CURVES
100
AcDbLine
 62
4
  6
CONTINUOUS
 10
9.1934882635
 20
9.2458695612
 11
9.2043382635
 21
9.2314028929
  0
LINE
  5
33B
100
AcDbEntity
  8
03__ASM_ALL_CURVES
100
AcDbLine
 62
4
  6
CONTINUOUS
 10
9.3670882635
 20
9.1735362283
 11
9.3779382635
 21
9.1590695612
  0
LINE
  5
33C
100
AcDbEntity
  8
03__ASM_ALL_CURVES
100
AcDbLine
 62
4
  6
CONTINUOUS
 10
9.9873465951
 20
7.9394195612
 11
9.9801132635
 21
7.9502695612
  0
LINE
  5
33D
100
AcDbEntity
  8
03__ASM_ALL_CURVES
100
AcDbLine
 62
4
  6
CONTINUOUS
 10
10.0596799299
 20
7.9611195612
 11
10.0669132635
 21
7.9502695612
  0
LINE
  5
33E
100
AcDbEntity
  8
03__ASM_ALL_CURVES
100
AcDbLine
 62
4
  6
CONTINUOUS
 10
9.3616632635
 20
9.195236227
 11
9.3670882635
 21
9.1735362283
  0
LINE
  5
33F
100
AcDbEntity
  8
03__ASM_ALL_CURVES
100
AcDbLine
 62
4
  6
CONTINUOUS
 10
9.5678132635
 20
9.1880028954
 11
9.5678132635
 21
9.1735362283
  0
LINE
  5
340
100
AcDbEntity
  8
03__ASM_ALL_CURVES
100
AcDbLine
 62
4
  6
CONTINUOUS
 10
9.6437632635
 20
9.2097028929
 11
9.6437632635
 21
9.195236227
  0
LINE
  5
341
100
AcDbEntity
  8
03__ASM_ALL_CURVES
100
AcDbLine
 62
4
  6
CONTINUOUS
 10
9.6437632635
 20
9.195236227
 11
9.6383382635
 21
9.1735362283
  0
LINE
  5
342
100
AcDbEntity
  8
03__ASM_ALL_CURVES
100
AcDbLine
 62
4
  6
CONTINUOUS
 10
9.4376132635
 20
8.5289362296
 11
9.4430382635
 21
8.5434028929
  0
LINE
  5
343
100
AcDbEntity
  8
03__ASM_ALL_CURVES
100
AcDbLine
 62
4
  6
CONTINUOUS
 10
9.4810132635
 20
8.5000028954
 11
9.4755882635
 21
8.4855362283
  0
LINE
  5
344
100
AcDbEntity
  8
03__ASM_ALL_CURVES
100
AcDbLine
 62
4
  6
CONTINUOUS
 10
9.5298382635
 20
9.2386362296
 11
9.5244132635
 21
9.2314028929
  0
LINE
  5
345
100
AcDbEntity
  8
03__ASM_ALL_CURVES
100
AcDbLine
 62
4
  6
CONTINUOUS
 10
9.5678132635
 20
9.1735362283
 11
9.5623882635
 21
9.1663028948
  0
LINE
  5
346
100
AcDbEntity
  8
03__ASM_ALL_CURVES
100
AcDbLine
 62
4
  6
CONTINUOUS
 10
9.6383382635
 20
9.1735362283
 11
9.6274882635
 21
9.1590695612
  0
LINE
  5
347
100
AcDbEntity
  8
03__ASM_ALL_CURVES
100
AcDbLine
 62
4
  6
CONTINUOUS
 10
10.9060132635
 20
10.4528028942
 11
10.9235132635
 21
10.4644695612
  0
LINE
  5
348
100
AcDbEntity
  8
03__ASM_ALL_CURVES
100
AcDbLine
 62
4
  6
CONTINUOUS
 10
9.0415882635
 20
9.2097028929
 11
9.0198882635
 21
9.195236227
  0
LINE
  5
349
100
AcDbEntity
  8
03__ASM_ALL_CURVES
100
AcDbLine
 62
4
  6
CONTINUOUS
 10
11.0372632635
 20
10.4528028942
 11
11.0547632635
 21
10.4644695612
  0
LINE
  5
34A
100
AcDbEntity
  8
03__ASM_ALL_CURVES
100
AcDbLine
 62
4
  6
CONTINUOUS
 10
10.9585132635
 20
10.3544695609
 11
10.9735132635
 21
10.3644695612
  0
LINE
  5
34B
100
AcDbEntity
  8
03__ASM_ALL_CURVES
100
AcDbLine
 62
4
  6
CONTINUOUS
 10
11.1772632635
 20
10.4528028942
 11
11.1947632635
 21
10.4644695612
  0
LINE
  5
34C
100
AcDbEntity
  8
03__ASM_ALL_CURVES
100
AcDbLine
 62
4
  6
CONTINUOUS
 10
11.0710132635
 20
10.3544695609
 11
11.0860132635
 21
10.3644695612
  0
LINE
  5
34D
100
AcDbEntity
  8
03__ASM_ALL_CURVES
100
AcDbLine
 62
4
  6
CONTINUOUS
 10
11.0897632635
 20
10.3361362251
 11
11.0722632635
 21
10.3244695612
  0
LINE
  5
34E
100
AcDbEntity
  8
0
100
AcDbLine
 62
7
  6
CONTINUOUS
 10
10.8450132635
 20
8.4834695612
 11
11.7020132635
 21
8.4834695612
  0
LINE
  5
34F
100
AcDbEntity
  8
03__ASM_ALL_CURVES
100
AcDbLine
 62
4
  6
CONTINUOUS
 10
9.9367132635
 20
8.5144695612
 11
9.6763132635
 21
8.5144695612
  0
LINE
  5
350
100
AcDbEntity
  8
0
100
AcDbLine
 62
7
  6
CONTINUOUS
 10
10.0235132635
 20
8.5144695612
 11
12.5235132635
 21
8.5144695612
  0
LINE
  5
351
100
AcDbEntity
  8
03__ASM_ALL_CURVES
100
AcDbLine
 62
4
  6
CONTINUOUS
 10
11.4910132635
 20
8.6944695612
 11
11.4160132635
 21
8.6944695612
  0
LINE
  5
352
100
AcDbEntity
  8
03__ASM_ALL_CURVES
100
AcDbLine
 62
4
  6
CONTINUOUS
 10
9.0307382635
 20
9.2458695612
 11
9.0415882635
 21
9.2386362296
  0
LINE
  5
353
100
AcDbEntity
  8
03__ASM_ALL_CURVES
100
AcDbLine
 62
4
  6
CONTINUOUS
 10
12.4945799319
 20
6.6529945612
 11
12.4873465951
 21
6.6584195612
  0
LINE
  5
354
100
AcDbEntity
  8
03__ASM_ALL_CURVES
100
AcDbLine
 62
4
  6
CONTINUOUS
 10
12.5524465964
 20
6.6855445612
 11
12.5596799299
 21
6.6801195612
  0
LINE
  5
355
100
AcDbEntity
  8
03__ASM_ALL_CURVES
100
AcDbLine
 62
4
  6
CONTINUOUS
 10
12.5018132635
 20
6.7777695612
 11
12.5090465951
 21
6.7723445612
  0
LINE
  5
356
100
AcDbEntity
  8
03__ASM_ALL_CURVES
100
AcDbLine
 62
4
  6
CONTINUOUS
 10
12.5452132635
 20
6.7831945612
 11
12.5596799299
 21
6.7723445612
  0
LINE
  5
357
100
AcDbEntity
  8
0
100
AcDbLine
 62
7
  6
CONTINUOUS
 10
10.9000132635
 20
7.5654695612
 11
10.9500132635
 21
7.5154695612
  0
LINE
  5
358
100
AcDbEntity
  8
03__ASM_ALL_CURVES
100
AcDbLine
 62
4
  6
CONTINUOUS
 10
9.5298382635
 20
9.1663028948
 11
9.5189882635
 21
9.1807695612
  0
LINE
  5
359
100
AcDbEntity
  8
03__ASM_ALL_CURVES
100
AcDbLine
 62
4
  6
CONTINUOUS
 10
9.5244132635
 20
9.2241695612
 11
9.5298382635
 21
9.2169362296
  0
LINE
  5
35A
100
AcDbEntity
  8
03__ASM_ALL_CURVES
100
AcDbLine
 62
4
  6
CONTINUOUS
 10
9.5623882635
 20
9.195236227
 11
9.5678132635
 21
9.1880028954
  0
LINE
  5
35B
100
AcDbEntity
  8
03__ASM_ALL_CURVES
100
AcDbLine
 62
4
  6
CONTINUOUS
 10
9.5678132635
 20
9.2314028929
 11
9.5623882635
 21
9.2386362296
  0
LINE
  5
35C
100
AcDbEntity
  8
03__ASM_ALL_CURVES
100
AcDbLine
 62
4
  6
CONTINUOUS
 10
9.6274882635
 20
9.2458695612
 11
9.6383382635
 21
9.2314028929
  0
LINE
  5
35D
100
AcDbEntity
  8
03__ASM_ALL_CURVES
100
AcDbLine
 62
4
  6
CONTINUOUS
 10
9.6383382635
 20
9.2314028929
 11
9.6437632635
 21
9.2097028929
  0
LINE
  5
35E
100
AcDbEntity
  8
03__ASM_ALL_CURVES
100
AcDbLine
 62
4
  6
CONTINUOUS
 10
9.0144632635
 20
12.207236227
 11
9.0198882635
 21
12.1855362283
  0
LINE
  5
35F
100
AcDbEntity
  8
0
100
AcDbLine
 62
7
  6
CONTINUOUS
 10
10.0235132635
 20
12.2144696089
 11
10.0235132635
 21
8.5144695612
  0
LINE
  5
360
100
AcDbEntity
  8
03__ASM_ALL_CURVES
100
AcDbLine
 62
4
  6
CONTINUOUS
 10
10.0235132635
 20
8.4276695612
 11
10.0235132635
 21
8.1672695612
  0
LINE
  5
361
100
AcDbEntity
  8
03__ASM_ALL_CURVES
100
AcDbLine
 62
4
  6
CONTINUOUS
 10
9.4087960135
 20
7.2239390601
 11
9.4016481385
 21
7.1953475618
  0
LINE
  5
362
100
AcDbEntity
  8
03__ASM_ALL_CURVES
100
AcDbLine
 62
4
  6
CONTINUOUS
 10
9.2015076385
 20
7.2144085624
 11
9.1943597635
 21
7.1953475618
  0
LINE
  5
363
100
AcDbEntity
  8
03__ASM_ALL_CURVES
100
AcDbLine
 62
4
  6
CONTINUOUS
 10
10.6347632635
 20
10.4411362272
 11
10.6522632635
 21
10.4644695612
  0
LINE
  5
364
100
AcDbEntity
  8
03__ASM_ALL_CURVES
100
AcDbLine
 62
4
  6
CONTINUOUS
 10
8.3366147635
 20
7.271591559
 11
8.3437626385
 21
7.2811220635
  0
LINE
  5
365
100
AcDbEntity
  8
03__ASM_ALL_CURVES
100
AcDbLine
 62
4
  6
CONTINUOUS
 10
8.3580583885
 20
7.2239390601
 11
8.3437626385
 21
7.2048780612
  0
LINE
  5
366
100
AcDbEntity
  8
03__ASM_ALL_CURVES
100
AcDbLine
 62
4
  6
CONTINUOUS
 10
8.3937977635
 20
7.2525305635
 11
8.3866498885
 21
7.243000059
  0
LINE
  5
367
100
AcDbEntity
  8
03__ASM_ALL_CURVES
100
AcDbLine
 62
4
  6
CONTINUOUS
 10
10.7260132635
 20
10.3444695606
 11
10.7410132635
 21
10.3644695612
  0
LINE
  5
368
100
AcDbEntity
  8
03__ASM_ALL_CURVES
100
AcDbLine
 62
4
  6
CONTINUOUS
 10
8.4509807635
 20
7.271591559
 11
8.4581286385
 21
7.2811220635
  0
LINE
  5
369
100
AcDbEntity
  8
03__ASM_ALL_CURVES
100
AcDbLine
 62
4
  6
CONTINUOUS
 10
8.4438328885
 20
7.2144085624
 11
8.4581286385
 21
7.2334695612
  0
LINE
  5
36A
100
AcDbEntity
  8
03__ASM_ALL_CURVES
100
AcDbLine
 62
4
  6
CONTINUOUS
 10
9.4430382635
 20
8.5434028929
 11
9.4484632635
 21
8.5506362296
  0
LINE
  5
36B
100
AcDbEntity
  8
03__ASM_ALL_CURVES
100
AcDbLine
 62
4
  6
CONTINUOUS
 10
8.5081637635
 20
7.2620610612
 11
8.5010158885
 21
7.2525305635
  0
LINE
  5
36C
100
AcDbEntity
  8
03__ASM_ALL_CURVES
100
AcDbLine
 62
4
  6
CONTINUOUS
 10
10.8885132635
 20
10.4294695612
 11
10.9060132635
 21
10.4528028942
  0
LINE
  5
36D
100
AcDbEntity
  8
03__ASM_ALL_CURVES
100
AcDbLine
 62
4
  6
CONTINUOUS
 10
9.4755882635
 20
8.4855362283
 11
9.4701632635
 21
8.4783028948
  0
LINE
  5
36E
100
AcDbEntity
  8
03__ASM_ALL_CURVES
100
AcDbLine
 62
4
  6
CONTINUOUS
 10
8.5153116385
 20
7.2048780612
 11
8.5010158885
 21
7.1858170615
  0
LINE
  5
36F
100
AcDbEntity
  8
03__ASM_ALL_CURVES
100
AcDbLine
 62
4
  6
CONTINUOUS
 10
11.1910132635
 20
10.3544695609
 11
11.2060132635
 21
10.3644695612
  0
LINE
  5
370
100
AcDbEntity
  8
03__ASM_ALL_CURVES
100
AcDbLine
 62
4
  6
CONTINUOUS
 10
9.5406882635
 20
9.2458695612
 11
9.5298382635
 21
9.2386362296
  0
LINE
  5
371
100
AcDbEntity
  8
03__ASM_ALL_CURVES
100
AcDbLine
 62
4
  6
CONTINUOUS
 10
11.2297632635
 20
10.3361362251
 11
11.2122632635
 21
10.3244695612
  0
LINE
  5
372
100
AcDbEntity
  8
03__ASM_ALL_CURVES
100
AcDbLine
 62
4
  6
CONTINUOUS
 10
11.1160132635
 20
10.2544695589
 11
11.1010132635
 21
10.2444695612
  0
LINE
  5
373
100
AcDbEntity
  8
03__ASM_ALL_CURVES
100
AcDbLine
 62
4
  6
CONTINUOUS
 10
9.5623882635
 20
9.1663028948
 11
9.5515382635
 21
9.1590695612
  0
LINE
  5
374
100
AcDbEntity
  8
03__ASM_ALL_CURVES
100
AcDbLine
 62
4
  6
CONTINUOUS
 10
11.2360132635
 20
10.2544695589
 11
11.2210132635
 21
10.2444695612
  0
LINE
  5
375
100
AcDbEntity
  8
03__ASM_ALL_CURVES
100
AcDbLine
 62
4
  6
CONTINUOUS
 10
11.7460132635
 20
10.4528028942
 11
11.7635132635
 21
10.4644695612
  0
LINE
  5
376
100
AcDbEntity
  8
03__ASM_ALL_CURVES
100
AcDbLine
 62
4
  6
CONTINUOUS
 10
11.3560132635
 20
8.7544695612
 11
11.3110132635
 21
8.7544695612
  0
LINE
  5
377
100
AcDbEntity
  8
03__ASM_ALL_CURVES
100
AcDbLine
 62
4
  6
CONTINUOUS
 10
10.9960132635
 20
8.7744695601
 11
10.9510132635
 21
8.7744695601
  0
LINE
  5
378
100
AcDbEntity
  8
03__ASM_ALL_CURVES
100
AcDbLine
 62
4
  6
CONTINUOUS
 10
10.2710132635
 20
8.9244695612
 11
10.2560132635
 21
8.9244695612
  0
LINE
  5
379
100
AcDbEntity
  8
03__ASM_ALL_CURVES
100
AcDbLine
 62
4
  6
CONTINUOUS
 10
10.2710132635
 20
8.9744695636
 11
10.2560132635
 21
8.9744695636
  0
LINE
  5
37A
100
AcDbEntity
  8
03__ASM_ALL_CURVES
100
AcDbLine
 62
4
  6
CONTINUOUS
 10
9.5406882635
 20
9.1590695612
 11
9.5298382635
 21
9.1663028948
  0
LINE
  5
37B
100
AcDbEntity
  8
03__ASM_ALL_CURVES
100
AcDbLine
 62
4
  6
CONTINUOUS
 10
9.5298382635
 20
9.2169362296
 11
9.5623882635
 21
9.195236227
  0
LINE
  5
37C
100
AcDbEntity
  8
03__ASM_ALL_CURVES
100
AcDbLine
 62
4
  6
CONTINUOUS
 10
9.5623882635
 20
9.2386362296
 11
9.5515382635
 21
9.2458695612
  0
LINE
  5
37D
100
AcDbEntity
  8
03__ASM_ALL_CURVES
100
AcDbLine
 62
4
  6
CONTINUOUS
 10
10.2560132635
 20
8.9244695612
 11
10.2410132635
 21
8.9344695589
  0
LINE
  5
37E
100
AcDbEntity
  8
03__ASM_ALL_CURVES
100
AcDbLine
 62
4
  6
CONTINUOUS
 10
12.5524465964
 20
6.9513695612
 11
12.5596799299
 21
6.9459445612
  0
LINE
  5
37F
100
AcDbEntity
  8
03__ASM_ALL_CURVES
100
AcDbLine
 62
4
  6
CONTINUOUS
 10
12.5524465964
 20
7.0218945612
 11
12.5669132635
 21
7.0110445612
  0
LINE
  5
380
100
AcDbEntity
  8
03__ASM_ALL_CURVES
100
AcDbLine
 62
4
  6
CONTINUOUS
 10
10.2260132635
 20
9.0044695601
 11
10.2260132635
 21
9.0144695612
  0
LINE
  5
381
100
AcDbEntity
  8
03__ASM_ALL_CURVES
100
AcDbLine
 62
4
  6
CONTINUOUS
 10
10.2335132635
 20
8.9444695636
 11
10.2335132635
 21
8.9544695612
  0
LINE
  5
382
100
AcDbEntity
  8
03__ASM_ALL_CURVES
100
AcDbLine
 62
4
  6
CONTINUOUS
 10
10.9435132635
 20
10.3344695612
 11
10.9585132635
 21
10.3544695609
  0
LINE
  5
383
100
AcDbEntity
  8
03__ASM_ALL_CURVES
100
AcDbLine
 62
4
  6
CONTINUOUS
 10
11.0197632635
 20
10.4294695612
 11
11.0372632635
 21
10.4528028942
  0
LINE
  5
384
100
AcDbEntity
  8
03__ASM_ALL_CURVES
100
AcDbLine
 62
4
  6
CONTINUOUS
 10
8.7154521385
 20
7.2906525612
 11
8.7011563885
 21
7.271591559
  0
LINE
  5
385
100
AcDbEntity
  8
03__ASM_ALL_CURVES
100
AcDbLine
 62
4
  6
CONTINUOUS
 10
11.0560132635
 20
10.3344695612
 11
11.0710132635
 21
10.3544695609
  0
LINE
  5
386
100
AcDbEntity
  8
03__ASM_ALL_CURVES
100
AcDbLine
 62
4
  6
CONTINUOUS
 10
11.1685132635
 20
10.4411362272
 11
11.1772632635
 21
10.4528028942
  0
LINE
  5
387
100
AcDbEntity
  8
03__ASM_ALL_CURVES
100
AcDbLine
 62
4
  6
CONTINUOUS
 10
11.1072632635
 20
10.3594695612
 11
11.0897632635
 21
10.3361362251
  0
LINE
  5
388
100
AcDbEntity
  8
03__ASM_ALL_CURVES
100
AcDbLine
 62
4
  6
CONTINUOUS
 10
8.8512617635
 20
7.2620610612
 11
8.8441138885
 21
7.2525305635
  0
LINE
  5
389
100
AcDbEntity
  8
03__ASM_ALL_CURVES
100
AcDbLine
 62
4
  6
CONTINUOUS
 10
11.1835132635
 20
10.3444695606
 11
11.1910132635
 21
10.3544695609
  0
LINE
  5
38A
100
AcDbEntity
  8
03__ASM_ALL_CURVES
100
AcDbLine
 62
4
  6
CONTINUOUS
 10
11.1310132635
 20
10.2744695612
 11
11.1160132635
 21
10.2544695589
  0
LINE
  5
38B
100
AcDbEntity
  8
03__ASM_ALL_CURVES
100
AcDbLine
 62
4
  6
CONTINUOUS
 10
11.6785132635
 20
10.3544695609
 11
11.6935132635
 21
10.3644695612
  0
LINE
  5
38C
100
AcDbEntity
  8
03__ASM_ALL_CURVES
100
AcDbLine
 62
4
  6
CONTINUOUS
 10
10.2560132635
 20
9.0444695612
 11
10.2710132635
 21
9.0444695612
  0
LINE
  5
38D
100
AcDbEntity
  8
03__ASM_ALL_CURVES
100
AcDbLine
 62
4
  6
CONTINUOUS
 10
9.5515382635
 20
9.1590695612
 11
9.5406882635
 21
9.1590695612
  0
LINE
  5
38E
100
AcDbEntity
  8
03__ASM_ALL_CURVES
100
AcDbLine
 62
4
  6
CONTINUOUS
 10
8.9602132635
 20
9.1590695612
 11
8.9520757635
 21
9.1590695612
  0
LINE
  5
38F
100
AcDbEntity
  8
03__ASM_ALL_CURVES
100
AcDbLine
 62
4
  6
CONTINUOUS
 10
8.5099382635
 20
9.1590695612
 11
8.4990882635
 21
9.1590695612
  0
LINE
  5
390
100
AcDbEntity
  8
03__ASM_ALL_CURVES
100
AcDbLine
 62
4
  6
CONTINUOUS
 10
8.3526132635
 20
9.1590695612
 11
8.3444757635
 21
9.1590695612
  0
LINE
  5
391
100
AcDbEntity
  8
03__ASM_ALL_CURVES
100
AcDbLine
 62
4
  6
CONTINUOUS
 10
9.0036132635
 20
9.1590695612
 11
9.0470132635
 21
9.1590695612
  0
LINE
  5
392
100
AcDbEntity
  8
03__ASM_ALL_CURVES
100
AcDbLine
 62
4
  6
CONTINUOUS
 10
9.4376132635
 20
9.1590695612
 11
9.4810132635
 21
9.1590695612
  0
LINE
  5
393
100
AcDbEntity
  8
03__ASM_ALL_CURVES
100
AcDbLine
 62
4
  6
CONTINUOUS
 10
9.9367132635
 20
9.2024695612
 11
9.6763132635
 21
9.2024695612
  0
LINE
  5
394
100
AcDbEntity
  8
03__ASM_ALL_CURVES
100
AcDbLine
 62
4
  6
CONTINUOUS
 10
8.4990882635
 20
9.2097028929
 11
8.5099382635
 21
9.2097028929
  0
LINE
  5
395
100
AcDbEntity
  8
03__ASM_ALL_CURVES
100
AcDbLine
 62
4
  6
CONTINUOUS
 10
10.2560132635
 20
8.9744695636
 11
10.2410132635
 21
8.9844695612
  0
LINE
  5
396
100
AcDbEntity
  8
03__ASM_ALL_CURVES
100
AcDbLine
 62
4
  6
CONTINUOUS
 10
10.2710132635
 20
9.0444695612
 11
10.2860132635
 21
9.0344695609
  0
LINE
  5
397
100
AcDbEntity
  8
03__ASM_ALL_CURVES
100
AcDbLine
 62
4
  6
CONTINUOUS
 10
10.2410132635
 20
8.9344695589
 11
10.2335132635
 21
8.9444695636
  0
LINE
  5
398
100
AcDbEntity
  8
03__ASM_ALL_CURVES
100
AcDbLine
 62
4
  6
CONTINUOUS
 10
10.2410132635
 20
8.9844695612
 11
10.2260132635
 21
9.0044695601
  0
LINE
  5
399
100
AcDbEntity
  8
03__ASM_ALL_CURVES
100
AcDbLine
 62
4
  6
CONTINUOUS
 10
10.2860132635
 20
9.0344695609
 11
10.2935132635
 21
9.0244695606
  0
LINE
  5
39A
100
AcDbEntity
  8
03__ASM_ALL_CURVES
100
AcDbLine
 62
4
  6
CONTINUOUS
 10
9.0958382635
 20
12.2144695612
 11
9.0904132635
 21
12.2289362296
  0
LINE
  5
39B
100
AcDbEntity
  8
03__ASM_ALL_CURVES
100
AcDbLine
 62
4
  6
CONTINUOUS
 10
9.1283882635
 20
12.2434028929
 11
9.1338132635
 21
12.2289362296
  0
LINE
  5
39C
100
AcDbEntity
  8
03__ASM_ALL_CURVES
100
AcDbLine
 62
4
  6
CONTINUOUS
 10
9.5515382635
 20
12.2434028929
 11
9.5569632635
 21
12.2217028929
  0
LINE
  5
39D
100
AcDbEntity
  8
03__ASM_ALL_CURVES
100
AcDbLine
 62
4
  6
CONTINUOUS
 10
10.6260132635
 20
10.4061362293
 11
10.6347632635
 21
10.4411362272
  0
LINE
  5
39E
100
AcDbEntity
  8
03__ASM_ALL_CURVES
100
AcDbLine
 62
4
  6
CONTINUOUS
 10
10.7185132635
 20
10.3144695624
 11
10.7260132635
 21
10.3444695606
  0
LINE
  5
39F
100
AcDbEntity
  8
03__ASM_ALL_CURVES
100
AcDbLine
 62
4
  6
CONTINUOUS
 10
10.8797632635
 20
10.3944695612
 11
10.8885132635
 21
10.4294695612
  0
LINE
  5
3A0
100
AcDbEntity
  8
03__ASM_ALL_CURVES
100
AcDbLine
 62
4
  6
CONTINUOUS
 10
8.9084447635
 20
7.271591559
 11
8.9155926385
 21
7.2811220635
  0
LINE
  5
3A1
100
AcDbEntity
  8
03__ASM_ALL_CURVES
100
AcDbLine
 62
4
  6
CONTINUOUS
 10
8.8584096385
 20
7.2048780612
 11
8.8441138885
 21
7.1858170615
  0
LINE
  5
3A2
100
AcDbEntity
  8
03__ASM_ALL_CURVES
100
AcDbLine
 62
4
  6
CONTINUOUS
 10
10.2260132635
 20
9.0144695612
 11
10.2410132635
 21
9.0344695609
  0
LINE
  5
3A3
100
AcDbEntity
  8
03__ASM_ALL_CURVES
100
AcDbLine
 62
4
  6
CONTINUOUS
 10
11.2472632635
 20
10.3594695612
 11
11.2297632635
 21
10.3361362251
  0
LINE
  5
3A4
100
AcDbEntity
  8
03__ASM_ALL_CURVES
100
AcDbLine
 62
4
  6
CONTINUOUS
 10
8.9298883885
 20
7.2239390601
 11
8.9155926385
 21
7.2048780612
  0
LINE
  5
3A5
100
AcDbEntity
  8
03__ASM_ALL_CURVES
100
AcDbLine
 62
4
  6
CONTINUOUS
 10
10.2335132635
 20
8.9544695612
 11
10.2410132635
 21
8.9644695589
  0
LINE
  5
3A6
100
AcDbEntity
  8
03__ASM_ALL_CURVES
100
AcDbLine
 62
4
  6
CONTINUOUS
 10
8.9656277635
 20
7.2525305635
 11
8.9584798885
 21
7.243000059
  0
LINE
  5
3A7
100
AcDbEntity
  8
03__ASM_ALL_CURVES
100
AcDbLine
 62
4
  6
CONTINUOUS
 10
11.2510132635
 20
10.2744695612
 11
11.2360132635
 21
10.2544695589
  0
LINE
  5
3A8
100
AcDbEntity
  8
03__ASM_ALL_CURVES
100
AcDbLine
 62
4
  6
CONTINUOUS
 10
9.4484632635
 20
8.5506362296
 11
9.4593132635
 21
8.5578695612
  0
LINE
  5
3A9
100
AcDbEntity
  8
03__ASM_ALL_CURVES
100
AcDbLine
 62
4
  6
CONTINUOUS
 10
10.2410132635
 20
9.0344695609
 11
10.2560132635
 21
9.0444695612
  0
LINE
  5
3AA
100
AcDbEntity
  8
03__ASM_ALL_CURVES
100
AcDbLine
 62
4
  6
CONTINUOUS
 10
9.4701632635
 20
8.4783028948
 11
9.4593132635
 21
8.4710695612
  0
LINE
  5
3AB
100
AcDbEntity
  8
03__ASM_ALL_CURVES
100
AcDbLine
 62
4
  6
CONTINUOUS
 10
10.2410132635
 20
8.9644695589
 11
10.2560132635
 21
8.9744695636
  0
LINE
  5
3AC
100
AcDbEntity
  8
03__ASM_ALL_CURVES
100
AcDbLine
 62
4
  6
CONTINUOUS
 10
10.2860132635
 20
8.9344695589
 11
10.2710132635
 21
8.9244695612
  0
LINE
  5
3AD
100
AcDbEntity
  8
03__ASM_ALL_CURVES
100
AcDbLine
 62
4
  6
CONTINUOUS
 10
9.5515382635
 20
9.2458695612
 11
9.5406882635
 21
9.2458695612
  0
LINE
  5
3AE
100
AcDbEntity
  8
03__ASM_ALL_CURVES
100
AcDbLine
 62
4
  6
CONTINUOUS
 10
9.1338132635
 20
9.2458695612
 11
9.0904132635
 21
9.2458695612
  0
LINE
  5
3AF
100
AcDbEntity
  8
03__ASM_ALL_CURVES
100
AcDbLine
 62
4
  6
CONTINUOUS
 10
8.8734132635
 20
9.2458695612
 11
8.8300132635
 21
9.2458695612
  0
LINE
  5
3B0
100
AcDbEntity
  8
03__ASM_ALL_CURVES
100
AcDbLine
 62
4
  6
CONTINUOUS
 10
8.4990882635
 20
9.2458695612
 11
8.5099382635
 21
9.2458695612
  0
LINE
  5
3B1
100
AcDbEntity
  8
03__ASM_ALL_CURVES
100
AcDbLine
 62
4
  6
CONTINUOUS
 10
9.0198882635
 20
9.2458695612
 11
9.0307382635
 21
9.2458695612
  0
LINE
  5
3B2
100
AcDbEntity
  8
03__ASM_ALL_CURVES
100
AcDbLine
 62
4
  6
CONTINUOUS
 10
12.4873465951
 20
6.2189945612
 11
12.4801132635
 21
6.2298445612
  0
LINE
  5
3B3
100
AcDbEntity
  8
03__ASM_ALL_CURVES
100
AcDbLine
 62
4
  6
CONTINUOUS
 10
12.5162799319
 20
6.2515445612
 11
12.5307465977
 21
6.2298445612
  0
LINE
  5
3B4
100
AcDbEntity
  8
03__ASM_ALL_CURVES
100
AcDbLine
 62
4
  6
CONTINUOUS
 10
9.3562382635
 20
12.2144695612
 11
9.3508132635
 21
12.2289362296
  0
LINE
  5
3B5
100
AcDbEntity
  8
03__ASM_ALL_CURVES
100
AcDbLine
 62
4
  6
CONTINUOUS
 10
9.3887882635
 20
12.2434028929
 11
9.3942132635
 21
12.2289362296
  0
LINE
  5
3B6
100
AcDbEntity
  8
03__ASM_ALL_CURVES
100
AcDbLine
 62
4
  6
CONTINUOUS
 10
10.6260132635
 20
10.3828028974
 11
10.6260132635
 21
10.4061362293
  0
LINE
  5
3B7
100
AcDbEntity
  8
03__ASM_ALL_CURVES
100
AcDbLine
 62
4
  6
CONTINUOUS
 10
10.7185132635
 20
10.2944695636
 11
10.7185132635
 21
10.3144695624
  0
LINE
  5
3B8
100
AcDbEntity
  8
0
100
AcDbLine
 62
7
  6
CONTINUOUS
 10
10.7335132635
 20
9.7944695612
 11
10.7335132635
 21
9.8244695612
  0
LINE
  5
3B9
100
AcDbEntity
  8
0
100
AcDbLine
 62
7
  6
CONTINUOUS
 10
10.7845132635
 20
8.4229695612
 11
10.7845132635
 21
8.0495332271
  0
LINE
  5
3BA
100
AcDbEntity
  8
0
100
AcDbLine
 62
7
  6
CONTINUOUS
 10
10.785410791
 20
8.4229695612
 11
10.785410791
 21
8.0495332271
  0
LINE
  5
3BB
100
AcDbEntity
  8
0
100
AcDbLine
 62
7
  6
CONTINUOUS
 10
10.7935132635
 20
9.7644695612
 11
10.7935132635
 21
9.7944695612
  0
LINE
  5
3BC
100
AcDbEntity
  8
0
100
AcDbLine
 62
7
  6
CONTINUOUS
 10
10.8010132635
 20
11.7122675634
 11
10.8010132635
 21
11.1666715591
  0
LINE
  5
3BD
100
AcDbEntity
  8
03__ASM_ALL_CURVES
100
AcDbLine
 62
4
  6
CONTINUOUS
 10
10.8185132635
 20
10.4644695612
 11
10.8185132635
 21
10.3244695612
  0
LINE
  5
3BE
100
AcDbEntity
  8
03__ASM_ALL_CURVES
100
AcDbLine
 62
4
  6
CONTINUOUS
 10
10.9360132635
 20
10.3044695612
 11
10.9435132635
 21
10.3344695612
  0
LINE
  5
3BF
100
AcDbEntity
  8
03__ASM_ALL_CURVES
100
AcDbLine
 62
4
  6
CONTINUOUS
 10
11.0110132635
 20
10.3944695612
 11
11.0197632635
 21
10.4294695612
  0
LINE
  5
3C0
100
AcDbEntity
  8
03__ASM_ALL_CURVES
100
AcDbLine
 62
4
  6
CONTINUOUS
 10
11.0485132635
 20
10.3044695612
 11
11.0560132635
 21
10.3344695612
  0
LINE
  5
3C1
100
AcDbEntity
  8
03__ASM_ALL_CURVES
100
AcDbLine
 62
4
  6
CONTINUOUS
 10
11.1160132635
 20
10.3944695612
 11
11.1072632635
 21
10.3594695612
  0
LINE
  5
3C2
100
AcDbEntity
  8
03__ASM_ALL_CURVES
100
AcDbLine
 62
4
  6
CONTINUOUS
 10
11.2472632635
 20
10.0444695612
 11
11.3085132635
 21
10.1494695612
  0
LINE
  5
3C3
100
AcDbEntity
  8
03__ASM_ALL_CURVES
100
AcDbLine
 62
4
  6
CONTINUOUS
 10
11.2510132635
 20
10.0044695612
 11
11.3035132635
 21
10.0944695612
  0
LINE
  5
3C4
100
AcDbEntity
  8
03__ASM_ALL_CURVES
100
AcDbLine
 62
4
  6
CONTINUOUS
 10
9.9801132635
 20
7.9502695612
 11
9.9873465951
 21
7.9611195612
  0
LINE
  5
3C5
100
AcDbEntity
  8
03__ASM_ALL_CURVES
100
AcDbLine
 62
4
  6
CONTINUOUS
 10
10.0669132635
 20
7.9502695612
 11
10.0596799299
 21
7.9394195612
  0
LINE
  5
3C6
100
AcDbEntity
  8
03__ASM_ALL_CURVES
100
AcDbLine
 62
4
  6
CONTINUOUS
 10
9.1943597635
 20
7.1953475618
 11
9.1872118885
 21
7.1858170615
  0
LINE
  5
3C7
100
AcDbEntity
  8
03__ASM_ALL_CURVES
100
AcDbLine
 62
4
  6
CONTINUOUS
 10
11.7285132635
 20
10.4294695612
 11
11.7460132635
 21
10.4528028942
  0
LINE
  5
3C8
100
AcDbEntity
  8
03__ASM_ALL_CURVES
100
AcDbLine
 62
4
  6
CONTINUOUS
 10
11.6635132635
 20
10.3344695612
 11
11.6785132635
 21
10.3544695609
  0
LINE
  5
3C9
100
AcDbEntity
  8
03__ASM_ALL_CURVES
100
AcDbLine
 62
4
  6
CONTINUOUS
 10
9.4016481385
 20
7.1953475618
 11
9.3873523885
 21
7.1762865612
  0
LINE
  5
3CA
100
AcDbEntity
  8
03__ASM_ALL_CURVES
100
AcDbLine
 62
4
  6
CONTINUOUS
 10
12.2610132635
 20
9.9144695636
 11
12.2910132635
 21
9.9344695624
  0
LINE
  5
3CB
100
AcDbEntity
  8
03__ASM_ALL_CURVES
100
AcDbLine
 62
4
  6
CONTINUOUS
 10
8.3437626385
 20
7.2811220635
 11
8.3580583885
 21
7.2906525612
  0
LINE
  5
3CC
100
AcDbEntity
  8
0
100
AcDbLine
 62
7
  6
CONTINUOUS
 10
11.7535132635
 20
9.7044695612
 11
11.6935132635
 21
9.7044695612
  0
LINE
  5
3CD
100
AcDbEntity
  8
0
100
AcDbLine
 62
7
  6
CONTINUOUS
 10
11.8735132635
 20
9.7044695612
 11
11.9335132635
 21
9.7044695612
  0
LINE
  5
3CE
100
AcDbEntity
  8
0
100
AcDbLine
 62
7
  6
CONTINUOUS
 10
10.9410132635
 20
9.7344695612
 11
10.9260132635
 21
9.7344695612
  0
LINE
  5
3CF
100
AcDbEntity
  8
0
100
AcDbLine
 62
7
  6
CONTINUOUS
 10
11.7020132635
 20
8.4834695612
 11
11.7625132635
 21
8.4229695612
  0
LINE
  5
3D0
100
AcDbEntity
  8
03__ASM_ALL_CURVES
100
AcDbLine
 62
4
  6
CONTINUOUS
 10
8.6618382635
 20
12.1783028948
 11
8.6564132635
 21
12.1855362283
  0
LINE
  5
3D1
100
AcDbEntity
  8
03__ASM_ALL_CURVES
100
AcDbLine
 62
4
  6
CONTINUOUS
 10
8.6943882635
 20
12.2144695612
 11
8.7052382635
 21
12.2000028954
  0
LINE
  5
3D2
100
AcDbEntity
  8
03__ASM_ALL_CURVES
100
AcDbLine
 62
4
  6
CONTINUOUS
 10
12.5162799319
 20
6.3925945612
 11
12.5090465951
 21
6.4034445612
  0
LINE
  5
3D3
100
AcDbEntity
  8
03__ASM_ALL_CURVES
100
AcDbLine
 62
4
  6
CONTINUOUS
 10
12.5596799299
 20
6.4251445612
 11
12.5669132635
 21
6.4142945612
  0
LINE
  5
3D4
100
AcDbEntity
  8
03__ASM_ALL_CURVES
100
AcDbLine
 62
4
  6
CONTINUOUS
 10
12.4873465951
 20
6.6584195612
 11
12.4801132635
 21
6.6692695612
  0
LINE
  5
3D5
100
AcDbEntity
  8
03__ASM_ALL_CURVES
100
AcDbLine
 62
4
  6
CONTINUOUS
 10
12.4873465951
 20
6.7397945612
 11
12.4801132635
 21
6.7506445612
  0
LINE
  5
3D6
100
AcDbEntity
  8
03__ASM_ALL_CURVES
100
AcDbLine
 62
4
  6
CONTINUOUS
 10
12.5596799299
 20
6.6801195612
 11
12.5669132635
 21
6.6692695612
  0
LINE
  5
3D7
100
AcDbEntity
  8
03__ASM_ALL_CURVES
100
AcDbLine
 62
4
  6
CONTINUOUS
 10
12.5090465951
 20
6.7723445612
 11
12.5162799319
 21
6.7614945612
  0
LINE
  5
3D8
100
AcDbEntity
  8
03__ASM_ALL_CURVES
100
AcDbLine
 62
4
  6
CONTINUOUS
 10
10.9735132635
 20
8.6944695612
 11
10.9360132635
 21
8.8144695612
  0
LINE
  5
3D9
100
AcDbEntity
  8
0
100
AcDbLine
 62
7
  6
CONTINUOUS
 10
10.8450132635
 20
8.5144695612
 11
10.8450132635
 21
8.4834695612
  0
LINE
  5
3DA
100
AcDbEntity
  8
03__ASM_ALL_CURVES
100
AcDbLine
 62
4
  6
CONTINUOUS
 10
10.8835132635
 20
10.3644695612
 11
10.8835132635
 21
10.2444695612
  0
LINE
  5
3DB
100
AcDbEntity
  8
0
100
AcDbLine
 62
7
  6
CONTINUOUS
 10
10.8935132635
 20
9.7644695612
 11
10.8935132635
 21
9.8244695612
  0
LINE
  5
3DC
100
AcDbEntity
  8
0
100
AcDbLine
 62
7
  6
CONTINUOUS
 10
10.9000132635
 20
8.0154695612
 11
10.9000132635
 21
7.6644695612
  0
LINE
  5
3DD
100
AcDbEntity
  8
0
100
AcDbLine
 62
7
  6
CONTINUOUS
 10
10.9000132635
 20
7.6164695612
 11
10.9000132635
 21
7.5654695612
  0
LINE
  5
3DE
100
AcDbEntity
  8
0
100
AcDbLine
 62
7
  6
CONTINUOUS
 10
10.9235132635
 20
7.6514695612
 11
10.9235132635
 21
7.6294695612
  0
LINE
  5
3DF
100
AcDbEntity
  8
0
100
AcDbLine
 62
7
  6
CONTINUOUS
 10
10.9335132635
 20
9.8244695612
 11
10.9335132635
 21
9.7644695612
  0
LINE
  5
3E0
100
AcDbEntity
  8
03__ASM_ALL_CURVES
100
AcDbLine
 62
4
  6
CONTINUOUS
 10
10.9585132635
 20
10.4644695612
 11
10.9585132635
 21
10.3244695612
  0
LINE
  5
3E1
100
AcDbEntity
  8
0
100
AcDbLine
 62
7
  6
CONTINUOUS
 10
10.9735132635
 20
9.8244695612
 11
10.9735132635
 21
9.7044695612
  0
LINE
  5
3E2
100
AcDbEntity
  8
0
100
AcDbLine
 62
7
  6
CONTINUOUS
 10
10.99248802
 20
7.2964695612
 11
10.99248802
 21
7.5154695244
  0
LINE
  5
3E3
100
AcDbEntity
  8
03__ASM_ALL_CURVES
100
AcDbLine
 62
4
  6
CONTINUOUS
 10
11.0035132635
 20
10.3644695612
 11
11.0035132635
 21
10.2444695612
  0
LINE
  5
3E4
100
AcDbEntity
  8
0
100
AcDbLine
 62
7
  6
CONTINUOUS
 10
11.003815736
 20
8.4229695612
 11
11.003815736
 21
8.0495332271
  0
LINE
  5
3E5
100
AcDbEntity
  8
0
100
AcDbLine
 62
7
  6
CONTINUOUS
 10
11.0135132635
 20
9.8244695612
 11
11.0135132635
 21
9.7644695612
  0
LINE
  5
3E6
100
AcDbEntity
  8
0
100
AcDbLine
 62
7
  6
CONTINUOUS
 10
11.0551083185
 20
8.4229695612
 11
11.0551083185
 21
8.0495332271
  0
LINE
  5
3E7
100
AcDbEntity
  8
0
100
AcDbLine
 62
7
  6
CONTINUOUS
 10
11.0735132635
 20
9.7644695612
 11
11.0735132635
 21
9.8244695612
  0
LINE
  5
3E8
100
AcDbEntity
  8
03__ASM_ALL_CURVES
100
AcDbLine
 62
4
  6
CONTINUOUS
 10
11.1385132635
 20
10.3044695612
 11
11.1310132635
 21
10.2744695612
  0
LINE
  5
3E9
100
AcDbEntity
  8
03__ASM_ALL_CURVES
100
AcDbLine
 62
4
  6
CONTINUOUS
 10
11.2560132635
 20
10.3944695612
 11
11.2472632635
 21
10.3594695612
  0
LINE
  5
3EA
100
AcDbEntity
  8
03__ASM_ALL_CURVES
100
AcDbLine
 62
4
  6
CONTINUOUS
 10
11.2585132635
 20
10.3044695612
 11
11.2510132635
 21
10.2744695612
  0
LINE
  5
3EB
100
AcDbEntity
  8
03__ASM_ALL_CURVES
100
AcDbLine
 62
4
  6
CONTINUOUS
 10
11.4485132635
 20
10.1844695612
 11
11.3785132635
 21
10.0444695612
  0
LINE
  5
3EC
100
AcDbEntity
  8
03__ASM_ALL_CURVES
100
AcDbLine
 62
4
  6
CONTINUOUS
 10
11.4235132635
 20
10.1244695612
 11
11.3635132635
 21
10.0044695612
  0
LINE
  5
3ED
100
AcDbEntity
  8
03__ASM_ALL_CURVES
100
AcDbLine
 62
4
  6
CONTINUOUS
 10
11.8060132635
 20
10.2444695612
 11
11.8210132635
 21
10.2644695636
  0
LINE
  5
3EE
100
AcDbEntity
  8
03__ASM_ALL_CURVES
100
AcDbLine
 62
4
  6
CONTINUOUS
 10
11.8947632635
 20
10.3244695612
 11
11.9122632635
 21
10.3478028974
  0
LINE
  5
3EF
100
AcDbEntity
  8
03__ASM_ALL_CURVES
100
AcDbLine
 62
4
  6
CONTINUOUS
 10
12.3060132635
 20
9.8744695589
 11
12.2910132635
 21
9.8644695612
  0
LINE
  5
3F0
100
AcDbEntity
  8
03__ASM_ALL_CURVES
100
AcDbLine
 62
4
  6
CONTINUOUS
 10
8.3866498885
 20
7.243000059
 11
8.3580583885
 21
7.2239390601
  0
LINE
  5
3F1
100
AcDbEntity
  8
03__ASM_ALL_CURVES
100
AcDbLine
 62
4
  6
CONTINUOUS
 10
8.4581286385
 20
7.2811220635
 11
8.4724243885
 21
7.2906525612
  0
LINE
  5
3F2
100
AcDbEntity
  8
03__ASM_ALL_CURVES
100
AcDbLine
 62
4
  6
CONTINUOUS
 10
8.4581286385
 20
7.2334695612
 11
8.4724243885
 21
7.243000059
  0
LINE
  5
3F3
100
AcDbEntity
  8
03__ASM_ALL_CURVES
100
AcDbLine
 62
4
  6
CONTINUOUS
 10
8.5010158885
 20
7.2525305635
 11
8.4867201385
 21
7.243000059
  0
LINE
  5
3F4
100
AcDbEntity
  8
03__ASM_ALL_CURVES
100
AcDbLine
 62
4
  6
CONTINUOUS
 10
8.5010158885
 20
7.1858170615
 11
8.4867201385
 21
7.1762865612
  0
LINE
  5
3F5
100
AcDbEntity
  8
03__ASM_ALL_CURVES
100
AcDbLine
 62
4
  6
CONTINUOUS
 10
8.8012266385
 20
7.2811220635
 11
8.8155223885
 21
7.2906525612
  0
LINE
  5
3F6
100
AcDbEntity
  8
0
100
AcDbLine
 62
7
  6
CONTINUOUS
 10
11.9335132635
 20
9.7644695612
 11
11.8735132635
 21
9.7644695612
  0
LINE
  5
3F7
100
AcDbEntity
  8
0
100
AcDbLine
 62
7
  6
CONTINUOUS
 10
11.3735132635
 20
9.7644695612
 11
11.3135132635
 21
9.7644695612
  0
LINE
  5
3F8
100
AcDbEntity
  8
0
100
AcDbLine
 62
7
  6
CONTINUOUS
 10
11.2735132635
 20
9.7644695612
 11
11.2135132635
 21
9.7644695612
  0
LINE
  5
3F9
100
AcDbEntity
  8
0
100
AcDbLine
 62
7
  6
CONTINUOUS
 10
10.8935132635
 20
9.7644695612
 11
10.8335132635
 21
9.7644695612
  0
LINE
  5
3FA
100
AcDbEntity
  8
0
100
AcDbLine
 62
7
  6
CONTINUOUS
 10
10.7935132635
 20
9.7644695612
 11
10.7335132635
 21
9.7644695612
  0
LINE
  5
3FB
100
AcDbEntity
  8
0
100
AcDbLine
 62
7
  6
CONTINUOUS
 10
11.1135132635
 20
9.7644695612
 11
11.1535132635
 21
9.7644695612
  0
LINE
  5
3FC
100
AcDbEntity
  8
0
100
AcDbLine
 62
7
  6
CONTINUOUS
 10
11.5135132635
 20
9.7644695612
 11
11.5735132635
 21
9.7644695612
  0
LINE
  5
3FD
100
AcDbEntity
  8
0
100
AcDbLine
 62
7
  6
CONTINUOUS
 10
11.1735132635
 20
9.7844695612
 11
11.1135132635
 21
9.7844695612
  0
LINE
  5
3FE
100
AcDbEntity
  8
0
100
AcDbLine
 62
7
  6
CONTINUOUS
 10
10.7935132635
 20
9.7944695612
 11
10.7335132635
 21
9.7944695612
  0
LINE
  5
3FF
100
AcDbEntity
  8
0
100
AcDbLine
 62
7
  6
CONTINUOUS
 10
11.0735132635
 20
9.8244695612
 11
11.0135132635
 21
9.8244695612
  0
LINE
  5
400
100
AcDbEntity
  8
0
100
AcDbLine
 62
7
  6
CONTINUOUS
 10
10.8935132635
 20
9.8244695612
 11
10.8335132635
 21
9.8244695612
  0
LINE
  5
401
100
AcDbEntity
  8
0
100
AcDbLine
 62
7
  6
CONTINUOUS
 10
10.7335132635
 20
9.8244695612
 11
10.7935132635
 21
9.8244695612
  0
LINE
  5
402
100
AcDbEntity
  8
0
100
AcDbLine
 62
7
  6
CONTINUOUS
 10
11.1135132635
 20
9.8244695612
 11
11.1735132635
 21
9.8244695612
  0
LINE
  5
403
100
AcDbEntity
  8
0
100
AcDbLine
 62
7
  6
CONTINUOUS
 10
11.3135132635
 20
9.8244695612
 11
11.3735132635
 21
9.8244695612
  0
LINE
  5
404
100
AcDbEntity
  8
0
100
AcDbLine
 62
7
  6
CONTINUOUS
 10
11.4135132635
 20
9.8244695612
 11
11.4735132635
 21
9.8244695612
  0
LINE
  5
405
100
AcDbEntity
  8
0
100
AcDbLine
 62
7
  6
CONTINUOUS
 10
11.7835132635
 20
9.8244695612
 11
11.8435132635
 21
9.8244695612
  0
LINE
  5
406
100
AcDbEntity
  8
0
100
AcDbLine
 62
7
  6
CONTINUOUS
 10
11.8735132635
 20
9.8244695612
 11
11.9335132635
 21
9.8244695612
  0
LINE
  5
407
100
AcDbEntity
  8
03__ASM_ALL_CURVES
100
AcDbLine
 62
4
  6
CONTINUOUS
 10
12.2910132635
 20
9.8644695612
 11
12.2760132635
 21
9.8644695612
  0
LINE
  5
408
100
AcDbEntity
  8
0
100
AcDbLine
 62
7
  6
CONTINUOUS
 10
11.4135132635
 20
9.8844695612
 11
11.4535132635
 21
9.8844695612
  0
LINE
  5
409
100
AcDbEntity
  8
03__ASM_ALL_CURVES
100
AcDbLine
 62
4
  6
CONTINUOUS
 10
12.3135132635
 20
9.9844695612
 11
12.2535132635
 21
9.9844695612
  0
LINE
  5
40A
100
AcDbEntity
  8
03__ASM_ALL_CURVES
100
AcDbLine
 62
4
  6
CONTINUOUS
 10
8.6943882635
 20
12.2506362296
 11
8.6998132635
 21
12.2434028929
  0
LINE
  5
40B
100
AcDbEntity
  8
03__ASM_ALL_CURVES
100
AcDbLine
 62
4
  6
CONTINUOUS
 10
8.7784757635
 20
12.1819195616
 11
8.7866132635
 21
12.1710695612
  0
LINE
  5
40C
100
AcDbEntity
  8
03__ASM_ALL_CURVES
100
AcDbLine
 62
4
  6
CONTINUOUS
 10
9.0198882635
 20
12.1855362283
 11
9.0307382635
 21
12.1710695612
  0
LINE
  5
40D
100
AcDbEntity
  8
03__ASM_ALL_CURVES
100
AcDbLine
 62
4
  6
CONTINUOUS
 10
12.5596799299
 20
6.7723445612
 11
12.5669132635
 21
6.7614945612
  0
LINE
  5
40E
100
AcDbEntity
  8
03__ASM_ALL_CURVES
100
AcDbLine
 62
4
  6
CONTINUOUS
 10
12.5162799319
 20
6.9133945612
 11
12.5090465951
 21
6.9242445612
  0
LINE
  5
40F
100
AcDbEntity
  8
03__ASM_ALL_CURVES
100
AcDbLine
 62
4
  6
CONTINUOUS
 10
12.5596799299
 20
6.9459445612
 11
12.5669132635
 21
6.9350945612
  0
LINE
  5
410
100
AcDbEntity
  8
03__ASM_ALL_CURVES
100
AcDbLine
 62
4
  6
CONTINUOUS
 10
10.6347632635
 20
10.3478028974
 11
10.6260132635
 21
10.3828028974
  0
LINE
  5
411
100
AcDbEntity
  8
03__ASM_ALL_CURVES
100
AcDbLine
 62
4
  6
CONTINUOUS
 10
10.7260132635
 20
10.2644695636
 11
10.7185132635
 21
10.2944695636
  0
LINE
  5
412
100
AcDbEntity
  8
0
100
AcDbLine
 62
7
  6
CONTINUOUS
 10
11.0890132635
 20
7.2964695612
 11
11.0890132635
 21
7.2644695612
  0
LINE
  5
413
100
AcDbEntity
  8
03__ASM_ALL_CURVES
100
AcDbLine
 62
4
  6
CONTINUOUS
 10
11.0935132635
 20
8.6944695612
 11
11.0935132635
 21
8.8144695612
  0
LINE
  5
414
100
AcDbEntity
  8
0
100
AcDbLine
 62
7
  6
CONTINUOUS
 10
11.1135132635
 20
9.7644695612
 11
11.1135132635
 21
9.8244695612
  0
LINE
  5
415
100
AcDbEntity
  8
03__ASM_ALL_CURVES
100
AcDbLine
 62
4
  6
CONTINUOUS
 10
11.1685132635
 20
10.1844695612
 11
11.1685132635
 21
10.0444695612
  0
LINE
  5
416
100
AcDbEntity
  8
0
100
AcDbLine
 62
7
  6
CONTINUOUS
 10
11.1735132635
 20
9.8244695612
 11
11.1735132635
 21
9.7844695612
  0
LINE
  5
417
100
AcDbEntity
  8
03__ASM_ALL_CURVES
100
AcDbLine
 62
4
  6
CONTINUOUS
 10
11.1835132635
 20
10.1244695612
 11
11.1835132635
 21
10.0044695612
  0
LINE
  5
418
100
AcDbEntity
  8
03__ASM_ALL_CURVES
100
AcDbLine
 62
4
  6
CONTINUOUS
 10
11.2135132635
 20
8.6944695612
 11
11.2135132635
 21
8.8144695612
  0
LINE
  5
419
100
AcDbEntity
  8
03__ASM_ALL_CURVES
100
AcDbLine
 62
4
  6
CONTINUOUS
 10
11.2472632635
 20
10.1844695612
 11
11.2472632635
 21
10.0444695612
  0
LINE
  5
41A
100
AcDbEntity
  8
03__ASM_ALL_CURVES
100
AcDbLine
 62
4
  6
CONTINUOUS
 10
11.2510132635
 20
10.1244695612
 11
11.2510132635
 21
10.0044695612
  0
LINE
  5
41B
100
AcDbEntity
  8
0
100
AcDbLine
 62
7
  6
CONTINUOUS
 10
11.2735132635
 20
7.4903548245
 11
11.2735132635
 21
7.321584298
  0
LINE
  5
41C
100
AcDbEntity
  8
0
100
AcDbLine
 62
7
  6
CONTINUOUS
 10
11.2735132635
 20
9.7644695612
 11
11.2735132635
 21
9.8244695612
  0
LINE
  5
41D
100
AcDbEntity
  8
0
100
AcDbLine
 62
7
  6
CONTINUOUS
 10
11.3135132635
 20
9.7044695612
 11
11.3135132635
 21
9.8244695612
  0
LINE
  5
41E
100
AcDbEntity
  8
03__ASM_ALL_CURVES
100
AcDbLine
 62
4
  6
CONTINUOUS
 10
11.0110132635
 20
8.8144695612
 11
10.9735132635
 21
8.6944695612
  0
LINE
  5
41F
100
AcDbEntity
  8
03__ASM_ALL_CURVES
100
AcDbLine
 62
4
  6
CONTINUOUS
 10
11.6110132635
 20
10.3644695612
 11
11.5735132635
 21
10.2444695612
  0
LINE
  5
420
100
AcDbEntity
  8
03__ASM_ALL_CURVES
100
AcDbLine
 62
4
  6
CONTINUOUS
 10
11.6672632635
 20
10.4644695612
 11
11.6235132635
 21
10.3244695612
  0
LINE
  5
421
100
AcDbEntity
  8
0
100
AcDbLine
 62
7
  6
CONTINUOUS
 10
10.8450132635
 20
8.4834695612
 11
10.7845132635
 21
8.4229695612
  0
LINE
  5
422
100
AcDbEntity
  8
03__ASM_ALL_CURVES
100
AcDbLine
 62
4
  6
CONTINUOUS
 10
9.9873465951
 20
7.9611195612
 11
9.9945799319
 21
7.9665445612
  0
LINE
  5
423
100
AcDbEntity
  8
03__ASM_ALL_CURVES
100
AcDbLine
 62
4
  6
CONTINUOUS
 10
10.0596799299
 20
7.9394195612
 11
10.0524465964
 21
7.9339945612
  0
LINE
  5
424
100
AcDbEntity
  8
03__ASM_ALL_CURVES
100
AcDbLine
 62
4
  6
CONTINUOUS
 10
8.8441138885
 20
7.2525305635
 11
8.8298181385
 21
7.243000059
  0
LINE
  5
425
100
AcDbEntity
  8
03__ASM_ALL_CURVES
100
AcDbLine
 62
4
  6
CONTINUOUS
 10
8.9155926385
 20
7.2811220635
 11
8.9298883885
 21
7.2906525612
  0
LINE
  5
426
100
AcDbEntity
  8
03__ASM_ALL_CURVES
100
AcDbLine
 62
4
  6
CONTINUOUS
 10
8.8441138885
 20
7.1858170615
 11
8.8298181385
 21
7.1762865612
  0
LINE
  5
427
100
AcDbEntity
  8
03__ASM_ALL_CURVES
100
AcDbLine
 62
4
  6
CONTINUOUS
 10
8.9584798885
 20
7.243000059
 11
8.9298883885
 21
7.2239390601
  0
LINE
  5
428
100
AcDbEntity
  8
03__ASM_ALL_CURVES
100
AcDbLine
 62
4
  6
CONTINUOUS
 10
9.1443246385
 20
7.243000059
 11
9.1586203885
 21
7.2525305635
  0
LINE
  5
429
100
AcDbEntity
  8
03__ASM_ALL_CURVES
100
AcDbLine
 62
4
  6
CONTINUOUS
 10
9.9945799319
 20
7.9665445612
 11
10.0090465951
 21
7.9719695612
  0
LINE
  5
42A
100
AcDbEntity
  8
03__ASM_ALL_CURVES
100
AcDbLine
 62
4
  6
CONTINUOUS
 10
11.1835132635
 20
10.0044695612
 11
11.1235132635
 21
10.0044695612
  0
LINE
  5
42B
100
AcDbEntity
  8
03__ASM_ALL_CURVES
100
AcDbLine
 62
4
  6
CONTINUOUS
 10
11.1685132635
 20
10.0444695612
 11
11.0985132635
 21
10.0444695612
  0
LINE
  5
42C
100
AcDbEntity
  8
03__ASM_ALL_CURVES
100
AcDbLine
 62
4
  6
CONTINUOUS
 10
11.1835132635
 20
10.0644695612
 11
11.1460132635
 21
10.0644695612
  0
LINE
  5
42D
100
AcDbEntity
  8
03__ASM_ALL_CURVES
100
AcDbLine
 62
4
  6
CONTINUOUS
 10
11.3035132635
 20
10.0944695612
 11
11.2360132635
 21
10.0944695612
  0
LINE
  5
42E
100
AcDbEntity
  8
03__ASM_ALL_CURVES
100
AcDbLine
 62
4
  6
CONTINUOUS
 10
11.1685132635
 20
10.1144695612
 11
11.1247632635
 21
10.1144695612
  0
LINE
  5
42F
100
AcDbEntity
  8
03__ASM_ALL_CURVES
100
AcDbLine
 62
4
  6
CONTINUOUS
 10
11.3085132635
 20
10.1494695612
 11
11.2297632635
 21
10.1494695612
  0
LINE
  5
430
100
AcDbEntity
  8
03__ASM_ALL_CURVES
100
AcDbLine
 62
4
  6
CONTINUOUS
 10
11.7235132635
 20
10.2444695612
 11
11.6935132635
 21
10.2444695612
  0
LINE
  5
431
100
AcDbEntity
  8
03__ASM_ALL_CURVES
100
AcDbLine
 62
4
  6
CONTINUOUS
 10
11.4910132635
 20
10.2444695612
 11
11.4160132635
 21
10.2444695612
  0
LINE
  5
432
100
AcDbEntity
  8
03__ASM_ALL_CURVES
100
AcDbLine
 62
4
  6
CONTINUOUS
 10
11.3635132635
 20
10.2444695612
 11
11.3035132635
 21
10.2444695612
  0
LINE
  5
433
100
AcDbEntity
  8
03__ASM_ALL_CURVES
100
AcDbLine
 62
4
  6
CONTINUOUS
 10
11.2210132635
 20
10.2444695612
 11
11.2060132635
 21
10.2444695612
  0
LINE
  5
434
100
AcDbEntity
  8
03__ASM_ALL_CURVES
100
AcDbLine
 62
4
  6
CONTINUOUS
 10
11.1010132635
 20
10.2444695612
 11
11.0860132635
 21
10.2444695612
  0
LINE
  5
435
100
AcDbEntity
  8
03__ASM_ALL_CURVES
100
AcDbLine
 62
4
  6
CONTINUOUS
 10
11.0035132635
 20
10.2444695612
 11
10.9735132635
 21
10.2444695612
  0
LINE
  5
436
100
AcDbEntity
  8
03__ASM_ALL_CURVES
100
AcDbLine
 62
4
  6
CONTINUOUS
 10
10.8835132635
 20
10.2444695612
 11
10.8235132635
 21
10.2444695612
  0
LINE
  5
437
100
AcDbEntity
  8
03__ASM_ALL_CURVES
100
AcDbLine
 62
4
  6
CONTINUOUS
 10
9.1012632635
 20
12.1783028948
 11
9.0958382635
 21
12.1855362283
  0
LINE
  5
438
100
AcDbEntity
  8
03__ASM_ALL_CURVES
100
AcDbLine
 62
4
  6
CONTINUOUS
 10
9.1229632635
 20
12.2506362296
 11
9.1283882635
 21
12.2434028929
  0
LINE
  5
439
100
AcDbEntity
  8
03__ASM_ALL_CURVES
100
AcDbLine
 62
4
  6
CONTINUOUS
 10
9.1826382635
 20
12.1783028948
 11
9.1772132635
 21
12.1855362283
  0
LINE
  5
43A
100
AcDbEntity
  8
03__ASM_ALL_CURVES
100
AcDbLine
 62
4
  6
CONTINUOUS
 10
9.2151882635
 20
12.2144695612
 11
9.2260382635
 21
12.2000028954
  0
LINE
  5
43B
100
AcDbEntity
  8
03__ASM_ALL_CURVES
100
AcDbLine
 62
4
  6
CONTINUOUS
 10
10.6522632635
 20
10.3244695612
 11
10.6347632635
 21
10.3478028974
  0
LINE
  5
43C
100
AcDbEntity
  8
03__ASM_ALL_CURVES
100
AcDbLine
 62
4
  6
CONTINUOUS
 10
9.2151882635
 20
12.2506362296
 11
9.2206132635
 21
12.2434028929
  0
LINE
  5
43D
100
AcDbEntity
  8
03__ASM_ALL_CURVES
100
AcDbLine
 62
4
  6
CONTINUOUS
 10
10.7410132635
 20
10.2444695612
 11
10.7260132635
 21
10.2644695636
  0
LINE
  5
43E
100
AcDbEntity
  8
03__ASM_ALL_CURVES
100
AcDbLine
 62
4
  6
CONTINUOUS
 10
9.2992757635
 20
12.1819195616
 11
9.3074132635
 21
12.1710695612
  0
LINE
  5
43F
100
AcDbEntity
  8
03__ASM_ALL_CURVES
100
AcDbLine
 62
4
  6
CONTINUOUS
 10
9.3616632635
 20
12.1783028948
 11
9.3562382635
 21
12.1855362283
  0
LINE
  5
440
100
AcDbEntity
  8
03__ASM_ALL_CURVES
100
AcDbLine
 62
4
  6
CONTINUOUS
 10
12.5235132635
 20
6.6529945612
 11
12.5162799319
 21
6.6692695612
  0
LINE
  5
441
100
AcDbEntity
  8
03__ASM_ALL_CURVES
100
AcDbLine
 62
4
  6
CONTINUOUS
 10
10.8885132635
 20
10.3594695612
 11
10.8797632635
 21
10.3944695612
  0
LINE
  5
442
100
AcDbEntity
  8
03__ASM_ALL_CURVES
100
AcDbLine
 62
4
  6
CONTINUOUS
 10
10.9435132635
 20
10.2744695612
 11
10.9360132635
 21
10.3044695612
  0
LINE
  5
443
100
AcDbEntity
  8
03__ASM_ALL_CURVES
100
AcDbLine
 62
4
  6
CONTINUOUS
 10
11.0197632635
 20
10.3594695612
 11
11.0110132635
 21
10.3944695612
  0
LINE
  5
444
100
AcDbEntity
  8
03__ASM_ALL_CURVES
100
AcDbLine
 62
4
  6
CONTINUOUS
 10
11.0560132635
 20
10.2744695612
 11
11.0485132635
 21
10.3044695612
  0
LINE
  5
445
100
AcDbEntity
  8
03__ASM_ALL_CURVES
100
AcDbLine
 62
4
  6
CONTINUOUS
 10
11.3635132635
 20
10.3644695612
 11
11.3635132635
 21
10.2444695612
  0
LINE
  5
446
100
AcDbEntity
  8
0
100
AcDbLine
 62
7
  6
CONTINUOUS
 10
11.3735132635
 20
9.8244695612
 11
11.3735132635
 21
9.7644695612
  0
LINE
  5
447
100
AcDbEntity
  8
03__ASM_ALL_CURVES
100
AcDbLine
 62
4
  6
CONTINUOUS
 10
11.3785132635
 20
10.4644695612
 11
11.3785132635
 21
10.3244695612
  0
LINE
  5
448
100
AcDbEntity
  8
0
100
AcDbLine
 62
7
  6
CONTINUOUS
 10
11.4135132635
 20
9.7644695612
 11
11.4135132635
 21
9.8844695612
  0
LINE
  5
449
100
AcDbEntity
  8
03__ASM_ALL_CURVES
100
AcDbLine
 62
4
  6
CONTINUOUS
 10
11.4535132635
 20
8.6944695612
 11
11.4535132635
 21
8.8144695612
  0
LINE
  5
44A
100
AcDbEntity
  8
03__ASM_ALL_CURVES
100
AcDbLine
 62
4
  6
CONTINUOUS
 10
11.4535132635
 20
10.2444695612
 11
11.4535132635
 21
10.3644695612
  0
LINE
  5
44B
100
AcDbEntity
  8
0
100
AcDbLine
 62
7
  6
CONTINUOUS
 10
11.4580132635
 20
7.2964695612
 11
11.4580132635
 21
7.2644695612
  0
LINE
  5
44C
100
AcDbEntity
  8
0
100
AcDbLine
 62
7
  6
CONTINUOUS
 10
11.4735132635
 20
9.8244695612
 11
11.4735132635
 21
9.7644695612
  0
LINE
  5
44D
100
AcDbEntity
  8
03__ASM_ALL_CURVES
100
AcDbLine
 62
4
  6
CONTINUOUS
 10
11.4835132635
 20
10.3244695612
 11
11.4835132635
 21
10.4644695612
  0
LINE
  5
44E
100
AcDbEntity
  8
0
100
AcDbLine
 62
7
  6
CONTINUOUS
 10
11.4919182085
 20
8.4229695612
 11
11.4919182085
 21
8.0495332271
  0
LINE
  5
44F
100
AcDbEntity
  8
0
100
AcDbLine
 62
7
  6
CONTINUOUS
 10
11.5135132635
 20
9.8244695612
 11
11.5135132635
 21
9.7644695612
  0
LINE
  5
450
100
AcDbEntity
  8
0
100
AcDbLine
 62
7
  6
CONTINUOUS
 10
11.543210791
 20
8.4229695612
 11
11.543210791
 21
8.0495332271
  0
LINE
  5
451
100
AcDbEntity
  8
0
100
AcDbLine
 62
7
  6
CONTINUOUS
 10
11.554538507
 20
7.5154643625
 11
11.554538507
 21
7.2964746817
  0
LINE
  5
452
100
AcDbEntity
  8
0
100
AcDbLine
 62
7
  6
CONTINUOUS
 10
11.5735132635
 20
9.8244695612
 11
11.5735132635
 21
9.7044695612
  0
LINE
  5
453
100
AcDbEntity
  8
03__ASM_ALL_CURVES
100
AcDbLine
 62
4
  6
CONTINUOUS
 10
11.6560132635
 20
10.3044695612
 11
11.6635132635
 21
10.3344695612
  0
LINE
  5
454
100
AcDbEntity
  8
03__ASM_ALL_CURVES
100
AcDbLine
 62
4
  6
CONTINUOUS
 10
11.7197632635
 20
10.3944695612
 11
11.7285132635
 21
10.4294695612
  0
LINE
  5
455
100
AcDbEntity
  8
03__ASM_ALL_CURVES
100
AcDbLine
 62
4
  6
CONTINUOUS
 10
11.8210132635
 20
10.2644695636
 11
11.8285132635
 21
10.2944695636
  0
LINE
  5
456
100
AcDbEntity
  8
03__ASM_ALL_CURVES
100
AcDbLine
 62
4
  6
CONTINUOUS
 10
11.9122632635
 20
10.3478028974
 11
11.9210132635
 21
10.3828028974
  0
LINE
  5
457
100
AcDbEntity
  8
03__ASM_ALL_CURVES
100
AcDbLine
 62
4
  6
CONTINUOUS
 10
12.2535132635
 20
9.9044695589
 11
12.2610132635
 21
9.9144695636
  0
LINE
  5
458
100
AcDbEntity
  8
03__ASM_ALL_CURVES
100
AcDbLine
 62
4
  6
CONTINUOUS
 10
12.2910132635
 20
9.9344695624
 11
12.3060132635
 21
9.9544695612
  0
LINE
  5
459
100
AcDbEntity
  8
03__ASM_ALL_CURVES
100
AcDbLine
 62
4
  6
CONTINUOUS
 10
12.3135132635
 20
9.8844695636
 11
12.3060132635
 21
9.8744695589
  0
LINE
  5
45A
100
AcDbEntity
  8
03__ASM_ALL_CURVES
100
AcDbLine
 62
4
  6
CONTINUOUS
 10
9.1872118885
 20
7.1858170615
 11
9.1729161385
 21
7.1762865612
  0
LINE
  5
45B
100
AcDbEntity
  8
03__ASM_ALL_CURVES
100
AcDbLine
 62
4
  6
CONTINUOUS
 10
10.0524465964
 20
7.9339945612
 11
10.0379799293
 21
7.9285695612
  0
LINE
  5
45C
100
AcDbEntity
  8
03__ASM_ALL_CURVES
100
AcDbLine
 62
4
  6
CONTINUOUS
 10
11.3635132635
 20
10.3044695612
 11
11.3260132635
 21
10.3044695612
  0
LINE
  5
45D
100
AcDbEntity
  8
03__ASM_ALL_CURVES
100
AcDbLine
 62
4
  6
CONTINUOUS
 10
10.8835132635
 20
10.3044695612
 11
10.8460132635
 21
10.3044695612
  0
LINE
  5
45E
100
AcDbEntity
  8
03__ASM_ALL_CURVES
100
AcDbLine
 62
4
  6
CONTINUOUS
 10
11.7985132635
 20
10.3244695612
 11
11.7635132635
 21
10.3244695612
  0
LINE
  5
45F
100
AcDbEntity
  8
03__ASM_ALL_CURVES
100
AcDbLine
 62
4
  6
CONTINUOUS
 10
11.5960132635
 20
10.3244695601
 11
11.5510132635
 21
10.3244695601
  0
LINE
  5
460
100
AcDbEntity
  8
03__ASM_ALL_CURVES
100
AcDbLine
 62
4
  6
CONTINUOUS
 10
11.5272632635
 20
10.3244695612
 11
11.4397632635
 21
10.3244695612
  0
LINE
  5
461
100
AcDbEntity
  8
03__ASM_ALL_CURVES
100
AcDbLine
 62
4
  6
CONTINUOUS
 10
11.3785132635
 20
10.3244695612
 11
11.3085132635
 21
10.3244695612
  0
LINE
  5
462
100
AcDbEntity
  8
03__ASM_ALL_CURVES
100
AcDbLine
 62
4
  6
CONTINUOUS
 10
11.2122632635
 20
10.3244695612
 11
11.1947632635
 21
10.3244695612
  0
LINE
  5
463
100
AcDbEntity
  8
03__ASM_ALL_CURVES
100
AcDbLine
 62
4
  6
CONTINUOUS
 10
11.0722632635
 20
10.3244695612
 11
11.0547632635
 21
10.3244695612
  0
LINE
  5
464
100
AcDbEntity
  8
03__ASM_ALL_CURVES
100
AcDbLine
 62
4
  6
CONTINUOUS
 10
10.9585132635
 20
10.3244695612
 11
10.9235132635
 21
10.3244695612
  0
LINE
  5
465
100
AcDbEntity
  8
03__ASM_ALL_CURVES
100
AcDbLine
 62
4
  6
CONTINUOUS
 10
10.8185132635
 20
10.3244695612
 11
10.7485132635
 21
10.3244695612
  0
LINE
  5
466
100
AcDbEntity
  8
03__ASM_ALL_CURVES
100
AcDbLine
 62
4
  6
CONTINUOUS
 10
10.8235132635
 20
10.3644695612
 11
10.8835132635
 21
10.3644695612
  0
LINE
  5
467
100
AcDbEntity
  8
03__ASM_ALL_CURVES
100
AcDbLine
 62
4
  6
CONTINUOUS
 10
10.9735132635
 20
10.3644695612
 11
11.0035132635
 21
10.3644695612
  0
LINE
  5
468
100
AcDbEntity
  8
03__ASM_ALL_CURVES
100
AcDbLine
 62
4
  6
CONTINUOUS
 10
11.0860132635
 20
10.3644695612
 11
11.1010132635
 21
10.3644695612
  0
LINE
  5
469
100
AcDbEntity
  8
03__ASM_ALL_CURVES
100
AcDbLine
 62
4
  6
CONTINUOUS
 10
11.2060132635
 20
10.3644695612
 11
11.2210132635
 21
10.3644695612
  0
LINE
  5
46A
100
AcDbEntity
  8
03__ASM_ALL_CURVES
100
AcDbLine
 62
4
  6
CONTINUOUS
 10
11.3035132635
 20
10.3644695612
 11
11.3635132635
 21
10.3644695612
  0
LINE
  5
46B
100
AcDbEntity
  8
03__ASM_ALL_CURVES
100
AcDbLine
 62
4
  6
CONTINUOUS
 10
11.6935132635
 20
10.3644695612
 11
11.7235132635
 21
10.3644695612
  0
LINE
  5
46C
100
AcDbEntity
  8
03__ASM_ALL_CURVES
100
AcDbLine
 62
4
  6
CONTINUOUS
 10
11.3785132635
 20
10.3944695612
 11
11.3347632635
 21
10.3944695612
  0
LINE
  5
46D
100
AcDbEntity
  8
03__ASM_ALL_CURVES
100
AcDbLine
 62
4
  6
CONTINUOUS
 10
10.8185132635
 20
10.3944695612
 11
10.7747632635
 21
10.3944695612
  0
LINE
  5
46E
100
AcDbEntity
  8
03__ASM_ALL_CURVES
100
AcDbLine
 62
4
  6
CONTINUOUS
 10
11.6497632635
 20
10.4178028932
 11
11.5972632635
 21
10.4178028932
  0
LINE
  5
46F
100
AcDbEntity
  8
03__ASM_ALL_CURVES
100
AcDbLine
 62
4
  6
CONTINUOUS
 10
10.7485132635
 20
10.4644695612
 11
10.8185132635
 21
10.4644695612
  0
LINE
  5
470
100
AcDbEntity
  8
03__ASM_ALL_CURVES
100
AcDbLine
 62
4
  6
CONTINUOUS
 10
10.9235132635
 20
10.4644695612
 11
10.9585132635
 21
10.4644695612
  0
LINE
  5
471
100
AcDbEntity
  8
03__ASM_ALL_CURVES
100
AcDbLine
 62
4
  6
CONTINUOUS
 10
11.0547632635
 20
10.4644695612
 11
11.0722632635
 21
10.4644695612
  0
LINE
  5
472
100
AcDbEntity
  8
03__ASM_ALL_CURVES
100
AcDbLine
 62
4
  6
CONTINUOUS
 10
11.1947632635
 20
10.4644695612
 11
11.2122632635
 21
10.4644695612
  0
LINE
  5
473
100
AcDbEntity
  8
03__ASM_ALL_CURVES
100
AcDbLine
 62
4
  6
CONTINUOUS
 10
11.3085132635
 20
10.4644695612
 11
11.3785132635
 21
10.4644695612
  0
LINE
  5
474
100
AcDbEntity
  8
03__ASM_ALL_CURVES
100
AcDbLine
 62
4
  6
CONTINUOUS
 10
11.7635132635
 20
10.4644695612
 11
11.7985132635
 21
10.4644695612
  0
LINE
  5
475
100
AcDbEntity
  8
03__ASM_ALL_CURVES
100
AcDbLine
 62
4
  6
CONTINUOUS
 10
10.9735132635
 20
10.2444695612
 11
10.9585132635
 21
10.2544695589
  0
LINE
  5
476
100
AcDbEntity
  8
03__ASM_ALL_CURVES
100
AcDbLine
 62
4
  6
CONTINUOUS
 10
10.9235132635
 20
10.3244695612
 11
10.9060132635
 21
10.3361362251
  0
LINE
  5
477
100
AcDbEntity
  8
03__ASM_ALL_CURVES
100
AcDbLine
 62
4
  6
CONTINUOUS
 10
9.3833632635
 20
12.2506362296
 11
9.3887882635
 21
12.2434028929
  0
LINE
  5
478
100
AcDbEntity
  8
03__ASM_ALL_CURVES
100
AcDbLine
 62
4
  6
CONTINUOUS
 10
9.4430382635
 20
12.1783028948
 11
9.4321882635
 21
12.1927695612
  0
LINE
  5
479
100
AcDbEntity
  8
03__ASM_ALL_CURVES
100
AcDbLine
 62
4
  6
CONTINUOUS
 10
9.4430382635
 20
12.2289362296
 11
9.4376132635
 21
12.2361695612
  0
LINE
  5
47A
100
AcDbEntity
  8
03__ASM_ALL_CURVES
100
AcDbLine
 62
4
  6
CONTINUOUS
 10
9.4755882635
 20
12.2144695612
 11
9.4864382635
 21
12.2000028954
  0
LINE
  5
47B
100
AcDbEntity
  8
03__ASM_ALL_CURVES
100
AcDbLine
 62
4
  6
CONTINUOUS
 10
10.9585132635
 20
10.2544695589
 11
10.9435132635
 21
10.2744695612
  0
LINE
  5
47C
100
AcDbEntity
  8
03__ASM_ALL_CURVES
100
AcDbLine
 62
4
  6
CONTINUOUS
 10
10.9060132635
 20
10.3361362251
 11
10.8885132635
 21
10.3594695612
  0
LINE
  5
47D
100
AcDbEntity
  8
03__ASM_ALL_CURVES
100
AcDbLine
 62
4
  6
CONTINUOUS
 10
9.4755882635
 20
12.2506362296
 11
9.4810132635
 21
12.2434028929
  0
LINE
  5
47E
100
AcDbEntity
  8
03__ASM_ALL_CURVES
100
AcDbLine
 62
4
  6
CONTINUOUS
 10
9.5406882635
 20
12.2578695612
 11
9.5515382635
 21
12.2434028929
  0
LINE
  5
47F
100
AcDbEntity
  8
03__ASM_ALL_CURVES
100
AcDbLine
 62
4
  6
CONTINUOUS
 10
11.0710132635
 20
10.2544695589
 11
11.0560132635
 21
10.2744695612
  0
LINE
  5
480
100
AcDbEntity
  8
03__ASM_ALL_CURVES
100
AcDbLine
 62
4
  6
CONTINUOUS
 10
11.0372632635
 20
10.3361362251
 11
11.0197632635
 21
10.3594695612
  0
LINE
  5
481
100
AcDbEntity
  8
03__ASM_ALL_CURVES
100
AcDbLine
 62
4
  6
CONTINUOUS
 10
11.1072632635
 20
10.4294695612
 11
11.1160132635
 21
10.3944695612
  0
LINE
  5
482
100
AcDbEntity
  8
03__ASM_ALL_CURVES
100
AcDbLine
 62
4
  6
CONTINUOUS
 10
11.1310132635
 20
10.3344695612
 11
11.1385132635
 21
10.3044695612
  0
LINE
  5
483
100
AcDbEntity
  8
03__ASM_ALL_CURVES
100
AcDbLine
 62
4
  6
CONTINUOUS
 10
11.2510132635
 20
10.3344695612
 11
11.2585132635
 21
10.3044695612
  0
LINE
  5
484
100
AcDbEntity
  8
03__ASM_ALL_CURVES
100
AcDbLine
 62
4
  6
CONTINUOUS
 10
11.2472632635
 20
10.4294695612
 11
11.2560132635
 21
10.3944695612
  0
LINE
  5
485
100
AcDbEntity
  8
0
100
AcDbLine
 62
7
  6
CONTINUOUS
 10
11.6235132635
 20
7.6514695612
 11
11.6235132635
 21
7.6294695612
  0
LINE
  5
486
100
AcDbEntity
  8
0
100
AcDbLine
 62
7
  6
CONTINUOUS
 10
11.6470132635
 20
8.0154695612
 11
11.6470132635
 21
7.6644695612
  0
LINE
  5
487
100
AcDbEntity
  8
0
100
AcDbLine
 62
7
  6
CONTINUOUS
 10
11.6470132635
 20
7.6164695612
 11
11.6470132635
 21
7.5654695612
  0
LINE
  5
488
100
AcDbEntity
  8
0
100
AcDbLine
 62
7
  6
CONTINUOUS
 10
11.6935132635
 20
9.7044695612
 11
11.6935132635
 21
9.8244695612
  0
LINE
  5
489
100
AcDbEntity
  8
0
100
AcDbLine
 62
7
  6
CONTINUOUS
 10
11.7020132635
 20
8.5144695612
 11
11.7020132635
 21
8.4834695612
  0
LINE
  5
48A
100
AcDbEntity
  8
03__ASM_ALL_CURVES
100
AcDbLine
 62
4
  6
CONTINUOUS
 10
11.7235132635
 20
10.3644695612
 11
11.7235132635
 21
10.2444695612
  0
LINE
  5
48B
100
AcDbEntity
  8
0
100
AcDbLine
 62
7
  6
CONTINUOUS
 10
11.7460132635
 20
11.1666715591
 11
11.7460132635
 21
11.7122675634
  0
LINE
  5
48C
100
AcDbEntity
  8
0
100
AcDbLine
 62
7
  6
CONTINUOUS
 10
11.7535132635
 20
9.7044695612
 11
11.7535132635
 21
9.8244695612
  0
LINE
  5
48D
100
AcDbEntity
  8
0
100
AcDbLine
 62
7
  6
CONTINUOUS
 10
11.761615736
 20
8.4229695612
 11
11.761615736
 21
8.0495332271
  0
LINE
  5
48E
100
AcDbEntity
  8
0
100
AcDbLine
 62
7
  6
CONTINUOUS
 10
11.7625132635
 20
8.4229695612
 11
11.7625132635
 21
8.0495332271
  0
LINE
  5
48F
100
AcDbEntity
  8
0
100
AcDbLine
 62
7
  6
CONTINUOUS
 10
11.7835132635
 20
9.7044695612
 11
11.7835132635
 21
9.8244695612
  0
LINE
  5
490
100
AcDbEntity
  8
03__ASM_ALL_CURVES
100
AcDbLine
 62
4
  6
CONTINUOUS
 10
11.7985132635
 20
10.4644695612
 11
11.7985132635
 21
10.3244695612
  0
LINE
  5
491
100
AcDbEntity
  8
03__ASM_ALL_CURVES
100
AcDbLine
 62
4
  6
CONTINUOUS
 10
11.8285132635
 20
10.2944695636
 11
11.8285132635
 21
10.3144695624
  0
LINE
  5
492
100
AcDbEntity
  8
0
100
AcDbLine
 62
7
  6
CONTINUOUS
 10
11.8435132635
 20
9.8244695612
 11
11.8435132635
 21
9.7044695612
  0
LINE
  5
493
100
AcDbEntity
  8
03__ASM_ALL_CURVES
100
AcDbLine
 62
4
  6
CONTINUOUS
 10
11.0860132635
 20
10.2444695612
 11
11.0710132635
 21
10.2544695589
  0
LINE
  5
494
100
AcDbEntity
  8
03__ASM_ALL_CURVES
100
AcDbLine
 62
4
  6
CONTINUOUS
 10
11.0547632635
 20
10.3244695612
 11
11.0372632635
 21
10.3361362251
  0
LINE
  5
495
100
AcDbEntity
  8
03__ASM_ALL_CURVES
100
AcDbLine
 62
4
  6
CONTINUOUS
 10
11.2060132635
 20
10.2444695612
 11
11.1910132635
 21
10.2544695589
  0
LINE
  5
496
100
AcDbEntity
  8
03__ASM_ALL_CURVES
100
AcDbLine
 62
4
  6
CONTINUOUS
 10
11.1010132635
 20
10.3644695612
 11
11.1160132635
 21
10.3544695609
  0
LINE
  5
497
100
AcDbEntity
  8
03__ASM_ALL_CURVES
100
AcDbLine
 62
4
  6
CONTINUOUS
 10
11.1947632635
 20
10.3244695612
 11
11.1772632635
 21
10.3361362251
  0
LINE
  5
498
100
AcDbEntity
  8
03__ASM_ALL_CURVES
100
AcDbLine
 62
4
  6
CONTINUOUS
 10
11.2210132635
 20
10.3644695612
 11
11.2360132635
 21
10.3544695609
  0
LINE
  5
499
100
AcDbEntity
  8
03__ASM_ALL_CURVES
100
AcDbLine
 62
4
  6
CONTINUOUS
 10
11.0722632635
 20
10.4644695612
 11
11.0897632635
 21
10.4528028942
  0
LINE
  5
49A
100
AcDbEntity
  8
03__ASM_ALL_CURVES
100
AcDbLine
 62
4
  6
CONTINUOUS
 10
11.1910132635
 20
10.2544695589
 11
11.1835132635
 21
10.2644695636
  0
LINE
  5
49B
100
AcDbEntity
  8
03__ASM_ALL_CURVES
100
AcDbLine
 62
4
  6
CONTINUOUS
 10
11.1160132635
 20
10.3544695609
 11
11.1310132635
 21
10.3344695612
  0
LINE
  5
49C
100
AcDbEntity
  8
03__ASM_ALL_CURVES
100
AcDbLine
 62
4
  6
CONTINUOUS
 10
11.1772632635
 20
10.3361362251
 11
11.1685132635
 21
10.3478028974
  0
LINE
  5
49D
100
AcDbEntity
  8
03__ASM_ALL_CURVES
100
AcDbLine
 62
4
  6
CONTINUOUS
 10
11.0897632635
 20
10.4528028942
 11
11.1072632635
 21
10.4294695612
  0
LINE
  5
49E
100
AcDbEntity
  8
03__ASM_ALL_CURVES
100
AcDbLine
 62
4
  6
CONTINUOUS
 10
11.2360132635
 20
10.3544695609
 11
11.2510132635
 21
10.3344695612
  0
LINE
  5
49F
100
AcDbEntity
  8
03__ASM_ALL_CURVES
100
AcDbLine
 62
4
  6
CONTINUOUS
 10
11.2297632635
 20
10.4528028942
 11
11.2472632635
 21
10.4294695612
  0
LINE
  5
4A0
100
AcDbEntity
  8
03__ASM_ALL_CURVES
100
AcDbLine
 62
4
  6
CONTINUOUS
 10
11.4235132635
 20
10.0044695612
 11
11.3635132635
 21
10.1244695612
  0
LINE
  5
4A1
100
AcDbEntity
  8
03__ASM_ALL_CURVES
100
AcDbLine
 62
4
  6
CONTINUOUS
 10
11.4485132635
 20
10.0444695612
 11
11.3785132635
 21
10.1844695612
  0
LINE
  5
4A2
100
AcDbEntity
  8
03__ASM_ALL_CURVES
100
AcDbLine
 62
4
  6
CONTINUOUS
 10
11.5735132635
 20
10.2444695612
 11
11.5360132635
 21
10.3644695612
  0
LINE
  5
4A3
100
AcDbEntity
  8
0
100
AcDbLine
 62
7
  6
CONTINUOUS
 10
11.8735132635
 20
9.7644695612
 11
11.8735132635
 21
9.8244695612
  0
LINE
  5
4A4
100
AcDbEntity
  8
03__ASM_ALL_CURVES
100
AcDbLine
 62
4
  6
CONTINUOUS
 10
11.9210132635
 20
10.3828028974
 11
11.9210132635
 21
10.4061362293
  0
LINE
  5
4A5
100
AcDbEntity
  8
0
100
AcDbLine
 62
7
  6
CONTINUOUS
 10
11.9335132635
 20
9.7044695612
 11
11.9335132635
 21
9.7644695612
  0
LINE
  5
4A6
100
AcDbEntity
  8
03__ASM_ALL_CURVES
100
AcDbLine
 62
4
  6
CONTINUOUS
 10
12.3060132635
 20
9.9544695612
 11
12.3135132635
 21
9.9844695612
  0
LINE
  5
4A7
100
AcDbEntity
  8
0
100
AcDbLine
 62
7
  6
CONTINUOUS
 10
11.7625132635
 20
8.0495332271
 11
11.7035132635
 21
8.0154695612
  0
LINE
  5
4A8
100
AcDbEntity
  8
03__ASM_ALL_CURVES
100
AcDbLine
 62
4
  6
CONTINUOUS
 10
11.2122632635
 20
10.4644695612
 11
11.2297632635
 21
10.4528028942
  0
LINE
  5
4A9
100
AcDbEntity
  8
03__ASM_ALL_CURVES
100
AcDbLine
 62
4
  6
CONTINUOUS
 10
8.6726882635
 20
12.1710695612
 11
8.6618382635
 21
12.1783028948
  0
LINE
  5
4AA
100
AcDbEntity
  8
03__ASM_ALL_CURVES
100
AcDbLine
 62
4
  6
CONTINUOUS
 10
8.6835382635
 20
12.2217028929
 11
8.6943882635
 21
12.2144695612
  0
LINE
  5
4AB
100
AcDbEntity
  8
03__ASM_ALL_CURVES
100
AcDbLine
 62
4
  6
CONTINUOUS
 10
11.6935132635
 20
10.2444695612
 11
11.6785132635
 21
10.2544695589
  0
LINE
  5
4AC
100
AcDbEntity
  8
03__ASM_ALL_CURVES
100
AcDbLine
 62
4
  6
CONTINUOUS
 10
8.6835382635
 20
12.2578695612
 11
8.6943882635
 21
12.2506362296
  0
LINE
  5
4AD
100
AcDbEntity
  8
03__ASM_ALL_CURVES
100
AcDbLine
 62
4
  6
CONTINUOUS
 10
12.2760132635
 20
9.8644695612
 11
12.2610132635
 21
9.8744695589
  0
LINE
  5
4AE
100
AcDbEntity
  8
03__ASM_ALL_CURVES
100
AcDbLine
 62
4
  6
CONTINUOUS
 10
11.7635132635
 20
10.3244695612
 11
11.7460132635
 21
10.3361362251
  0
LINE
  5
4AF
100
AcDbEntity
  8
03__ASM_ALL_CURVES
100
AcDbLine
 62
4
  6
CONTINUOUS
 10
11.6785132635
 20
10.2544695589
 11
11.6635132635
 21
10.2744695612
  0
LINE
  5
4B0
100
AcDbEntity
  8
03__ASM_ALL_CURVES
100
AcDbLine
 62
4
  6
CONTINUOUS
 10
11.6235132635
 20
10.3244695612
 11
11.5797632635
 21
10.4644695612
  0
LINE
  5
4B1
100
AcDbEntity
  8
03__ASM_ALL_CURVES
100
AcDbLine
 62
4
  6
CONTINUOUS
 10
11.6635132635
 20
10.2744695612
 11
11.6560132635
 21
10.3044695612
  0
LINE
  5
4B2
100
AcDbEntity
  8
03__ASM_ALL_CURVES
100
AcDbLine
 62
4
  6
CONTINUOUS
 10
11.7285132635
 20
10.3594695612
 11
11.7197632635
 21
10.3944695612
  0
LINE
  5
4B3
100
AcDbEntity
  8
03__ASM_ALL_CURVES
100
AcDbLine
 62
4
  6
CONTINUOUS
 10
11.8285132635
 20
10.3144695624
 11
11.8210132635
 21
10.3444695606
  0
LINE
  5
4B4
100
AcDbEntity
  8
03__ASM_ALL_CURVES
100
AcDbLine
 62
4
  6
CONTINUOUS
 10
12.2235132635
 20
11.8074695612
 11
12.2235132635
 21
11.9274695612
  0
LINE
  5
4B5
100
AcDbEntity
  8
03__ASM_ALL_CURVES
100
AcDbLine
 62
4
  6
CONTINUOUS
 10
12.2535132635
 20
9.8844695636
 11
12.2535132635
 21
9.9044695589
  0
LINE
  5
4B6
100
AcDbEntity
  8
0
100
AcDbLine
 62
7
  6
CONTINUOUS
 10
10.8010132635
 20
11.1666715591
 11
11.2735132635
 21
10.8938735569
  0
LINE
  5
4B7
100
AcDbEntity
  8
03__ASM_ALL_CURVES
100
AcDbLine
 62
4
  6
CONTINUOUS
 10
9.1121132635
 20
12.1710695612
 11
9.1012632635
 21
12.1783028948
  0
LINE
  5
4B8
100
AcDbEntity
  8
03__ASM_ALL_CURVES
100
AcDbLine
 62
4
  6
CONTINUOUS
 10
9.1934882635
 20
12.1710695612
 11
9.1826382635
 21
12.1783028948
  0
LINE
  5
4B9
100
AcDbEntity
  8
03__ASM_ALL_CURVES
100
AcDbLine
 62
4
  6
CONTINUOUS
 10
9.1121132635
 20
12.2578695612
 11
9.1229632635
 21
12.2506362296
  0
LINE
  5
4BA
100
AcDbEntity
  8
03__ASM_ALL_CURVES
100
AcDbLine
 62
4
  6
CONTINUOUS
 10
9.2043382635
 20
12.2217028929
 11
9.2151882635
 21
12.2144695612
  0
LINE
  5
4BB
100
AcDbEntity
  8
03__ASM_ALL_CURVES
100
AcDbLine
 62
4
  6
CONTINUOUS
 10
9.2043382635
 20
12.2578695612
 11
9.2151882635
 21
12.2506362296
  0
LINE
  5
4BC
100
AcDbEntity
  8
03__ASM_ALL_CURVES
100
AcDbLine
 62
4
  6
CONTINUOUS
 10
9.3725132635
 20
12.1710695612
 11
9.3616632635
 21
12.1783028948
  0
LINE
  5
4BD
100
AcDbEntity
  8
03__ASM_ALL_CURVES
100
AcDbLine
 62
4
  6
CONTINUOUS
 10
9.4538882635
 20
12.1710695612
 11
9.4430382635
 21
12.1783028948
  0
LINE
  5
4BE
100
AcDbEntity
  8
03__ASM_ALL_CURVES
100
AcDbLine
 62
4
  6
CONTINUOUS
 10
9.3725132635
 20
12.2578695612
 11
9.3833632635
 21
12.2506362296
  0
LINE
  5
4BF
100
AcDbEntity
  8
03__ASM_ALL_CURVES
100
AcDbLine
 62
4
  6
CONTINUOUS
 10
9.4538882635
 20
12.2217028929
 11
9.4430382635
 21
12.2289362296
  0
LINE
  5
4C0
100
AcDbEntity
  8
03__ASM_ALL_CURVES
100
AcDbLine
 62
4
  6
CONTINUOUS
 10
9.4647382635
 20
12.2217028929
 11
9.4755882635
 21
12.2144695612
  0
LINE
  5
4C1
100
AcDbEntity
  8
03__ASM_ALL_CURVES
100
AcDbLine
 62
4
  6
CONTINUOUS
 10
11.7460132635
 20
10.3361362251
 11
11.7285132635
 21
10.3594695612
  0
LINE
  5
4C2
100
AcDbEntity
  8
03__ASM_ALL_CURVES
100
AcDbLine
 62
4
  6
CONTINUOUS
 10
11.8210132635
 20
10.3444695606
 11
11.8060132635
 21
10.3644695612
  0
LINE
  5
4C3
100
AcDbEntity
  8
03__ASM_ALL_CURVES
100
AcDbLine
 62
4
  6
CONTINUOUS
 10
12.2610132635
 20
9.8744695589
 11
12.2535132635
 21
9.8844695636
  0
LINE
  5
4C4
100
AcDbEntity
  8
03__ASM_ALL_CURVES
100
AcDbLine
 62
4
  6
CONTINUOUS
 10
11.9122632635
 20
10.4411362272
 11
11.8947632635
 21
10.4644695612
  0
LINE
  5
4C5
100
AcDbEntity
  8
03__ASM_ALL_CURVES
100
AcDbLine
 62
4
  6
CONTINUOUS
 10
11.9210132635
 20
10.4061362293
 11
11.9122632635
 21
10.4411362272
  0
LINE
  5
4C6
100
AcDbEntity
  8
03__ASM_ALL_CURVES
100
AcDbLine
 62
4
  6
CONTINUOUS
 10
12.4801132635
 20
6.9513695612
 11
12.4801132635
 21
6.9188195612
  0
LINE
  5
4C7
100
AcDbEntity
  8
03__ASM_ALL_CURVES
100
AcDbLine
 62
4
  6
CONTINUOUS
 10
12.4801132635
 20
6.4305695612
 11
12.4801132635
 21
6.3980195612
  0
LINE
  5
4C8
100
AcDbEntity
  8
03__ASM_ALL_CURVES
100
AcDbLine
 62
4
  6
CONTINUOUS
 10
12.4801132635
 20
6.2298445612
 11
12.4801132635
 21
6.2406945612
  0
LINE
  5
4C9
100
AcDbEntity
  8
03__ASM_ALL_CURVES
100
AcDbLine
 62
4
  6
CONTINUOUS
 10
12.4801132635
 20
6.7506445612
 11
12.4801132635
 21
6.7614945612
  0
LINE
  5
4CA
100
AcDbEntity
  8
03__ASM_ALL_CURVES
100
AcDbLine
 62
4
  6
CONTINUOUS
 10
12.5090465951
 20
6.4034445612
 11
12.5090465951
 21
6.4142945612
  0
LINE
  5
4CB
100
AcDbEntity
  8
03__ASM_ALL_CURVES
100
AcDbLine
 62
4
  6
CONTINUOUS
 10
12.5090465951
 20
6.9242445612
 11
12.5090465951
 21
6.9350945612
  0
LINE
  5
4CC
100
AcDbEntity
  8
03__ASM_ALL_CURVES
100
AcDbLine
 62
4
  6
CONTINUOUS
 10
12.5162799319
 20
6.7506445612
 11
12.5162799319
 21
6.7614945612
  0
LINE
  5
4CD
100
AcDbEntity
  8
0
100
AcDbLine
 62
7
  6
CONTINUOUS
 10
12.5235132635
 20
12.2144696089
 11
12.5235132635
 21
8.5144695612
  0
LINE
  5
4CE
100
AcDbEntity
  8
03__ASM_ALL_CURVES
100
AcDbLine
 62
4
  6
CONTINUOUS
 10
12.5235132635
 20
8.4276695612
 11
12.5235132635
 21
7.1466695612
  0
LINE
  5
4CF
100
AcDbEntity
  8
03__ASM_ALL_CURVES
100
AcDbLine
 62
4
  6
CONTINUOUS
 10
12.5669132635
 20
6.9350945612
 11
12.5669132635
 21
6.9242445612
  0
LINE
  5
4D0
100
AcDbEntity
  8
03__ASM_ALL_CURVES
100
AcDbLine
 62
4
  6
CONTINUOUS
 10
12.5669132635
 20
6.8645695612
 11
12.5669132635
 21
6.8564320612
  0
LINE
  5
4D1
100
AcDbEntity
  8
03__ASM_ALL_CURVES
100
AcDbLine
 62
4
  6
CONTINUOUS
 10
12.5669132635
 20
6.7614945612
 11
12.5669132635
 21
6.7506445612
  0
LINE
  5
4D2
100
AcDbEntity
  8
03__ASM_ALL_CURVES
100
AcDbLine
 62
4
  6
CONTINUOUS
 10
12.5669132635
 20
6.4142945612
 11
12.5669132635
 21
6.4034445612
  0
LINE
  5
4D3
100
AcDbEntity
  8
03__ASM_ALL_CURVES
100
AcDbLine
 62
4
  6
CONTINUOUS
 10
12.5669132635
 20
6.3437695612
 11
12.5669132635
 21
6.3356320612
  0
LINE
  5
4D4
100
AcDbEntity
  8
03__ASM_ALL_CURVES
100
AcDbLine
 62
4
  6
CONTINUOUS
 10
12.5669132635
 20
6.2135695612
 11
12.5669132635
 21
6.2569695612
  0
LINE
  5
4D5
100
AcDbEntity
  8
0
100
AcDbLine
 62
7
  6
CONTINUOUS
 10
11.6470132635
 20
7.5654695612
 11
11.5970132635
 21
7.5154695612
  0
LINE
  5
4D6
100
AcDbEntity
  8
0
100
AcDbLine
 62
7
  6
CONTINUOUS
 10
11.4580132635
 20
7.2644695612
 11
11.4270132635
 21
7.2334695612
  0
LINE
  5
4D7
100
AcDbEntity
  8
03__ASM_ALL_CURVES
100
AcDbLine
 62
4
  6
CONTINUOUS
 10
9.1121132635
 20
12.207236227
 11
9.0958382635
 21
12.2144695612
  0
LINE
  5
4D8
100
AcDbEntity
  8
03__ASM_ALL_CURVES
100
AcDbLine
 62
4
  6
CONTINUOUS
 10
9.4647382635
 20
12.2578695612
 11
9.4755882635
 21
12.2506362296
  0
LINE
  5
4D9
100
AcDbEntity
  8
03__ASM_ALL_CURVES
100
AcDbLine
 62
4
  6
CONTINUOUS
 10
9.3725132635
 20
12.207236227
 11
9.3562382635
 21
12.2144695612
  0
LINE
  5
4DA
100
AcDbEntity
  8
03__ASM_ALL_CURVES
100
AcDbLine
 62
4
  6
CONTINUOUS
 10
12.5162799319
 20
6.6692695612
 11
12.5235132635
 21
6.6855445612
  0
LINE
  5
4DB
100
AcDbEntity
  8
03__ASM_ALL_CURVES
100
AcDbLine
 62
4
  6
CONTINUOUS
 10
12.4801132635
 20
7.0110445612
 11
12.4945799319
 21
7.0218945612
  0
LINE
  5
4DC
100
AcDbEntity
  8
03__ASM_ALL_CURVES
100
AcDbLine
 62
4
  6
CONTINUOUS
 10
12.5235132635
 20
6.9513695612
 11
12.5379799293
 21
6.9567945612
  0
LINE
  5
4DD
100
AcDbEntity
  8
03__ASM_ALL_CURVES
100
AcDbLine
 62
4
  6
CONTINUOUS
 10
9.4647382635
 20
12.1710695612
 11
9.4538882635
 21
12.1710695612
  0
LINE
  5
4DE
100
AcDbEntity
  8
03__ASM_ALL_CURVES
100
AcDbLine
 62
4
  6
CONTINUOUS
 10
9.3074132635
 20
12.1710695612
 11
9.2992757635
 21
12.1710695612
  0
LINE
  5
4DF
100
AcDbEntity
  8
03__ASM_ALL_CURVES
100
AcDbLine
 62
4
  6
CONTINUOUS
 10
9.2043382635
 20
12.1710695612
 11
9.1934882635
 21
12.1710695612
  0
LINE
  5
4E0
100
AcDbEntity
  8
03__ASM_ALL_CURVES
100
AcDbLine
 62
4
  6
CONTINUOUS
 10
8.7866132635
 20
12.1710695612
 11
8.7784757635
 21
12.1710695612
  0
LINE
  5
4E1
100
AcDbEntity
  8
03__ASM_ALL_CURVES
100
AcDbLine
 62
4
  6
CONTINUOUS
 10
8.6835382635
 20
12.1710695612
 11
8.6726882635
 21
12.1710695612
  0
LINE
  5
4E2
100
AcDbEntity
  8
03__ASM_ALL_CURVES
100
AcDbLine
 62
4
  6
CONTINUOUS
 10
9.9367132635
 20
12.2144695612
 11
9.6763132635
 21
12.2144695612
  0
LINE
  5
4E3
100
AcDbEntity
  8
0
100
AcDbLine
 62
7
  6
CONTINUOUS
 10
10.0235132635
 20
12.2144696089
 11
12.5235132635
 21
12.2144696089
  0
LINE
  5
4E4
100
AcDbEntity
  8
03__ASM_ALL_CURVES
100
AcDbLine
 62
4
  6
CONTINUOUS
 10
8.6726882635
 20
12.2217028929
 11
8.6835382635
 21
12.2217028929
  0
LINE
  5
4E5
100
AcDbEntity
  8
03__ASM_ALL_CURVES
100
AcDbLine
 62
4
  6
CONTINUOUS
 10
9.1934882635
 20
12.2217028929
 11
9.2043382635
 21
12.2217028929
  0
LINE
  5
4E6
100
AcDbEntity
  8
03__ASM_ALL_CURVES
100
AcDbLine
 62
4
  6
CONTINUOUS
 10
9.4538882635
 20
12.2217028929
 11
9.4647382635
 21
12.2217028929
  0
LINE
  5
4E7
100
AcDbEntity
  8
03__ASM_ALL_CURVES
100
AcDbLine
 62
4
  6
CONTINUOUS
 10
8.8734132635
 20
12.2578695612
 11
8.8300132635
 21
12.2578695612
  0
LINE
  5
4E8
100
AcDbEntity
  8
03__ASM_ALL_CURVES
100
AcDbLine
 62
4
  6
CONTINUOUS
 10
8.6726882635
 20
12.2578695612
 11
8.6835382635
 21
12.2578695612
  0
LINE
  5
4E9
100
AcDbEntity
  8
03__ASM_ALL_CURVES
100
AcDbLine
 62
4
  6
CONTINUOUS
 10
9.1934882635
 20
12.2578695612
 11
9.2043382635
 21
12.2578695612
  0
LINE
  5
4EA
100
AcDbEntity
  8
03__ASM_ALL_CURVES
100
AcDbLine
 62
4
  6
CONTINUOUS
 10
9.4538882635
 20
12.2578695612
 11
9.4647382635
 21
12.2578695612
  0
LINE
  5
4EB
100
AcDbEntity
  8
0
100
AcDbLine
 62
7
  6
CONTINUOUS
 10
11.7460132635
 20
11.7122675634
 11
11.2735132635
 21
11.9850655656
  0
LINE
  5
4EC
100
AcDbEntity
  8
03__ASM_ALL_CURVES
100
AcDbLine
 62
4
  6
CONTINUOUS
 10
12.5090465951
 20
6.9350945612
 11
12.5162799319
 21
6.9459445612
  0
LINE
  5
4ED
100
AcDbEntity
  8
03__ASM_ALL_CURVES
100
AcDbLine
 62
4
  6
CONTINUOUS
 10
12.5669132635
 20
6.9242445612
 11
12.5596799299
 21
6.9133945612
  0
LINE
  5
4EE
100
AcDbEntity
  8
03__ASM_ALL_CURVES
100
AcDbLine
 62
4
  6
CONTINUOUS
 10
12.4801132635
 20
6.7614945612
 11
12.4873465951
 21
6.7723445612
  0
LINE
  5
4EF
100
AcDbEntity
  8
03__ASM_ALL_CURVES
100
AcDbLine
 62
4
  6
CONTINUOUS
 10
12.5162799319
 20
6.7614945612
 11
12.5235132635
 21
6.7723445612
  0
LINE
  5
4F0
100
AcDbEntity
  8
03__ASM_ALL_CURVES
100
AcDbLine
 62
4
  6
CONTINUOUS
 10
12.4801132635
 20
6.6692695612
 11
12.4873465951
 21
6.6801195612
  0
LINE
  5
4F1
100
AcDbEntity
  8
03__ASM_ALL_CURVES
100
AcDbLine
 62
4
  6
CONTINUOUS
 10
12.5669132635
 20
6.7506445612
 11
12.5596799299
 21
6.7397945612
  0
LINE
  5
4F2
100
AcDbEntity
  8
03__ASM_ALL_CURVES
100
AcDbLine
 62
4
  6
CONTINUOUS
 10
12.5669132635
 20
6.6692695612
 11
12.5596799299
 21
6.6584195612
  0
LINE
  5
4F3
100
AcDbEntity
  8
03__ASM_ALL_CURVES
100
AcDbLine
 62
4
  6
CONTINUOUS
 10
12.5162799319
 20
6.9459445612
 11
12.5235132635
 21
6.9513695612
  0
LINE
  5
4F4
100
AcDbEntity
  8
03__ASM_ALL_CURVES
100
AcDbLine
 62
4
  6
CONTINUOUS
 10
12.5596799299
 20
6.9133945612
 11
12.5524465964
 21
6.9079695612
  0
LINE
  5
4F5
100
AcDbEntity
  8
03__ASM_ALL_CURVES
100
AcDbLine
 62
4
  6
CONTINUOUS
 10
12.5560632632
 20
6.8564320612
 11
12.5669132635
 21
6.8645695612
  0
LINE
  5
4F6
100
AcDbEntity
  8
03__ASM_ALL_CURVES
100
AcDbLine
 62
4
  6
CONTINUOUS
 10
12.4873465951
 20
6.7723445612
 11
12.4945799319
 21
6.7777695612
  0
LINE
  5
4F7
100
AcDbEntity
  8
03__ASM_ALL_CURVES
100
AcDbLine
 62
4
  6
CONTINUOUS
 10
12.5235132635
 20
6.7723445612
 11
12.5379799293
 21
6.7831945612
  0
LINE
  5
4F8
100
AcDbEntity
  8
03__ASM_ALL_CURVES
100
AcDbLine
 62
4
  6
CONTINUOUS
 10
12.5596799299
 20
6.7397945612
 11
12.5524465964
 21
6.7343695612
  0
LINE
  5
4F9
100
AcDbEntity
  8
03__ASM_ALL_CURVES
100
AcDbLine
 62
4
  6
CONTINUOUS
 10
12.4873465951
 20
6.6801195612
 11
12.4945799319
 21
6.6855445612
  0
LINE
  5
4FA
100
AcDbEntity
  8
03__ASM_ALL_CURVES
100
AcDbLine
 62
4
  6
CONTINUOUS
 10
12.5235132635
 20
6.6855445612
 11
12.5379799293
 21
6.6909695612
  0
LINE
  5
4FB
100
AcDbEntity
  8
03__ASM_ALL_CURVES
100
AcDbLine
 62
4
  6
CONTINUOUS
 10
12.5524465964
 20
6.6529945612
 11
12.5379799293
 21
6.6475695612
  0
LINE
  5
4FC
100
AcDbEntity
  8
03__ASM_ALL_CURVES
100
AcDbLine
 62
4
  6
CONTINUOUS
 10
12.5090465951
 20
6.4142945612
 11
12.5162799319
 21
6.4251445612
  0
LINE
  5
4FD
100
AcDbEntity
  8
03__ASM_ALL_CURVES
100
AcDbLine
 62
4
  6
CONTINUOUS
 10
12.5669132635
 20
6.4034445612
 11
12.5596799299
 21
6.3925945612
  0
LINE
  5
4FE
100
AcDbEntity
  8
03__ASM_ALL_CURVES
100
AcDbLine
 62
4
  6
CONTINUOUS
 10
12.4801132635
 20
6.2406945612
 11
12.4873465951
 21
6.2515445612
  0
LINE
  5
4FF
100
AcDbEntity
  8
03__ASM_ALL_CURVES
100
AcDbLine
 62
4
  6
CONTINUOUS
 10
12.5596799299
 20
6.6584195612
 11
12.5524465964
 21
6.6529945612
  0
LINE
  5
500
100
AcDbEntity
  8
03__ASM_ALL_CURVES
100
AcDbLine
 62
4
  6
CONTINUOUS
 10
12.5524465964
 20
6.5770445612
 11
12.5669132635
 21
6.5878945612
  0
LINE
  5
501
100
AcDbEntity
  8
03__ASM_ALL_CURVES
100
AcDbLine
 62
4
  6
CONTINUOUS
 10
12.5162799319
 20
6.4251445612
 11
12.5235132635
 21
6.4305695612
  0
LINE
  5
502
100
AcDbEntity
  8
03__ASM_ALL_CURVES
100
AcDbLine
 62
4
  6
CONTINUOUS
 10
12.5596799299
 20
6.3925945612
 11
12.5524465964
 21
6.3871695612
  0
LINE
  5
503
100
AcDbEntity
  8
03__ASM_ALL_CURVES
100
AcDbLine
 62
4
  6
CONTINUOUS
 10
12.5560632632
 20
6.3356320612
 11
12.5669132635
 21
6.3437695612
  0
LINE
  5
504
100
AcDbEntity
  8
03__ASM_ALL_CURVES
100
AcDbLine
 62
4
  6
CONTINUOUS
 10
12.4873465951
 20
6.2515445612
 11
12.4945799319
 21
6.2569695612
  0
LINE
  5
505
100
AcDbEntity
  8
03__ASM_ALL_CURVES
100
AcDbLine
 62
4
  6
CONTINUOUS
 10
12.5235132635
 20
6.4305695612
 11
12.5379799293
 21
6.4359945612
  0
ARC
  5
506
100
AcDbEntity
  8
0
100
AcDbCircle
 62
7
  6
CONTINUOUS
 10
10.9050132635
 20
7.6164695612
 40
0.005
100
AcDbArc
 50
90.0
 51
180.0
  0
ARC
  5
507
100
AcDbEntity
  8
0
100
AcDbCircle
 62
7
  6
CONTINUOUS
 10
10.9050132635
 20
7.6644695612
 40
0.005
100
AcDbArc
 50
180.0
 51
270.0
  0
ARC
  5
508
100
AcDbEntity
  8
0
100
AcDbCircle
 62
7
  6
CONTINUOUS
 10
10.9155132635
 20
7.6294695612
 40
0.008
100
AcDbArc
 50
270.0
 51
360.0
  0
ARC
  5
509
100
AcDbEntity
  8
0
100
AcDbCircle
 62
7
  6
CONTINUOUS
 10
10.9155132635
 20
7.6514695612
 40
0.008
100
AcDbArc
 50
0.0
 51
90.0
  0
CIRCLE
  5
50A
100
AcDbEntity
  8
0
100
AcDbCircle
 62
7
  6
CONTINUOUS
 10
11.2735132635
 20
11.4394695136
 40
0.751
  0
ARC
  5
50B
100
AcDbEntity
  8
0
100
AcDbCircle
 62
7
  6
CONTINUOUS
 10
11.2735132635
 20
11.4394695136
 40
0.5315
100
AcDbArc
 50
332.7762993004
 51
27.216181449
  0
ARC
  5
50C
100
AcDbEntity
  8
0
100
AcDbCircle
 62
7
  6
CONTINUOUS
 10
11.2735132635
 20
11.4394695136
 40
0.5315
100
AcDbArc
 50
272.7762893217
 51
327.2161910929
  0
ARC
  5
50D
100
AcDbEntity
  8
0
100
AcDbCircle
 62
7
  6
CONTINUOUS
 10
11.2735132635
 20
11.4394695136
 40
0.5315
100
AcDbArc
 50
212.7762893217
 51
267.2161910929
  0
ARC
  5
50E
100
AcDbEntity
  8
0
100
AcDbCircle
 62
7
  6
CONTINUOUS
 10
11.2735132635
 20
11.4394695136
 40
0.5315
100
AcDbArc
 50
152.7762993004
 51
207.216181449
  0
ARC
  5
50F
100
AcDbEntity
  8
0
100
AcDbCircle
 62
7
  6
CONTINUOUS
 10
11.2735132635
 20
11.4394695136
 40
0.5315
100
AcDbArc
 50
92.7763092791
 51
147.2161718051
  0
ARC
  5
510
100
AcDbEntity
  8
0
100
AcDbCircle
 62
7
  6
CONTINUOUS
 10
11.2735132635
 20
11.4394695136
 40
0.5315
100
AcDbArc
 50
32.7763092791
 51
87.2161718051
  0
CIRCLE
  5
511
100
AcDbEntity
  8
0
100
AcDbCircle
 62
7
  6
CONTINUOUS
 10
11.2735132635
 20
11.4394695612
 40
0.4725
  0
ARC
  5
512
100
AcDbEntity
  8
0
100
AcDbCircle
 62
7
  6
CONTINUOUS
 10
11.6315132635
 20
7.6294695612
 40
0.008
100
AcDbArc
 50
180.0
 51
270.0
  0
ARC
  5
513
100
AcDbEntity
  8
0
100
AcDbCircle
 62
7
  6
CONTINUOUS
 10
11.6315132635
 20
7.6514695612
 40
0.008
100
AcDbArc
 50
90.0
 51
180.0
  0
ARC
  5
514
100
AcDbEntity
  8
0
100
AcDbCircle
 62
7
  6
CONTINUOUS
 10
11.6420132635
 20
7.6164695612
 40
0.005
100
AcDbArc
 50
0.0
 51
90.0
  0
ARC
  5
515
100
AcDbEntity
  8
0
100
AcDbCircle
 62
7
  6
CONTINUOUS
 10
11.6420132635
 20
7.6644695612
 40
0.005
100
AcDbArc
 50
270.0
 51
360.0
  0
CIRCLE
  5
516
100
AcDbEntity
  8
0
100
AcDbCircle
 62
7
  6
CONTINUOUS
 10
11.8135132635
 20
9.7644695612
 40
0.18
  0
SPLINE
  5
517
100
AcDbEntity
  8
0
100
AcDbSpline
 62
7
  6
CONTINUOUS
 70
0
 71
3
 72
8
 73
4
 74
2
 42
0.0000001
 43
0.0000001
 44
0.0000000001
 12
0.0012173388
 22
0.0
 32
0.0
 13
0.0012173333
 23
-0.00000532
 33
0.0
 40
0.0
 40
0.0
 40
0.0
 40
0.0
 40
1.0
 40
1.0
 40
1.0
 40
1.0
 10
11.4125568474
 20
7.2964746883
 30
0.0
 10
11.412962627
 20
7.2964746883
 30
0.0
 10
11.4133683977
 20
7.2964713346
 30
0.0
 10
11.4137741755
 20
7.2964695612
 30
0.0
 11
11.4125568474
 21
7.2964746883
 31
0.0
 11
11.4137741755
 21
7.2964695612
 31
0.0
  0
SPLINE
  5
518
100
AcDbEntity
  8
0
100
AcDbSpline
 62
7
  6
CONTINUOUS
 70
0
 71
3
 72
8
 73
4
 74
2
 42
0.0000001
 43
0.0000001
 44
0.0000000001
 12
0.0011802112
 22
0.0
 32
0.0
 13
0.001180204
 23
-0.0000053411
 33
0.0
 40
0.0
 40
0.0
 40
0.0
 40
0.0
 40
1.0
 40
1.0
 40
1.0
 40
1.0
 10
11.1309973418
 20
7.2964749038
 30
0.0
 10
11.1313907455
 20
7.2964749038
 30
0.0
 10
11.1317841396
 20
7.2964713416
 30
0.0
 10
11.1321775409
 20
7.2964695612
 30
0.0
 11
11.1309973418
 21
7.2964749038
 31
0.0
 11
11.1321775409
 21
7.2964695612
 31
0.0
  0
SPLINE
  5
519
100
AcDbEntity
  8
0
100
AcDbSpline
 62
7
  6
CONTINUOUS
 70
0
 71
3
 72
20
 73
16
 74
14
 42
0.0000001
 43
0.0000001
 44
0.0000000001
 12
-0.428005649
 22
-0.1103678244
 32
0.0
 13
-0.428005649
 23
0.1103678244
 33
0.0
 40
0.0
 40
0.0
 40
0.0
 40
0.0
 40
0.0804794139
 40
0.158860024
 40
0.2357469907
 40
0.3116917631
 40
0.3871787918
 40
0.4624097832
 40
0.5375906041
 40
0.6128216008
 40
0.6883086233
 40
0.7642533764
 40
0.8411401611
 40
0.9195205991
 40
1.0
 40
1.0
 40
1.0
 40
1.0
 10
11.4919182085
 20
8.0495332271
 30
0.0
 10
11.4804363272
 20
8.0465724479
 30
0.0
 10
11.4576808303
 20
8.0410734502
 30
0.0
 10
11.4236560089
 20
8.0340569316
 30
0.0
 10
11.39005576
 20
8.0283950899
 30
0.0
 10
11.3566823933
 20
8.0241010807
 30
0.0
 10
11.3234025977
 20
8.0212070461
 30
0.0
 10
11.2901411418
 20
8.01974838
 30
0.0
 10
11.2568852131
 20
8.0197483838
 30
0.0
 10
11.2236237577
 20
8.0212070574
 30
0.0
 10
11.1903439657
 20
8.024101099
 30
0.0
 10
11.1569706302
 20
8.0283951109
 30
0.0
 10
11.1233704364
 20
8.0340569479
 30
0.0
 10
11.0893456682
 20
8.041073457
 30
0.0
 10
11.0665901979
 20
8.0465724483
 30
0.0
 10
11.0551083185
 20
8.0495332271
 30
0.0
 11
11.4919182085
 21
8.0495332271
 31
0.0
 11
11.4573359448
 21
8.0411986401
 31
0.0
 11
11.4234010917
 21
8.0342212055
 31
0.0
 11
11.3898860366
 21
8.0285917442
 31
0.0
 11
11.3565905346
 21
8.0243224827
 31
0.0
 11
11.3233493015
 21
8.0214423754
 31
0.0
 11
11.2901283899
 21
8.0199910272
 31
0.0
 11
11.2568979659
 21
8.0199910309
 31
0.0
 11
11.2236770523
 21
8.0214423867
 31
0.0
 11
11.1904358225
 21
8.024322501
 31
0.0
 11
11.1571403299
 21
8.028591768
 31
0.0
 11
11.1236253548
 21
8.0342212206
 31
0.0
 11
11.0896905765
 21
8.0411986413
 31
0.0
 11
11.0551083185
 21
8.0495332271
 31
0.0
  0
SPLINE
  5
51A
100
AcDbEntity
  8
0
100
AcDbSpline
 62
7
  6
CONTINUOUS
 70
0
 71
3
 72
22
 73
18
 74
16
 42
0.0000001
 43
0.0000001
 44
0.0000000001
 12
-0.4128214514
 22
0.184380872
 32
0.0
 13
-0.4128214514
 23
-0.184380872
 33
0.0
 40
0.0
 40
0.0
 40
0.0
 40
0.0
 40
0.0752401314
 40
0.1464960249
 40
0.2145821913
 40
0.2802360819
 40
0.3442013412
 40
0.4069650995
 40
0.4690733333
 40
0.5309272723
 40
0.5930354551
 40
0.6557991587
 40
0.7197643523
 40
0.7854181401
 40
0.8535040661
 40
0.9247597991
 40
1.0
 40
1.0
 40
1.0
 40
1.0
 10
11.4919182085
 20
8.4229695612
 30
0.0
 10
11.4815646284
 20
8.4275938416
 30
0.0
 10
11.4612114516
 20
8.4361722867
 30
0.0
 10
11.430837419
 20
8.4473107485
 30
0.0
 10
11.4013123536
 20
8.4564566038
 30
0.0
 10
11.3723962583
 20
8.4637085836
 30
0.0
 10
11.343895101
 20
8.4691228821
 30
0.0
 10
11.3156464787
 20
8.4727269222
 30
0.0
 10
11.2875439408
 20
8.4745278106
 30
0.0
 10
11.2594823199
 20
8.4745278018
 30
0.0
 10
11.231379799
 20
8.4727268977
 30
0.0
 10
11.2031312043
 20
8.4691228462
 30
0.0
 10
11.1746300824
 20
8.4637085416
 30
0.0
 10
11.1457140494
 20
8.4564565675
 30
0.0
 10
11.1161890581
 20
8.44731073
 30
0.0
 10
11.0858150725
 20
8.4361722853
 30
0.0
 10
11.0654619081
 20
8.4275938459
 30
0.0
 10
11.0551083185
 20
8.4229695612
 30
0.0
 11
11.4919182085
 21
8.4229695612
 31
0.0
 11
11.4605568045
 21
8.436148622
 31
0.0
 11
11.4302984541
 21
8.4472095415
 31
0.0
 11
11.4008847072
 21
8.4562901074
 31
0.0
 11
11.3720864466
 21
8.4634866157
 31
0.0
 11
11.3436704689
 21
8.4688642538
 31
0.0
 11
11.3155197381
 21
8.4724416055
 31
0.0
 11
11.2874960114
 21
8.4742301442
 31
0.0
 11
11.2595302418
 21
8.4742301354
 31
0.0
 11
11.2315065392
 21
8.4724415816
 31
0.0
 11
11.2033558348
 21
8.4688642185
 31
0.0
 11
11.1749398886
 21
8.4634865736
 31
0.0
 11
11.1461416754
 21
8.456290067
 31
0.0
 11
11.1167280339
 21
8.4472095283
 31
0.0
 11
11.0864697517
 21
8.4361486335
 31
0.0
 11
11.0551083185
 21
8.4229695612
 31
0.0
  0
SPLINE
  5
51B
100
AcDbEntity
  8
0
100
AcDbSpline
 62
7
  6
CONTINUOUS
 70
0
 71
3
 72
20
 73
16
 74
14
 42
0.0000001
 43
0.0000001
 44
0.0000000001
 12
-0.2030916281
 22
-0.1047405856
 32
0.0
 13
-0.2030916281
 23
0.1047405856
 33
0.0
 40
0.0
 40
0.0
 40
0.0
 40
0.0
 40
0.08400078
 40
0.1642864135
 40
0.2416477124
 40
0.3168586769
 40
0.3906773904
 40
0.4636446335
 40
0.5363557412
 40
0.6093229916
 40
0.683141703
 40
0.7583526538
 40
0.8357137743
 40
0.9159992334
 40
1.0
 40
1.0
 40
1.0
 40
1.0
 10
11.003815736
 20
8.0495332271
 30
0.0
 10
10.9981291176
 20
8.0466004635
 30
0.0
 10
10.9868584963
 20
8.0411458688
 30
0.0
 10
10.9698360342
 20
8.0341136399
 30
0.0
 10
10.9530178291
 20
8.0284344622
 30
0.0
 10
10.936303841
 20
8.0241234387
 30
0.0
 10
10.9196267666
 20
8.0212152905
 30
0.0
 10
10.9029511283
 20
8.0197485089
 30
0.0
 10
10.8862753124
 20
8.0197485127
 30
0.0
 10
10.8695996744
 20
8.0212153018
 30
0.0
 10
10.8529226019
 20
8.024123457
 30
0.0
 10
10.8362086297
 20
8.0284344832
 30
0.0
 10
10.8193904526
 20
8.034113656
 30
0.0
 10
10.8023680168
 20
8.0411458754
 30
0.0
 10
10.7910974085
 20
8.046600464
 30
0.0
 10
10.785410791
 20
8.0495332271
 30
0.0
 11
11.003815736
 21
8.0495332271
 31
0.0
 11
10.9865246042
 21
8.0411986401
 31
0.0
 11
10.9695571776
 21
8.0342212055
 31
0.0
 11
10.95279965
 21
8.0285917442
 31
0.0
 11
10.9361518991
 21
8.0243224827
 31
0.0
 11
10.9195312825
 21
8.0214423754
 31
0.0
 11
10.9029208267
 21
8.0199910272
 31
0.0
 11
10.8863056147
 21
8.0199910309
 31
0.0
 11
10.8696951579
 21
8.0214423867
 31
0.0
 11
10.853074543
 21
8.024322501
 31
0.0
 11
10.8364267967
 21
8.028591768
 31
0.0
 11
10.8196693091
 21
8.0342212206
 31
0.0
 11
10.80270192
 21
8.0411986413
 31
0.0
 11
10.785410791
 21
8.0495332271
 31
0.0
  0
SPLINE
  5
51C
100
AcDbEntity
  8
0
100
AcDbSpline
 62
7
  6
CONTINUOUS
 70
0
 71
3
 72
22
 73
18
 74
16
 42
0.0000001
 43
0.0000001
 44
0.0000000001
 12
-0.1841159816
 22
0.1644656067
 32
0.0
 13
-0.1841159816
 23
-0.1644656067
 33
0.0
 40
0.0
 40
0.0
 40
0.0
 40
0.0
 40
0.0829707213
 40
0.1588845727
 40
0.2288969259
 40
0.2941011876
 40
0.3556367621
 40
0.4144633457
 40
0.4716805954
 40
0.5283199594
 40
0.5855371684
 40
0.6443637117
 40
0.7058992363
 40
0.7711034087
 40
0.8411155225
 40
0.9170292033
 40
1.0
 40
1.0
 40
1.0
 40
1.0
 10
11.003815736
 20
8.4229695612
 30
0.0
 10
10.9987236574
 20
8.4275181712
 30
0.0
 10
10.9887280563
 20
8.4359621154
 30
0.0
 10
10.973540397
 20
8.4471308826
 30
0.0
 10
10.9587672563
 20
8.4563138139
 30
0.0
 10
10.9442846192
 20
8.4636076879
 30
0.0
 10
10.9299907642
 20
8.4690648195
 30
0.0
 10
10.9158028303
 20
8.4727052854
 30
0.0
 10
10.9016716788
 20
8.4745274621
 30
0.0
 10
10.8875547142
 20
8.4745274532
 30
0.0
 10
10.8734235716
 20
8.4727052606
 30
0.0
 10
10.8592356519
 20
8.4690647834
 30
0.0
 10
10.8449418152
 20
8.4636076459
 30
0.0
 10
10.83045921
 20
8.4563137781
 30
0.0
 10
10.8156861066
 20
8.4471308651
 30
0.0
 10
10.8004984695
 20
8.4359621143
 30
0.0
 10
10.7905028742
 20
8.4275181754
 30
0.0
 10
10.785410791
 20
8.4229695612
 30
0.0
 11
11.003815736
 21
8.4229695612
 31
0.0
 11
10.988135034
 21
8.436148622
 31
0.0
 11
10.9730058588
 21
8.4472095415
 31
0.0
 11
10.9582989853
 21
8.4562901074
 31
0.0
 11
10.943899855
 21
8.4634866157
 31
0.0
 11
10.9296918662
 21
8.4688642538
 31
0.0
 11
10.9156165008
 21
8.4724416055
 31
0.0
 11
10.9016046375
 21
8.4742301442
 31
0.0
 11
10.8876217526
 21
8.4742301354
 31
0.0
 11
10.8736099013
 21
8.4724415816
 31
0.0
 11
10.8595345491
 21
8.4688642185
 31
0.0
 11
10.845326576
 21
8.4634865736
 31
0.0
 11
10.8309274695
 21
8.456290067
 31
0.0
 11
10.8162206487
 21
8.4472095283
 31
0.0
 11
10.8010915076
 21
8.4361486335
 31
0.0
 11
10.785410791
 21
8.4229695612
 31
0.0
  0
SPLINE
  5
51D
100
AcDbEntity
  8
0
100
AcDbSpline
 62
7
  6
CONTINUOUS
 70
0
 71
3
 72
20
 73
16
 74
14
 42
0.0000001
 43
0.0000001
 44
0.0000000001
 12
-0.2030916281
 22
-0.1047405856
 32
0.0
 13
-0.2030916281
 23
0.1047405856
 33
0.0
 40
0.0
 40
0.0
 40
0.0
 40
0.0
 40
0.08400078
 40
0.1642864135
 40
0.2416477124
 40
0.3168586769
 40
0.3906773904
 40
0.4636446335
 40
0.5363557412
 40
0.6093229916
 40
0.683141703
 40
0.7583526538
 40
0.8357137743
 40
0.9159992334
 40
1.0
 40
1.0
 40
1.0
 40
1.0
 10
11.761615736
 20
8.0495332271
 30
0.0
 10
11.7559291176
 20
8.0466004635
 30
0.0
 10
11.7446584963
 20
8.0411458688
 30
0.0
 10
11.7276360342
 20
8.0341136399
 30
0.0
 10
11.7108178291
 20
8.0284344622
 30
0.0
 10
11.694103841
 20
8.0241234387
 30
0.0
 10
11.6774267666
 20
8.0212152905
 30
0.0
 10
11.6607511283
 20
8.0197485089
 30
0.0
 10
11.6440753124
 20
8.0197485127
 30
0.0
 10
11.6273996744
 20
8.0212153018
 30
0.0
 10
11.6107226019
 20
8.024123457
 30
0.0
 10
11.5940086297
 20
8.0284344832
 30
0.0
 10
11.5771904526
 20
8.034113656
 30
0.0
 10
11.5601680168
 20
8.0411458754
 30
0.0
 10
11.5488974085
 20
8.046600464
 30
0.0
 10
11.543210791
 20
8.0495332271
 30
0.0
 11
11.761615736
 21
8.0495332271
 31
0.0
 11
11.7443246042
 21
8.0411986401
 31
0.0
 11
11.7273571776
 21
8.0342212055
 31
0.0
 11
11.71059965
 21
8.0285917442
 31
0.0
 11
11.6939518991
 21
8.0243224827
 31
0.0
 11
11.6773312825
 21
8.0214423754
 31
0.0
 11
11.6607208267
 21
8.0199910272
 31
0.0
 11
11.6441056147
 21
8.0199910309
 31
0.0
 11
11.6274951579
 21
8.0214423867
 31
0.0
 11
11.610874543
 21
8.024322501
 31
0.0
 11
11.5942267967
 21
8.028591768
 31
0.0
 11
11.5774693091
 21
8.0342212206
 31
0.0
 11
11.56050192
 21
8.0411986413
 31
0.0
 11
11.543210791
 21
8.0495332271
 31
0.0
  0
SPLINE
  5
51E
100
AcDbEntity
  8
0
100
AcDbSpline
 62
7
  6
CONTINUOUS
 70
0
 71
3
 72
14
 73
10
 74
8
 42
0.0000001
 43
0.0000001
 44
0.0000000001
 12
-0.1341020198
 22
0.0447006733
 32
0.0
 13
-0.1413538121
 23
0.0007757051
 33
0.0
 40
0.0
 40
0.0
 40
0.0
 40
0.0
 40
0.1534989119
 40
0.3011551768
 40
0.4446511797
 40
0.5855532281
 40
0.72500369
 40
0.8632038868
 40
1.0
 40
1.0
 40
1.0
 40
1.0
 10
11.554538507
 20
7.4903548245
 30
0.0
 10
11.5476770023
 20
7.4926419928
 30
0.0
 10
11.5341398291
 20
7.4969081265
 30
0.0
 10
11.5139322909
 20
7.5024603152
 30
0.0
 10
11.4940927277
 20
7.5070521925
 30
0.0
 10
11.4744484377
 20
7.5106888571
 30
0.0
 10
11.4548989206
 20
7.5133520032
 30
0.0
 10
11.4354318367
 20
7.5149908321
 30
0.0
 10
11.4224747359
 20
7.5154315188
 30
0.0
 10
11.4160291852
 20
7.51546689
 30
0.0
 11
11.554538507
 21
7.4903548245
 31
0.0
 11
11.5338384694
 21
7.4968595084
 31
0.0
 11
11.5137077807
 21
7.5023730846
 31
0.0
 11
11.4939426063
 21
7.5069314879
 31
0.0
 11
11.4743556675
 21
7.5105442881
 31
0.0
 11
11.4548220454
 21
7.5131912694
 31
0.0
 11
11.4353557374
 21
7.5148330492
 31
0.0
 11
11.4160291852
 21
7.51546689
 31
0.0
  0
SPLINE
  5
51F
100
AcDbEntity
  8
0
100
AcDbSpline
 62
7
  6
CONTINUOUS
 70
0
 71
3
 72
22
 73
18
 74
16
 42
0.0000001
 43
0.0000001
 44
0.0000000001
 12
-0.1841159816
 22
0.1644656067
 32
0.0
 13
-0.1841159816
 23
-0.1644656067
 33
0.0
 40
0.0
 40
0.0
 40
0.0
 40
0.0
 40
0.0829707213
 40
0.1588845727
 40
0.2288969259
 40
0.2941011876
 40
0.3556367621
 40
0.4144633457
 40
0.4716805954
 40
0.5283199594
 40
0.5855371684
 40
0.6443637117
 40
0.7058992363
 40
0.7711034087
 40
0.8411155225
 40
0.9170292033
 40
1.0
 40
1.0
 40
1.0
 40
1.0
 10
11.761615736
 20
8.4229695612
 30
0.0
 10
11.7565236574
 20
8.4275181712
 30
0.0
 10
11.7465280563
 20
8.4359621154
 30
0.0
 10
11.731340397
 20
8.4471308826
 30
0.0
 10
11.7165672563
 20
8.4563138139
 30
0.0
 10
11.7020846192
 20
8.4636076879
 30
0.0
 10
11.6877907642
 20
8.4690648195
 30
0.0
 10
11.6736028303
 20
8.4727052854
 30
0.0
 10
11.6594716788
 20
8.4745274621
 30
0.0
 10
11.6453547142
 20
8.4745274532
 30
0.0
 10
11.6312235716
 20
8.4727052606
 30
0.0
 10
11.6170356519
 20
8.4690647834
 30
0.0
 10
11.6027418152
 20
8.4636076459
 30
0.0
 10
11.58825921
 20
8.4563137781
 30
0.0
 10
11.5734861066
 20
8.4471308651
 30
0.0
 10
11.5582984695
 20
8.4359621143
 30
0.0
 10
11.5483028742
 20
8.4275181754
 30
0.0
 10
11.543210791
 20
8.4229695612
 30
0.0
 11
11.761615736
 21
8.4229695612
 31
0.0
 11
11.745935034
 21
8.436148622
 31
0.0
 11
11.7308058588
 21
8.4472095415
 31
0.0
 11
11.7160989853
 21
8.4562901074
 31
0.0
 11
11.701699855
 21
8.4634866157
 31
0.0
 11
11.6874918662
 21
8.4688642538
 31
0.0
 11
11.6734165008
 21
8.4724416055
 31
0.0
 11
11.6594046375
 21
8.4742301442
 31
0.0
 11
11.6454217526
 21
8.4742301354
 31
0.0
 11
11.6314099013
 21
8.4724415816
 31
0.0
 11
11.6173345491
 21
8.4688642185
 31
0.0
 11
11.603126576
 21
8.4634865736
 31
0.0
 11
11.5887274695
 21
8.456290067
 31
0.0
 11
11.5740206487
 21
8.4472095283
 31
0.0
 11
11.5588915076
 21
8.4361486335
 31
0.0
 11
11.543210791
 21
8.4229695612
 31
0.0
  0
SPLINE
  5
520
100
AcDbEntity
  8
0
100
AcDbSpline
 62
7
  6
CONTINUOUS
 70
0
 71
3
 72
14
 73
10
 74
8
 42
0.0000001
 43
0.0000001
 44
0.0000000001
 12
0.1411737321
 22
0.0008441808
 32
0.0
 13
0.1339315562
 23
0.0446438521
 33
0.0
 40
0.0
 40
0.0
 40
0.0
 40
0.0
 40
0.137440239
 40
0.2761865377
 40
0.4160160227
 40
0.5570696608
 40
0.7004174394
 40
0.8475340068
 40
1.0
 40
1.0
 40
1.0
 40
1.0
 10
11.4162088281
 20
7.2964756535
 30
0.0
 10
11.4226764786
 20
7.2965143283
 30
0.0
 10
11.4356730259
 20
7.296960345
 30
0.0
 10
11.4551877693
 20
7.298618874
 30
0.0
 10
11.4747605841
 20
7.3013004379
 30
0.0
 10
11.4943948398
 20
7.3049506087
 30
0.0
 10
11.5141816791
 20
7.309543259
 30
0.0
 10
11.5342830869
 20
7.3150752016
 30
0.0
 10
11.5477318378
 20
7.3193154082
 30
0.0
 10
11.554538507
 20
7.321584298
 30
0.0
 11
11.4162088281
 21
7.2964756535
 31
0.0
 11
11.4356014097
 21
7.2971204544
 31
0.0
 11
11.4551186089
 21
7.2987806539
 31
0.0
 11
11.4746783502
 21
7.3014467244
 31
0.0
 11
11.4942587224
 21
7.3050734998
 31
0.0
 11
11.5139755264
 21
7.3096337699
 31
0.0
 11
11.5340048328
 21
7.3151286272
 31
0.0
 11
11.554538507
 21
7.321584298
 31
0.0
  0
SPLINE
  5
521
100
AcDbEntity
  8
0
100
AcDbSpline
 62
7
  6
CONTINUOUS
 70
0
 71
3
 72
14
 73
10
 74
8
 42
0.0000001
 43
0.0000001
 44
0.0000000001
 12
0.1346085507
 22
-0.0448695169
 32
0.0
 13
0.141888722
 23
-0.0005709857
 33
0.0
 40
0.0
 40
0.0
 40
0.0
 40
0.0
 40
0.1535473384
 40
0.301231588
 40
0.4447431215
 40
0.585661791
 40
0.7251455683
 40
0.8633390892
 40
1.0
 40
1.0
 40
1.0
 40
1.0
 10
11.2735132635
 20
7.321584298
 30
0.0
 10
11.2804028584
 20
7.3192877663
 30
0.0
 10
11.2939949289
 20
7.3150053407
 30
0.0
 10
11.3142843592
 20
7.3094358168
 30
0.0
 10
11.3342037104
 20
7.3048347161
 30
0.0
 10
11.3539277386
 20
7.3011966488
 30
0.0
 10
11.3735556886
 20
7.2985420121
 30
0.0
 10
11.3930930913
 20
7.2969173863
 30
0.0
 10
11.4060933001
 20
7.2965006987
 30
0.0
 10
11.4125568474
 20
7.2964746883
 30
0.0
 11
11.2735132635
 21
7.321584298
 31
0.0
 11
11.2942985288
 21
7.3150545259
 31
0.0
 11
11.314510436
 21
7.3095240101
 31
0.0
 11
11.3343544417
 21
7.304956691
 31
0.0
 11
11.3540201096
 21
7.301342994
 31
0.0
 11
11.3736346376
 21
7.2987034418
 31
0.0
 11
11.3931754511
 21
7.2970784801
 31
0.0
 11
11.4125568474
 21
7.2964746883
 31
0.0
  0
SPLINE
  5
522
100
AcDbEntity
  8
0
100
AcDbSpline
 62
7
  6
CONTINUOUS
 70
0
 71
3
 72
14
 73
10
 74
8
 42
0.0000001
 43
0.0000001
 44
0.0000000001
 12
-0.1418137799
 22
-0.0005971976
 32
0.0
 13
-0.1345375574
 23
-0.0448458525
 33
0.0
 40
0.0
 40
0.0
 40
0.0
 40
0.0
 40
0.1372917298
 40
0.2760340643
 40
0.4159008164
 40
0.5569728338
 40
0.70033712
 40
0.8474830077
 40
1.0
 40
1.0
 40
1.0
 40
1.0
 10
11.4124818814
 20
7.51546822
 30
0.0
 10
11.4059919283
 20
7.5154408899
 30
0.0
 10
11.3929430719
 20
7.5150124202
 30
0.0
 10
11.3733430233
 20
7.5133751876
 30
0.0
 10
11.353676202
 20
7.5107023393
 30
0.0
 10
11.3339467788
 20
7.5070506384
 30
0.0
 10
11.3140649986
 20
7.5024467618
 30
0.0
 10
11.2938666134
 20
7.4968942186
 30
0.0
 10
11.280353018
 20
7.4926347427
 30
0.0
 10
11.2735132635
 20
7.4903548245
 30
0.0
 11
11.4124818814
 21
7.51546822
 31
0.0
 11
11.3930216082
 21
7.5148518557
 31
0.0
 11
11.3734143497
 21
7.5132115727
 31
0.0
 11
11.3537579539
 21
7.5105542044
 31
0.0
 11
11.3340835378
 21
7.5069261572
 31
0.0
 11
11.3142728433
 21
7.5023551017
 31
0.0
 11
11.2941473122
 21
7.4968400736
 31
0.0
 11
11.2735132635
 21
7.4903548245
 31
0.0
  0
SPLINE
  5
523
100
AcDbEntity
  8
0
100
AcDbSpline
 62
7
  6
CONTINUOUS
 70
0
 71
3
 72
14
 73
10
 74
8
 42
0.0000001
 43
0.0000001
 44
0.0000000001
 12
-0.1346740792
 22
0.0448913597
 32
0.0
 13
-0.1419577946
 23
0.0005712638
 33
0.0
 40
0.0
 40
0.0
 40
0.0
 40
0.0
 40
0.1535439459
 40
0.3012244625
 40
0.4447299583
 40
0.5856439478
 40
0.7251330018
 40
0.8632807574
 40
1.0
 40
1.0
 40
1.0
 40
1.0
 10
11.2735132635
 20
7.4903548245
 30
0.0
 10
11.266620467
 20
7.4926524234
 30
0.0
 10
11.2530220653
 20
7.4969367321
 30
0.0
 10
11.2327232008
 20
7.5025082374
 30
0.0
 10
11.2127945816
 20
7.5071104642
 30
0.0
 10
11.1930609105
 20
7.5107485798
 30
0.0
 10
11.1734252494
 20
7.5134026932
 30
0.0
 10
11.1538771903
 20
7.5150234381
 30
0.0
 10
11.1408701891
 20
7.515443527
 30
0.0
 10
11.1344007351
 20
7.5154695612
 30
0.0
 11
11.2735132635
 21
7.4903548245
 31
0.0
 11
11.2527182839
 21
7.4968874552
 31
0.0
 11
11.2324968933
 21
7.5024199559
 31
0.0
 11
11.2126438291
 21
7.5069882912
 31
0.0
 11
11.1929689614
 21
7.5106021044
 31
0.0
 11
11.1733438571
 21
7.5132409204
 31
0.0
 11
11.1537997913
 21
7.5148635572
 31
0.0
 11
11.1344007351
 21
7.5154695612
 31
0.0
  0
SPLINE
  5
524
100
AcDbEntity
  8
0
100
AcDbSpline
 62
7
  6
CONTINUOUS
 70
0
 71
3
 72
14
 73
10
 74
8
 42
0.0000001
 43
0.0000001
 44
0.0000000001
 12
0.1418203628
 22
0.0005972253
 32
0.0
 13
0.1345438025
 23
0.0448479342
 33
0.0
 40
0.0
 40
0.0
 40
0.0
 40
0.0
 40
0.1372765794
 40
0.276016044
 40
0.4158873883
 40
0.5569625006
 40
0.7003298238
 40
0.8474792555
 40
1.0
 40
1.0
 40
1.0
 40
1.0
 10
11.1345379337
 20
7.2964748966
 30
0.0
 10
11.1410274718
 20
7.2965022249
 30
0.0
 10
11.1540762766
 20
7.2969243496
 30
0.0
 10
11.17367656
 20
7.2985636792
 30
0.0
 10
11.1933445859
 20
7.3012356915
 30
0.0
 10
11.2130754619
 20
7.3048876065
 30
0.0
 10
11.2329586486
 20
7.3094915981
 30
0.0
 10
11.2531584659
 20
7.3150444594
 30
0.0
 10
11.2666730232
 20
7.3193042179
 30
0.0
 10
11.2735132635
 20
7.321584298
 30
0.0
 11
11.1345379337
 21
7.2964748966
 31
0.0
 11
11.1539971016
 21
7.2970868188
 31
0.0
 11
11.1736048975
 21
7.2987267511
 31
0.0
 11
11.1932628947
 21
7.3013840081
 31
0.0
 11
11.2129386982
 21
7.3050120726
 31
0.0
 11
11.2327507675
 21
7.3095832834
 31
0.0
 11
11.252877741
 21
7.3150986147
 31
0.0
 11
11.2735132635
 21
7.321584298
 31
0.0
  0
SPLINE
  5
525
100
AcDbEntity
  8
0
100
AcDbSpline
 62
7
  6
CONTINUOUS
 70
0
 71
3
 72
14
 73
10
 74
8
 42
0.0000001
 43
0.0000001
 44
0.0000000001
 12
0.134101937
 22
-0.0447006457
 32
0.0
 13
0.1413537247
 23
-0.0007757047
 33
0.0
 40
0.0
 40
0.0
 40
0.0
 40
0.0
 40
0.1534990068
 40
0.301155363
 40
0.4446514546
 40
0.5855535901
 40
0.7250041381
 40
0.8632044203
 40
1.0
 40
1.0
 40
1.0
 40
1.0
 10
10.99248802
 20
7.321584298
 30
0.0
 10
10.9993495247
 20
7.3192971297
 30
0.0
 10
11.0128866979
 20
7.3150309981
 30
0.0
 10
11.0330942359
 20
7.3094788002
 30
0.0
 10
11.0529338001
 20
7.3048869553
 30
0.0
 10
11.0725780863
 20
7.301250173
 30
0.0
 10
11.0921276175
 20
7.2985874593
 30
0.0
 10
11.1115946202
 20
7.2969470413
 30
0.0
 10
11.1245518202
 20
7.2965102748
 30
0.0
 10
11.1309973418
 20
7.2964749038
 30
0.0
 11
10.99248802
 21
7.321584298
 31
0.0
 11
11.0131880576
 21
7.3150796141
 31
0.0
 11
11.0333187462
 21
7.3095660379
 31
0.0
 11
11.0530839207
 21
7.3050076346
 31
0.0
 11
11.0726708594
 21
7.3013948344
 31
0.0
 11
11.0922044816
 21
7.2987478531
 31
0.0
 11
11.1116707896
 21
7.2971060733
 31
0.0
 11
11.1309973418
 21
7.2964749038
 31
0.0
  0
SPLINE
  5
526
100
AcDbEntity
  8
0
100
AcDbSpline
 62
7
  6
CONTINUOUS
 70
0
 71
3
 72
14
 73
10
 74
8
 42
0.0000001
 43
0.0000001
 44
0.0000000001
 12
-0.1412754667
 22
-0.0008532936
 32
0.0
 13
-0.1340281203
 23
-0.0446760401
 33
0.0
 40
0.0
 40
0.0
 40
0.0
 40
0.0
 40
0.1370647678
 40
0.275749624
 40
0.4156911145
 40
0.5568210083
 40
0.7002433281
 40
0.8474455526
 40
1.0
 40
1.0
 40
1.0
 40
1.0
 10
11.130919404
 20
7.5154674379
 30
0.0
 10
11.1244647744
 20
7.5154284524
 30
0.0
 10
11.1114794606
 20
7.5149853584
 30
0.0
 10
11.0919652186
 20
7.5133348121
 30
0.0
 10
11.0723715511
 20
7.510656182
 30
0.0
 10
11.0527101616
 20
7.5070053578
 30
0.0
 10
11.0328975443
 20
7.5024096319
 30
0.0
 10
11.0127699165
 20
7.4968721155
 30
0.0
 10
10.9993035486
 20
7.4926266674
 30
0.0
 10
10.99248802
 20
7.4903548245
 30
0.0
 11
11.130919404
 21
7.5154674379
 31
0.0
 11
11.111565758
 21
7.5148269209
 31
0.0
 11
11.0920425314
 21
7.5131733858
 31
0.0
 11
11.0724522055
 21
7.5105091553
 31
0.0
 11
11.0528463442
 21
7.5068820089
 31
0.0
 11
11.033104417
 21
7.5023188778
 31
0.0
 11
11.0130485713
 21
7.4968184174
 31
0.0
 11
10.99248802
 21
7.4903548245
 31
0.0
  0
SPLINE
  5
527
100
AcDbEntity
  8
0
100
AcDbSpline
 62
7
  6
CONTINUOUS
 70
0
 71
3
 72
10
 73
6
 74
4
 42
0.0000001
 43
0.0000001
 44
0.0000000001
 12
0.0036520067
 22
0.0
 32
0.0
 13
0.0036520067
 23
0.0
 33
0.0
 40
0.0
 40
0.0
 40
0.0
 40
0.0
 40
0.3305663917
 40
0.6635213635
 40
1.0
 40
1.0
 40
1.0
 40
1.0
 10
11.4125568474
 20
7.2964746883
 30
0.0
 10
11.4129592576
 20
7.2964746883
 30
0.0
 10
11.4137669678
 20
7.2964679456
 30
0.0
 10
11.4149843189
 20
7.2964674467
 30
0.0
 10
11.4157992207
 20
7.2964756535
 30
0.0
 10
11.4162088281
 20
7.2964756535
 30
0.0
 11
11.4125568474
 21
7.2964746883
 31
0.0
 11
11.4137640672
 21
7.2964695612
 31
0.0
 11
11.414980021
 21
7.2964695612
 31
0.0
 11
11.4162088281
 21
7.2964756535
 31
0.0
  0
SPLINE
  5
528
100
AcDbEntity
  8
0
100
AcDbSpline
 62
7
  6
CONTINUOUS
 70
0
 71
3
 72
10
 73
6
 74
4
 42
0.0000001
 43
0.0000001
 44
0.0000000001
 12
0.0035406161
 22
0.0
 32
0.0
 13
0.0035406161
 23
0.0
 33
0.0
 40
0.0
 40
0.0
 40
0.0
 40
0.0
 40
0.329884295
 40
0.6628752476
 40
1.0
 40
1.0
 40
1.0
 40
1.0
 10
11.1309973418
 20
7.2964749038
 30
0.0
 10
11.131386673
 20
7.2964749038
 30
0.0
 10
11.1321689824
 20
7.2964677367
 30
0.0
 10
11.1333492022
 20
7.2964678337
 30
0.0
 10
11.1341400573
 20
7.2964748966
 30
0.0
 10
11.1345379337
 20
7.2964748966
 30
0.0
 11
11.1309973418
 21
7.2964749038
 31
0.0
 11
11.1321653232
 21
7.2964695612
 31
0.0
 11
11.1333443163
 21
7.2964695612
 31
0.0
 11
11.1345379337
 21
7.2964748966
 31
0.0
  0
SPLINE
  5
529
100
AcDbEntity
  8
0
100
AcDbSpline
 62
7
  6
CONTINUOUS
 70
0
 71
3
 72
29
 73
25
 74
23
 42
0.0000001
 43
0.0000001
 44
0.0000000001
 12
-0.428023258
 22
-0.1103723652
 32
0.0
 13
-0.428023258
 23
0.1103723652
 33
0.0
 40
0.0
 40
0.0
 40
0.0
 40
0.0
 40
0.0478800336
 40
0.0948757254
 40
0.1411542863
 40
0.1868752999
 40
0.232176073
 40
0.277166767
 40
0.3219352193
 40
0.3665573442
 40
0.411082228
 40
0.4555540877
 40
0.5000000002
 40
0.5444459128
 40
0.5889177725
 40
0.6334426563
 40
0.6780647813
 40
0.7228332336
 40
0.7678239275
 40
0.8131247004
 40
0.8588457139
 40
0.9051242747
 40
0.9521199663
 40
1.0
 40
1.0
 40
1.0
 40
1.0
 10
11.4919182085
 20
8.0495332271
 30
0.0
 10
11.4850869525
 20
8.0477716829
 30
0.0
 10
11.4715185393
 20
8.0444039452
 30
0.0
 10
11.4512390562
 20
8.0397834534
 30
0.0
 10
11.4311817552
 20
8.0356377826
 30
0.0
 10
11.4112868406
 20
8.0319620697
 30
0.0
 10
11.3915029268
 20
8.0287561273
 30
0.0
 10
11.3717896111
 20
8.0260239075
 30
0.0
 10
11.3521161905
 20
8.0237720638
 30
0.0
 10
11.3324617866
 20
8.0220087364
 30
0.0
 10
11.3128128454
 20
8.0207420294
 30
0.0
 10
11.2931638322
 20
8.0199789063
 30
0.0
 10
11.2735132634
 20
8.0197239899
 30
0.0
 10
11.2538626945
 20
8.0199789063
 30
0.0
 10
11.2342136813
 20
8.0207420294
 30
0.0
 10
11.2145647401
 20
8.0220087364
 30
0.0
 10
11.1949103363
 20
8.0237720639
 30
0.0
 10
11.1752369156
 20
8.0260239076
 30
0.0
 10
11.1555235999
 20
8.0287561273
 30
0.0
 10
11.1357396862
 20
8.0319620698
 30
0.0
 10
11.1158447716
 20
8.0356377826
 30
0.0
 10
11.0957874708
 20
8.0397834534
 30
0.0
 10
11.0755079877
 20
8.0444039452
 30
0.0
 10
11.0619395745
 20
8.0477716829
 30
0.0
 10
11.0551083185
 20
8.0495332271
 30
0.0
 11
11.4919182085
 21
8.0495332271
 31
0.0
 11
11.4713762059
 21
8.0444393094
 31
0.0
 11
11.4511210352
 21
8.0398288277
 31
0.0
 11
11.4310873639
 21
8.0356922641
 31
0.0
 11
11.4112131802
 21
8.0320243196
 31
0.0
 11
11.3914463876
 21
8.0288247591
 31
0.0
 11
11.3717472449
 21
8.0260977215
 31
0.0
 11
11.3520865345
 21
8.023850095
 31
0.0
 11
11.3324411515
 21
8.022089817
 31
0.0
 11
11.3128007105
 21
8.0208253116
 31
0.0
 11
11.2931578128
 21
8.0200634414
 31
0.0
 11
11.2735132634
 21
8.0198089455
 31
0.0
 11
11.253868714
 21
8.0200634414
 31
0.0
 11
11.2342258163
 21
8.0208253116
 31
0.0
 11
11.2145853752
 21
8.022089817
 31
0.0
 11
11.1949399922
 21
8.0238500951
 31
0.0
 11
11.1752792819
 21
8.0260977216
 31
0.0
 11
11.1555801391
 21
8.0288247591
 31
0.0
 11
11.1358133466
 21
8.0320243196
 31
0.0
 11
11.115939163
 21
8.0356922641
 31
0.0
 11
11.0959054917
 21
8.0398288277
 31
0.0
 11
11.0756503211
 21
8.0444393094
 31
0.0
 11
11.0551083185
 21
8.0495332271
 31
0.0
  0
SPLINE
  5
52A
100
AcDbEntity
  8
0
100
AcDbSpline
 62
7
  6
CONTINUOUS
 70
0
 71
3
 72
31
 73
27
 74
25
 42
0.0000001
 43
0.0000001
 44
0.0000000001
 12
-0.41285429
 22
0.1843955388
 32
0.0
 13
-0.41285429
 23
-0.1843955388
 33
0.0
 40
0.0
 40
0.0
 40
0.0
 40
0.0
 40
0.0476058778
 40
0.0934677752
 40
0.1378271552
 40
0.1809131451
 40
0.2229255212
 40
0.2640450093
 40
0.3044257798
 40
0.3442174035
 40
0.3835519708
 40
0.4225488031
 40
0.4613299682
 40
0.5000000004
 40
0.5386700327
 40
0.5774511977
 40
0.6164480299
 40
0.6557825973
 40
0.6955742208
 40
0.7359549913
 40
0.7770744792
 40
0.8190868552
 40
0.8621728449
 40
0.9065322247
 40
0.9523941222
 40
1.0
 40
1.0
 40
1.0
 40
1.0
 10
11.4919182085
 20
8.4229695612
 30
0.0
 10
11.4853667782
 20
8.4258956651
 30
0.0
 10
11.4724260723
 20
8.4314686006
 30
0.0
 10
11.4531155835
 20
8.4391340128
 30
0.0
 10
11.4342227299
 20
8.4459812252
 30
0.0
 10
11.4156742621
 20
8.4520477474
 30
0.0
 10
11.3974043209
 20
8.4573623469
 30
0.0
 10
11.3793574211
 20
8.4619452595
 30
0.0
 10
11.361485399
 20
8.4658104268
 30
0.0
 10
11.3437476379
 20
8.468966608
 30
0.0
 10
11.3261093352
 20
8.4714188448
 30
0.0
 10
11.3085405683
 20
8.473169679
 30
0.0
 10
11.2910162863
 20
8.4742200158
 30
0.0
 10
11.2735132633
 20
8.4745701154
 30
0.0
 10
11.2560102403
 20
8.4742200158
 30
0.0
 10
11.2384859583
 20
8.473169679
 30
0.0
 10
11.2209171914
 20
8.4714188447
 30
0.0
 10
11.2032788888
 20
8.4689666079
 30
0.0
 10
11.1855411277
 20
8.4658104268
 30
0.0
 10
11.1676691056
 20
8.4619452595
 30
0.0
 10
11.1496222058
 20
8.4573623468
 30
0.0
 10
11.1313522648
 20
8.4520477473
 30
0.0
 10
11.112803797
 20
8.4459812252
 30
0.0
 10
11.0939109435
 20
8.4391340128
 30
0.0
 10
11.0746004546
 20
8.4314686006
 30
0.0
 10
11.0616597488
 20
8.4258956651
 30
0.0
 10
11.0551083185
 20
8.4229695612
 30
0.0
 11
11.4919182085
 21
8.4229695612
 31
0.0
 11
11.4721444737
 21
8.4314754014
 31
0.0
 11
11.4528673613
 21
8.439118451
 31
0.0
 11
11.4340072895
 21
8.4459452997
 31
0.0
 11
11.4154883449
 21
8.4519943404
 31
0.0
 11
11.3972461045
 21
8.4572937471
 31
0.0
 11
11.3792238955
 21
8.4618639984
 31
0.0
 11
11.3613766794
 21
8.4657182197
 31
0.0
 11
11.3436618506
 21
8.4688656183
 31
0.0
 11
11.3260451841
 21
8.4713110963
 31
0.0
 11
11.3084989453
 21
8.4730569527
 31
0.0
 11
11.2909948927
 21
8.4741044138
 31
0.0
 11
11.2735132633
 21
8.4744535273
 31
0.0
 11
11.2560316338
 21
8.4741044138
 31
0.0
 11
11.2385275813
 21
8.4730569527
 31
0.0
 11
11.2209813425
 21
8.4713110963
 31
0.0
 11
11.203364676
 21
8.4688656182
 31
0.0
 11
11.1856498473
 21
8.4657182196
 31
0.0
 11
11.1678026312
 21
8.4618639983
 31
0.0
 11
11.1497804222
 21
8.4572937471
 31
0.0
 11
11.1315381819
 21
8.4519943404
 31
0.0
 11
11.1130192375
 21
8.4459452997
 31
0.0
 11
11.0941591657
 21
8.4391184511
 31
0.0
 11
11.0748820533
 21
8.4314754014
 31
0.0
 11
11.0551083185
 21
8.4229695612
 31
0.0
  0
SPLINE
  5
52B
100
AcDbEntity
  8
0
100
AcDbSpline
 62
7
  6
CONTINUOUS
 70
0
 71
3
 72
29
 73
25
 74
23
 42
0.0000001
 43
0.0000001
 44
0.0000000001
 12
-0.2031214553
 22
-0.1047559684
 32
0.0
 13
-0.2031214553
 23
0.1047559684
 33
0.0
 40
0.0
 40
0.0
 40
0.0
 40
0.0
 40
0.0501645929
 40
0.0988539942
 40
0.1462731912
 40
0.1926207403
 40
0.2380755107
 40
0.2827939832
 40
0.3269170129
 40
0.3705812167
 40
0.4139046868
 40
0.4570078763
 40
0.5000000002
 40
0.5429921242
 40
0.5860953137
 40
0.6294187838
 40
0.6730829876
 40
0.7172060173
 40
0.7619244898
 40
0.8073792601
 40
0.853726809
 40
0.9011460059
 40
0.949835407
 40
1.0
 40
1.0
 40
1.0
 40
1.0
 10
11.003815736
 20
8.0495332271
 30
0.0
 10
11.0004192343
 20
8.047781547
 30
0.0
 10
10.9936730609
 20
8.0444311729
 30
0.0
 10
10.9835319243
 20
8.0398076967
 30
0.0
 10
10.9735011566
 20
8.0356587834
 30
0.0
 10
10.9635507744
 20
8.0319796487
 30
0.0
 10
10.9536548828
 20
8.0287701658
 30
0.0
 10
10.9437931352
 20
8.0260344134
 30
0.0
 10
10.9339501069
 20
8.023779222
 30
0.0
 10
10.9241153752
 20
8.022012946
 30
0.0
 10
10.9142823028
 20
8.0207439177
 30
0.0
 10
10.9044483889
 20
8.0199793054
 30
0.0
 10
10.8946132634
 20
8.0197238754
 30
0.0
 10
10.884778138
 20
8.0199793054
 30
0.0
 10
10.8749442241
 20
8.0207439177
 30
0.0
 10
10.8651111516
 20
8.022012946
 30
0.0
 10
10.85527642
 20
8.023779222
 30
0.0
 10
10.8454333916
 20
8.0260344134
 30
0.0
 10
10.8355716441
 20
8.0287701659
 30
0.0
 10
10.8256757524
 20
8.0319796487
 30
0.0
 10
10.8157253703
 20
8.0356587835
 30
0.0
 10
10.8056946027
 20
8.0398076967
 30
0.0
 10
10.7955534661
 20
8.0444311729
 30
0.0
 10
10.7888072927
 20
8.047781547
 30
0.0
 10
10.785410791
 20
8.0495332271
 30
0.0
 11
11.003815736
 21
8.0495332271
 31
0.0
 11
10.9935447347
 21
8.0444393094
 31
0.0
 11
10.9834171493
 21
8.0398288277
 31
0.0
 11
10.9734003137
 21
8.0356922641
 31
0.0
 11
10.9634632218
 21
8.0320243196
 31
0.0
 11
10.9535798255
 21
8.0288247591
 31
0.0
 11
10.9437302542
 21
8.0260977215
 31
0.0
 11
10.933899899
 21
8.023850095
 31
0.0
 11
10.9240772075
 21
8.022089817
 31
0.0
 11
10.914256987
 21
8.0208253116
 31
0.0
 11
10.9044355381
 21
8.0200634414
 31
0.0
 11
10.8946132634
 21
8.0198089455
 31
0.0
 11
10.8847909887
 21
8.0200634414
 31
0.0
 11
10.8749695399
 21
8.0208253116
 31
0.0
 11
10.8651493193
 21
8.022089817
 31
0.0
 11
10.8553266278
 21
8.0238500951
 31
0.0
 11
10.8454962727
 21
8.0260977216
 31
0.0
 11
10.8356467013
 21
8.0288247591
 31
0.0
 11
10.825763305
 21
8.0320243196
 31
0.0
 11
10.8158262132
 21
8.0356922641
 31
0.0
 11
10.8058093776
 21
8.0398288277
 31
0.0
 11
10.7956817923
 21
8.0444393094
 31
0.0
 11
10.785410791
 21
8.0495332271
 31
0.0
  0
SPLINE
  5
52C
100
AcDbEntity
  8
0
100
AcDbSpline
 62
7
  6
CONTINUOUS
 70
0
 71
3
 72
31
 73
27
 74
25
 42
0.0000001
 43
0.0000001
 44
0.0000000001
 12
-0.1841599752
 22
0.164504905
 32
0.0
 13
-0.1841599752
 23
-0.164504905
 33
0.0
 40
0.0
 40
0.0
 40
0.0
 40
0.0
 40
0.052816461
 40
0.1026317996
 40
0.1497770398
 40
0.194567141
 40
0.2372863838
 40
0.2782033548
 40
0.3175675253
 40
0.3556342449
 40
0.3926541658
 40
0.4288789048
 40
0.46457451
 40
0.5000000004
 40
0.5354254908
 40
0.5711210959
 40
0.6073458349
 40
0.6443657558
 40
0.6824324752
 40
0.7217966458
 40
0.7627136166
 40
0.8054328592
 40
0.8502229603
 40
0.8973682004
 40
0.947183539
 40
1.0
 40
1.0
 40
1.0
 40
1.0
 10
11.003815736
 20
8.4229695612
 30
0.0
 10
11.0005735099
 20
8.4258657502
 30
0.0
 10
10.994173027
 20
8.4313829414
 30
0.0
 10
10.9845183153
 20
8.4390550095
 30
0.0
 10
10.9750714563
 20
8.4459098034
 30
0.0
 10
10.9657955048
 20
8.4519848177
 30
0.0
 10
10.9566570413
 20
8.4573088023
 30
0.0
 10
10.947627821
 20
8.4619018155
 30
0.0
 10
10.9386833196
 20
8.4657774249
 30
0.0
 10
10.9298029291
 20
8.4689438148
 30
0.0
 10
10.9209691631
 20
8.4714052865
 30
0.0
 10
10.9121673415
 20
8.473163543
 30
0.0
 10
10.9033855829
 20
8.4742187112
 30
0.0
 10
10.8946132634
 20
8.4745704894
 30
0.0
 10
10.8858409439
 20
8.4742187112
 30
0.0
 10
10.8770591852
 20
8.473163543
 30
0.0
 10
10.8682573637
 20
8.4714052864
 30
0.0
 10
10.8594235977
 20
8.4689438147
 30
0.0
 10
10.8505432072
 20
8.4657774248
 30
0.0
 10
10.8415987059
 20
8.4619018155
 30
0.0
 10
10.8325694856
 20
8.4573088022
 30
0.0
 10
10.8234310221
 20
8.4519848177
 30
0.0
 10
10.8141550706
 20
8.4459098034
 30
0.0
 10
10.8047082116
 20
8.4390550095
 30
0.0
 10
10.7950535
 20
8.4313829415
 30
0.0
 10
10.788653017
 20
8.4258657502
 30
0.0
 10
10.785410791
 20
8.4229695612
 30
0.0
 11
11.003815736
 21
8.4229695612
 31
0.0
 11
10.9939288686
 21
8.4314754014
 31
0.0
 11
10.9842903124
 21
8.439118451
 31
0.0
 11
10.9748602765
 21
8.4459452997
 31
0.0
 11
10.9656008042
 21
8.4519943404
 31
0.0
 11
10.956479684
 21
8.4572937471
 31
0.0
 11
10.9474685795
 21
8.4618639984
 31
0.0
 11
10.9385449714
 21
8.4657182197
 31
0.0
 11
10.9296875571
 21
8.4688656183
 31
0.0
 11
10.9208792238
 21
8.4713110963
 31
0.0
 11
10.9121061044
 21
8.4730569527
 31
0.0
 11
10.9033540781
 21
8.4741044138
 31
0.0
 11
10.8946132634
 21
8.4744535273
 31
0.0
 11
10.8858724487
 21
8.4741044138
 31
0.0
 11
10.8771204224
 21
8.4730569527
 31
0.0
 11
10.868347303
 21
8.4713110963
 31
0.0
 11
10.8595389697
 21
8.4688656182
 31
0.0
 11
10.8506815554
 21
8.4657182196
 31
0.0
 11
10.8417579474
 21
8.4618639983
 31
0.0
 11
10.8327468429
 21
8.4572937471
 31
0.0
 11
10.8236257227
 21
8.4519943404
 31
0.0
 11
10.8143662505
 21
8.4459452997
 31
0.0
 11
10.8049362146
 21
8.4391184511
 31
0.0
 11
10.7952976584
 21
8.4314754014
 31
0.0
 11
10.785410791
 21
8.4229695612
 31
0.0
  0
SPLINE
  5
52D
100
AcDbEntity
  8
0
100
AcDbSpline
 62
7
  6
CONTINUOUS
 70
0
 71
3
 72
29
 73
25
 74
23
 42
0.0000001
 43
0.0000001
 44
0.0000000001
 12
-0.2031214553
 22
-0.1047559684
 32
0.0
 13
-0.2031214553
 23
0.1047559684
 33
0.0
 40
0.0
 40
0.0
 40
0.0
 40
0.0
 40
0.0501645929
 40
0.0988539942
 40
0.1462731912
 40
0.1926207403
 40
0.2380755107
 40
0.2827939832
 40
0.3269170129
 40
0.3705812167
 40
0.4139046868
 40
0.4570078763
 40
0.5000000002
 40
0.5429921242
 40
0.5860953137
 40
0.6294187838
 40
0.6730829876
 40
0.7172060173
 40
0.7619244898
 40
0.8073792601
 40
0.853726809
 40
0.9011460059
 40
0.949835407
 40
1.0
 40
1.0
 40
1.0
 40
1.0
 10
11.761615736
 20
8.0495332271
 30
0.0
 10
11.7582192343
 20
8.047781547
 30
0.0
 10
11.7514730609
 20
8.0444311729
 30
0.0
 10
11.7413319243
 20
8.0398076967
 30
0.0
 10
11.7313011566
 20
8.0356587834
 30
0.0
 10
11.7213507744
 20
8.0319796487
 30
0.0
 10
11.7114548828
 20
8.0287701658
 30
0.0
 10
11.7015931352
 20
8.0260344134
 30
0.0
 10
11.6917501069
 20
8.023779222
 30
0.0
 10
11.6819153752
 20
8.022012946
 30
0.0
 10
11.6720823028
 20
8.0207439177
 30
0.0
 10
11.6622483889
 20
8.0199793054
 30
0.0
 10
11.6524132634
 20
8.0197238754
 30
0.0
 10
11.642578138
 20
8.0199793054
 30
0.0
 10
11.6327442241
 20
8.0207439177
 30
0.0
 10
11.6229111516
 20
8.022012946
 30
0.0
 10
11.61307642
 20
8.023779222
 30
0.0
 10
11.6032333916
 20
8.0260344134
 30
0.0
 10
11.5933716441
 20
8.0287701659
 30
0.0
 10
11.5834757524
 20
8.0319796487
 30
0.0
 10
11.5735253703
 20
8.0356587835
 30
0.0
 10
11.5634946027
 20
8.0398076967
 30
0.0
 10
11.5533534661
 20
8.0444311729
 30
0.0
 10
11.5466072927
 20
8.047781547
 30
0.0
 10
11.543210791
 20
8.0495332271
 30
0.0
 11
11.761615736
 21
8.0495332271
 31
0.0
 11
11.7513447347
 21
8.0444393094
 31
0.0
 11
11.7412171493
 21
8.0398288277
 31
0.0
 11
11.7312003137
 21
8.0356922641
 31
0.0
 11
11.7212632218
 21
8.0320243196
 31
0.0
 11
11.7113798255
 21
8.0288247591
 31
0.0
 11
11.7015302542
 21
8.0260977215
 31
0.0
 11
11.691699899
 21
8.023850095
 31
0.0
 11
11.6818772075
 21
8.022089817
 31
0.0
 11
11.672056987
 21
8.0208253116
 31
0.0
 11
11.6622355381
 21
8.0200634414
 31
0.0
 11
11.6524132634
 21
8.0198089455
 31
0.0
 11
11.6425909887
 21
8.0200634414
 31
0.0
 11
11.6327695399
 21
8.0208253116
 31
0.0
 11
11.6229493193
 21
8.022089817
 31
0.0
 11
11.6131266278
 21
8.0238500951
 31
0.0
 11
11.6032962727
 21
8.0260977216
 31
0.0
 11
11.5934467013
 21
8.0288247591
 31
0.0
 11
11.583563305
 21
8.0320243196
 31
0.0
 11
11.5736262132
 21
8.0356922641
 31
0.0
 11
11.5636093776
 21
8.0398288277
 31
0.0
 11
11.5534817923
 21
8.0444393094
 31
0.0
 11
11.543210791
 21
8.0495332271
 31
0.0
  0
SPLINE
  5
52E
100
AcDbEntity
  8
0
100
AcDbSpline
 62
7
  6
CONTINUOUS
 70
0
 71
3
 72
31
 73
27
 74
25
 42
0.0000001
 43
0.0000001
 44
0.0000000001
 12
-0.1841599752
 22
0.164504905
 32
0.0
 13
-0.1841599752
 23
-0.164504905
 33
0.0
 40
0.0
 40
0.0
 40
0.0
 40
0.0
 40
0.052816461
 40
0.1026317996
 40
0.1497770398
 40
0.194567141
 40
0.2372863838
 40
0.2782033548
 40
0.3175675253
 40
0.3556342449
 40
0.3926541658
 40
0.4288789048
 40
0.46457451
 40
0.5000000004
 40
0.5354254908
 40
0.5711210959
 40
0.6073458349
 40
0.6443657558
 40
0.6824324752
 40
0.7217966458
 40
0.7627136166
 40
0.8054328592
 40
0.8502229603
 40
0.8973682004
 40
0.947183539
 40
1.0
 40
1.0
 40
1.0
 40
1.0
 10
11.761615736
 20
8.4229695612
 30
0.0
 10
11.7583735099
 20
8.4258657502
 30
0.0
 10
11.751973027
 20
8.4313829414
 30
0.0
 10
11.7423183153
 20
8.4390550095
 30
0.0
 10
11.7328714563
 20
8.4459098034
 30
0.0
 10
11.7235955048
 20
8.4519848177
 30
0.0
 10
11.7144570413
 20
8.4573088023
 30
0.0
 10
11.705427821
 20
8.4619018155
 30
0.0
 10
11.6964833196
 20
8.4657774249
 30
0.0
 10
11.6876029291
 20
8.4689438148
 30
0.0
 10
11.6787691631
 20
8.4714052865
 30
0.0
 10
11.6699673415
 20
8.473163543
 30
0.0
 10
11.6611855829
 20
8.4742187112
 30
0.0
 10
11.6524132634
 20
8.4745704894
 30
0.0
 10
11.6436409439
 20
8.4742187112
 30
0.0
 10
11.6348591852
 20
8.473163543
 30
0.0
 10
11.6260573637
 20
8.4714052864
 30
0.0
 10
11.6172235977
 20
8.4689438147
 30
0.0
 10
11.6083432072
 20
8.4657774248
 30
0.0
 10
11.5993987059
 20
8.4619018155
 30
0.0
 10
11.5903694856
 20
8.4573088022
 30
0.0
 10
11.5812310221
 20
8.4519848177
 30
0.0
 10
11.5719550706
 20
8.4459098034
 30
0.0
 10
11.5625082116
 20
8.4390550095
 30
0.0
 10
11.5528535
 20
8.4313829415
 30
0.0
 10
11.546453017
 20
8.4258657502
 30
0.0
 10
11.543210791
 20
8.4229695612
 30
0.0
 11
11.761615736
 21
8.4229695612
 31
0.0
 11
11.7517288686
 21
8.4314754014
 31
0.0
 11
11.7420903124
 21
8.439118451
 31
0.0
 11
11.7326602765
 21
8.4459452997
 31
0.0
 11
11.7234008042
 21
8.4519943404
 31
0.0
 11
11.714279684
 21
8.4572937471
 31
0.0
 11
11.7052685795
 21
8.4618639984
 31
0.0
 11
11.6963449714
 21
8.4657182197
 31
0.0
 11
11.6874875571
 21
8.4688656183
 31
0.0
 11
11.6786792238
 21
8.4713110963
 31
0.0
 11
11.6699061044
 21
8.4730569527
 31
0.0
 11
11.6611540781
 21
8.4741044138
 31
0.0
 11
11.6524132634
 21
8.4744535273
 31
0.0
 11
11.6436724487
 21
8.4741044138
 31
0.0
 11
11.6349204224
 21
8.4730569527
 31
0.0
 11
11.626147303
 21
8.4713110963
 31
0.0
 11
11.6173389697
 21
8.4688656182
 31
0.0
 11
11.6084815554
 21
8.4657182196
 31
0.0
 11
11.5995579474
 21
8.4618639983
 31
0.0
 11
11.5905468429
 21
8.4572937471
 31
0.0
 11
11.5814257227
 21
8.4519943404
 31
0.0
 11
11.5721662505
 21
8.4459452997
 31
0.0
 11
11.5627362146
 21
8.4391184511
 31
0.0
 11
11.5530976584
 21
8.4314754014
 31
0.0
 11
11.543210791
 21
8.4229695612
 31
0.0
  0
SPLINE
  5
52F
100
AcDbEntity
  8
0
100
AcDbSpline
 62
7
  6
CONTINUOUS
 70
0
 71
3
 72
18
 73
14
 74
12
 42
0.0000001
 43
0.0000001
 44
0.0000000001
 12
-0.1412825081
 22
-0.0008533361
 32
0.0
 13
-0.1340348005
 23
-0.0446782668
 33
0.0
 40
0.0
 40
0.0
 40
0.0
 40
0.0
 40
0.0884420392
 40
0.1766268484
 40
0.2649374732
 40
0.353496052
 40
0.4424623286
 40
0.5320255094
 40
0.6224432016
 40
0.7140378463
 40
0.8071843578
 40
0.9023443418
 40
1.0
 40
1.0
 40
1.0
 40
1.0
 10
11.130919404
 20
7.5154674379
 30
0.0
 10
11.1267542997
 20
7.5154422809
 30
0.0
 10
11.1184369237
 20
7.5152275551
 30
0.0
 10
11.1059773124
 20
7.514529347
 30
0.0
 10
11.0935429767
 20
7.513403712
 30
0.0
 10
11.0811150929
 20
7.5118748729
 30
0.0
 10
11.0686829375
 20
7.5099485481
 30
0.0
 10
11.0562280601
 20
7.50763536
 30
0.0
 10
11.0437232799
 20
7.5049422331
 30
0.0
 10
11.0311319508
 20
7.5018726248
 30
0.0
 10
11.0184075329
 20
7.4984246053
 30
0.0
 10
11.0054961922
 20
7.4945906117
 30
0.0
 10
10.9968511055
 20
7.4918091864
 30
0.0
 10
10.99248802
 20
7.4903548245
 30
0.0
 11
11.130919404
 21
7.5154674379
 31
0.0
 11
11.1184275388
 21
7.5151643719
 31
0.0
 11
11.105988342
 21
7.5144586768
 31
0.0
 11
11.0935617598
 21
7.5133384371
 31
0.0
 11
11.081143132
 21
7.5118126631
 31
0.0
 11
11.068721241
 21
7.5098912913
 31
0.0
 11
11.0562794183
 21
7.5075840668
 31
0.0
 11
11.0437902786
 21
7.504898249
 31
0.0
 11
11.0312165801
 21
7.5018371251
 31
0.0
 11
11.0185133439
 21
7.4983992492
 31
0.0
 11
11.0056236434
 21
7.4945762643
 31
0.0
 11
10.99248802
 21
7.4903548245
 31
0.0
  0
SPLINE
  5
530
100
AcDbEntity
  8
0
100
AcDbSpline
 62
7
  6
CONTINUOUS
 70
0
 71
3
 72
18
 73
14
 74
12
 42
0.0000001
 43
0.0000001
 44
0.0000000001
 12
-0.13410871
 22
0.0447029033
 32
0.0
 13
-0.141360864
 23
0.0007757438
 33
0.0
 40
0.0
 40
0.0
 40
0.0
 40
0.0
 40
0.0981357483
 40
0.1936201134
 40
0.2869561156
 40
0.378625161
 40
0.4690167415
 40
0.5584692
 40
0.6472601909
 40
0.7355716943
 40
0.8235807257
 40
0.9116023921
 40
1.0
 40
1.0
 40
1.0
 40
1.0
 10
11.554538507
 20
7.4903548245
 30
0.0
 10
11.5501515541
 20
7.4918171422
 30
0.0
 10
11.5414654417
 20
7.4946112182
 30
0.0
 10
11.5285013948
 20
7.4984583936
 30
0.0
 10
11.5157422504
 20
7.5019120862
 30
0.0
 10
11.5031320175
 20
7.5049816624
 30
0.0
 10
11.49062215
 20
7.507670709
 30
0.0
 10
11.4781739086
 20
7.5099773226
 30
0.0
 10
11.4657589491
 20
7.5118958344
 30
0.0
 10
11.4533575272
 20
7.5134168002
 30
0.0
 10
11.4409494263
 20
7.5145364423
 30
0.0
 10
11.428506757
 20
7.5152305751
 30
0.0
 10
11.4201945059
 20
7.515444032
 30
0.0
 10
11.4160291852
 20
7.51546689
 30
0.0
 11
11.554538507
 21
7.4903548245
 31
0.0
 11
11.5413307696
 21
7.4945985525
 31
0.0
 11
11.5283893168
 21
7.4984343843
 31
0.0
 11
11.5156522729
 21
7.5018776558
 31
0.0
 11
11.5030603554
 21
7.504938571
 31
0.0
 11
11.4905668762
 21
7.5076201533
 31
0.0
 11
11.4781326288
 21
7.5099206475
 31
0.0
 11
11.4657276013
 21
7.5118342768
 31
0.0
 11
11.4533362389
 21
7.5133521219
 31
0.0
 11
11.4409449397
 21
7.5144655225
 31
0.0
 11
11.4285217472
 21
7.5151674416
 31
0.0
 11
11.4160291852
 21
7.51546689
 31
0.0
  0
SPLINE
  5
531
100
AcDbEntity
  8
0
100
AcDbSpline
 62
7
  6
CONTINUOUS
 70
0
 71
3
 72
18
 73
14
 74
12
 42
0.0000001
 43
0.0000001
 44
0.0000000001
 12
0.141180789
 22
0.000844223
 32
0.0
 13
0.1339382511
 23
0.0446460837
 33
0.0
 40
0.0
 40
0.0
 40
0.0
 40
0.0
 40
0.0882652535
 40
0.1764863721
 40
0.2648185394
 40
0.3533950699
 40
0.4423742709
 40
0.531953144
 40
0.6223867183
 40
0.7139965618
 40
0.8071578976
 40
0.9023318452
 40
1.0
 40
1.0
 40
1.0
 40
1.0
 10
11.4162088281
 20
7.2964756535
 30
0.0
 10
11.4203626142
 20
7.296500492
 30
0.0
 10
11.4286674333
 20
7.296714002
 30
0.0
 10
11.4411123142
 20
7.2974147231
 30
0.0
 10
11.4535410735
 20
7.2985415654
 30
0.0
 10
11.4659622353
 20
7.3000714148
 30
0.0
 10
11.4783873749
 20
7.3019981126
 30
0.0
 10
11.4908351196
 20
7.3043111935
 30
0.0
 10
11.5033328444
 20
7.3070037594
 30
0.0
 10
11.5159170345
 20
7.3100723501
 30
0.0
 10
11.5286341571
 20
7.3135188914
 30
0.0
 10
11.5415379798
 20
7.3173509413
 30
0.0
 10
11.5501780064
 20
7.3201307977
 30
0.0
 10
11.554538507
 20
7.321584298
 30
0.0
 11
11.4162088281
 21
7.2964756535
 31
0.0
 11
11.4286667539
 21
7.2967774572
 31
0.0
 11
11.4411019828
 21
7.297485143
 31
0.0
 11
11.4535224631
 21
7.2986068426
 31
0.0
 11
11.4659344484
 21
7.3001335557
 31
0.0
 11
11.4783489707
 21
7.3020552705
 31
0.0
 11
11.490783792
 21
7.3043624099
 31
0.0
 11
11.5032659296
 21
7.3070476846
 31
0.0
 11
11.5158324889
 21
7.3101077963
 31
0.0
 11
11.5285284681
 21
7.313544211
 31
0.0
 11
11.5414106937
 21
7.3173652727
 31
0.0
 11
11.554538507
 21
7.321584298
 31
0.0
  0
SPLINE
  5
532
100
AcDbEntity
  8
0
100
AcDbSpline
 62
7
  6
CONTINUOUS
 70
0
 71
3
 72
18
 73
14
 74
12
 42
0.0000001
 43
0.0000001
 44
0.0000000001
 12
0.1346153725
 22
-0.0448717908
 32
0.0
 13
0.1418959128
 23
-0.0005710146
 33
0.0
 40
0.0
 40
0.0
 40
0.0
 40
0.0
 40
0.0982361002
 40
0.1938065857
 40
0.2872183705
 40
0.3789570959
 40
0.4694191296
 40
0.558942012
 40
0.6477916146
 40
0.7361925538
 40
0.8243132585
 40
0.9122229526
 40
1.0
 40
1.0
 40
1.0
 40
1.0
 10
11.2735132635
 20
7.321584298
 30
0.0
 10
11.2779212932
 20
7.3201149547
 30
0.0
 10
11.2866487691
 20
7.3173080601
 30
0.0
 10
11.2996743487
 20
7.3134450066
 30
0.0
 10
11.3124933238
 20
7.3099792358
 30
0.0
 10
11.3251625076
 20
7.3069012697
 30
0.0
 10
11.3377310228
 20
7.304207555
 30
0.0
 10
11.3502373886
 20
7.301900194
 30
0.0
 10
11.3627113294
 20
7.2999848479
 30
0.0
 10
11.3751735665
 20
7.2984707348
 30
0.0
 10
11.387634298
 20
7.2973640787
 30
0.0
 10
11.4000956404
 20
7.2966848988
 30
0.0
 10
11.4084051126
 20
7.2964913956
 30
0.0
 10
11.4125568474
 20
7.2964746883
 30
0.0
 11
11.2735132635
 21
7.321584298
 31
0.0
 11
11.2867846861
 21
7.3173208951
 31
0.0
 11
11.299787408
 21
7.313469326
 31
0.0
 11
11.3125839983
 21
7.310014108
 31
0.0
 11
11.3252344691
 21
7.3069449488
 31
0.0
 11
11.3377865532
 21
7.3042587435
 31
0.0
 11
11.3502793978
 21
7.3019574597
 31
0.0
 11
11.3627413476
 21
7.300047276
 31
0.0
 11
11.3751938644
 21
7.2985364538
 31
0.0
 11
11.3876492596
 21
7.2974342405
 31
0.0
 11
11.4001045712
 21
7.2967493569
 31
0.0
 11
11.4125568474
 21
7.2964746883
 31
0.0
  0
SPLINE
  5
533
100
AcDbEntity
  8
0
100
AcDbSpline
 62
7
  6
CONTINUOUS
 70
0
 71
3
 72
18
 73
14
 74
12
 42
0.0000001
 43
0.0000001
 44
0.0000000001
 12
-0.1418209342
 22
-0.0005972277
 32
0.0
 13
-0.1345443445
 23
-0.0448481148
 33
0.0
 40
0.0
 40
0.0
 40
0.0
 40
0.0
 40
0.0884997724
 40
0.1767701675
 40
0.2650620609
 40
0.3536028402
 40
0.4425541596
 40
0.5320978984
 40
0.6224949185
 40
0.7140698094
 40
0.8071989382
 40
0.902347095
 40
1.0
 40
1.0
 40
1.0
 40
1.0
 10
11.4124818814
 20
7.51546822
 30
0.0
 10
11.4082981746
 20
7.5154506018
 30
0.0
 10
11.3999420386
 20
7.5152472192
 30
0.0
 10
11.3874283325
 20
7.5145610103
 30
0.0
 10
11.3749432069
 20
7.5134441019
 30
0.0
 10
11.3624690964
 20
7.5119209781
 30
0.0
 10
11.3499906481
 20
7.5099970963
 30
0.0
 10
11.3374895569
 20
7.5076831829
 30
0.0
 10
11.324938715
 20
7.5049863414
 30
0.0
 10
11.312301091
 20
7.5019101008
 30
0.0
 10
11.2995297143
 20
7.4984525619
 30
0.0
 10
11.2865702243
 20
7.4946061215
 30
0.0
 10
11.2778928122
 20
7.4918146741
 30
0.0
 10
11.2735132635
 20
7.4903548245
 30
0.0
 11
11.4124818814
 21
7.51546822
 31
0.0
 11
11.3999338857
 21
7.5151832276
 31
0.0
 11
11.3874344273
 21
7.5144893881
 31
0.0
 11
11.3749620742
 21
7.5133782501
 31
0.0
 11
11.3624973648
 21
7.5118582316
 31
0.0
 11
11.3500288984
 21
7.5099392707
 31
0.0
 11
11.3375410795
 21
7.507631387
 31
0.0
 11
11.32500605
 21
7.5049419228
 31
0.0
 11
11.3123861996
 21
7.5018742396
 31
0.0
 11
11.2996362359
 21
7.4984269502
 31
0.0
 11
11.2866986292
 21
7.4945916392
 31
0.0
 11
11.2735132635
 21
7.4903548245
 31
0.0
  0
SPLINE
  5
534
100
AcDbEntity
  8
0
100
AcDbSpline
 62
7
  6
CONTINUOUS
 70
0
 71
3
 72
18
 73
14
 74
12
 42
0.0000001
 43
0.0000001
 44
0.0000000001
 12
-0.1346808709
 22
0.0448936236
 32
0.0
 13
-0.1419649536
 23
0.0005712926
 33
0.0
 40
0.0
 40
0.0
 40
0.0
 40
0.0
 40
0.0982034022
 40
0.1937413179
 40
0.2871210445
 40
0.3788283544
 40
0.4692581407
 40
0.5587492353
 40
0.6475727922
 40
0.7359364701
 40
0.824012469
 40
0.9119369322
 40
1.0
 40
1.0
 40
1.0
 40
1.0
 10
11.2735132635
 20
7.4903548245
 30
0.0
 10
11.2691045569
 20
7.4918243934
 30
0.0
 10
11.2603757704
 20
7.494631694
 30
0.0
 10
11.2473482479
 20
7.4984952477
 30
0.0
 10
11.2345273903
 20
7.5019613975
 30
0.0
 10
11.2218564005
 20
7.5050396128
 30
0.0
 10
11.2092861358
 20
7.5077334572
 30
0.0
 10
11.1967778213
 20
7.510040855
 30
0.0
 10
11.1843022019
 20
7.5119561181
 30
0.0
 10
11.1718389171
 20
7.5134697347
 30
0.0
 10
11.1593752647
 20
7.5145768066
 30
0.0
 10
11.146895662
 20
7.5152540084
 30
0.0
 10
11.1385680249
 20
7.5154527913
 30
0.0
 10
11.1344007351
 20
7.5154695612
 30
0.0
 11
11.2735132635
 21
7.4903548245
 31
0.0
 11
11.2602397957
 21
7.4946188591
 31
0.0
 11
11.2472351596
 21
7.4984709181
 31
0.0
 11
11.2344367038
 21
7.5019265085
 31
0.0
 11
11.2217843686
 21
7.5049959306
 31
0.0
 11
11.2092306028
 21
7.5076822465
 31
0.0
 11
11.1967360625
 21
7.509983532
 31
0.0
 11
11.1842716462
 21
7.5118937066
 31
0.0
 11
11.1718182676
 21
7.5134041805
 31
0.0
 11
11.1593630925
 21
7.5145059
 31
0.0
 11
11.1468995933
 21
7.5151906163
 31
0.0
 11
11.1344007351
 21
7.5154695612
 31
0.0
  0
SPLINE
  5
535
100
AcDbEntity
  8
0
100
AcDbSpline
 62
7
  6
CONTINUOUS
 70
0
 71
3
 72
18
 73
14
 74
12
 42
0.0000001
 43
0.0000001
 44
0.0000000001
 12
0.1418275555
 22
0.0005972556
 32
0.0
 13
0.1345506261
 23
0.0448502087
 33
0.0
 40
0.0
 40
0.0
 40
0.0
 40
0.0
 40
0.0880512185
 40
0.1762351615
 40
0.2646072742
 40
0.3532145019
 40
0.4422114946
 40
0.5318106464
 40
0.6222636531
 40
0.7138931526
 40
0.8070787152
 40
0.9022857029
 40
1.0
 40
1.0
 40
1.0
 40
1.0
 10
11.1345379337
 20
7.2964748966
 30
0.0
 10
11.1387006301
 20
7.2964924263
 30
0.0
 10
11.1470319953
 20
7.2966884317
 30
0.0
 10
11.1595249008
 20
7.2973732955
 30
0.0
 10
11.1720136859
 20
7.2984874015
 30
0.0
 10
11.1844976564
 20
7.3000098236
 30
0.0
 10
11.196984782
 20
7.30193326
 30
0.0
 10
11.2094940192
 20
7.3042472597
 30
0.0
 10
11.2220533553
 20
7.3069447969
 30
0.0
 10
11.2346994385
 20
7.3100222557
 30
0.0
 10
11.2474793125
 20
7.313481515
 30
0.0
 10
11.2604475076
 20
7.3173302052
 30
0.0
 10
11.2691307569
 20
7.3201234624
 30
0.0
 10
11.2735132635
 20
7.321584298
 30
0.0
 11
11.1345379337
 21
7.2964748966
 31
0.0
 11
11.1470230317
 21
7.296753219
 31
0.0
 11
11.1595109719
 21
7.2974438687
 31
0.0
 11
11.1719954604
 21
7.2985535894
 31
0.0
 11
11.184470356
 21
7.3000727749
 31
0.0
 11
11.196946068
 21
7.3019911135
 31
0.0
 11
11.2094424548
 21
7.3042991446
 31
0.0
 11
11.2219860649
 21
7.3069893203
 31
0.0
 11
11.2346142246
 21
7.3100581775
 31
0.0
 11
11.2473726573
 21
7.313507172
 31
0.0
 11
11.2603189604
 21
7.3173447214
 31
0.0
 11
11.2735132635
 21
7.321584298
 31
0.0
  0
SPLINE
  5
536
100
AcDbEntity
  8
0
100
AcDbSpline
 62
7
  6
CONTINUOUS
 70
0
 71
3
 72
18
 73
14
 74
12
 42
0.0000001
 43
0.0000001
 44
0.0000000001
 12
0.1341086504
 22
-0.0447028835
 32
0.0
 13
0.1413608012
 23
-0.0007757435
 33
0.0
 40
0.0
 40
0.0
 40
0.0
 40
0.0
 40
0.0981960497
 40
0.1937381623
 40
0.2871295086
 40
0.378852035
 40
0.4692983593
 40
0.5588049907
 40
0.6476404897
 40
0.736016582
 40
0.8241043916
 40
0.9120450058
 40
1.0
 40
1.0
 40
1.0
 40
1.0
 10
10.99248802
 20
7.321584298
 30
0.0
 10
10.9968776665
 20
7.3201210824
 30
0.0
 10
11.0055690901
 20
7.3173253599
 30
0.0
 10
11.0185410492
 20
7.3134761405
 30
0.0
 10
11.0313078998
 20
7.3100208889
 30
0.0
 10
11.0439257943
 20
7.30695021
 30
0.0
 10
11.0564433505
 20
7.3042605315
 30
0.0
 10
11.0688989305
 20
7.3019538451
 30
0.0
 10
11.0813217283
 20
7.3000357165
 30
0.0
 10
11.09373216
 20
7.2985154046
 30
0.0
 10
11.106143396
 20
7.2973981351
 30
0.0
 10
11.1185652168
 20
7.2967059591
 30
0.0
 10
11.126852879
 20
7.2964976473
 30
0.0
 10
11.1309973418
 20
7.2964749038
 30
0.0
 11
10.99248802
 21
7.321584298
 31
0.0
 11
11.0057038964
 21
7.3173380551
 31
0.0
 11
11.0186532545
 21
7.3135001894
 31
0.0
 11
11.0313979791
 21
7.3100553727
 31
0.0
 11
11.0439974132
 21
7.3069933969
 31
0.0
 11
11.0564986628
 21
7.3043111683
 31
0.0
 11
11.0689406669
 21
7.3020105357
 31
0.0
 11
11.0813521428
 21
7.300097477
 31
0.0
 11
11.0937527877
 21
7.2985803618
 31
0.0
 11
11.1061553735
 21
7.2974681994
 31
0.0
 11
11.1185672498
 21
7.29676921
 31
0.0
 11
11.1309973418
 21
7.2964749038
 31
0.0
  0
ENDSEC
  0
SECTION
  2
OBJECTS
  0
DICTIONARY
  5
C
100
AcDbDictionary
280
0
281
1
  3
ACAD_GROUP
350
D
  3
ACAD_MLINESTYLE
350
17
  3
ACAD_LAYOUT
350
1A
  3
ACAD_PLOTSETTINGS
350
19
  3
ACAD_PLOTSTYLENAME
350
E
  0
DICTIONARY
  5
D
102
{ACAD_REACTORS
330
C
102
}
100
AcDbDictionary
280
0
281
1
  0
ACDBDICTIONARYWDFLT
  5
E
102
{ACAD_REACTORS
330
C
102
}
100
AcDbDictionary
281
1
  3
Normal
350
F
100
AcDbDictionaryWithDefault
340
F
  0
DICTIONARY
  5
17
102
{ACAD_REACTORS
330
C
102
}
100
AcDbDictionary
280
0
281
1
  3
Standard
350
18
  0
DICTIONARY
  5
19
102
{ACAD_REACTORS
330
C
102
}
100
AcDbDictionary
281
1
  0
DICTIONARY
  5
1A
102
{ACAD_REACTORS
330
C
102
}
100
AcDbDictionary
281
1
  3
Layout1
350
1E
  3
Model
350
22
  0
ACDBPLACEHOLDER
  5
F
102
{ACAD_REACTORS
330
E
102
}
  0
MLINESTYLE
  5
18
102
{ACAD_REACTORS
330
17
102
}
100
AcDbMlineStyle
  2
STANDARD
 70
0
  3

 62
256
 51
90.0
 52
90.0
 71
2
 49
0.5
 62
256
  6
BYLAYER
 49
-0.5
 62
256
  6
BYLAYER
  0
LAYOUT
  5
1E
102
{ACAD_REACTORS
330
1A
102
}
100
AcDbPlotSettings
  1

  2

  4

  6

 40
0.0
 41
0.0
 42
0.0
 43
0.0
 44
0.0
 45
0.0
 46
0.0
 47
0.0
 48
0.0
 49
0.0
140
0.0
141
0.0
142
1.0
143
1.0
 70
0
 72
0
 73
0
 74
0
  7

 75
0
147
1.0
148
0.0
149
0.0
100
AcDbLayout
  1
Layout1
 70
0
 71
0
 10
0.0
 20
0.0
 11
0.0
 21
0.0
 12
0.0
 22
0.0
 32
0.0
 14
0.0
 24
0.0
 34
0.0
 15
0.0
 25
0.0
 35
0.0
146
0.0
 13
0.0
 23
0.0
 33
0.0
 16
0.0
 26
0.0
 36
0.0
 17
0.0
 27
0.0
 37
0.0
 76
0
330
1B
331
0
345
0
346
0
  0
LAYOUT
  5
22
102
{ACAD_REACTORS
330
1A
102
}
100
AcDbPlotSettings
  1

  2

  4

  6

 40
0.0
 41
0.0
 42
0.0
 43
0.0
 44
0.0
 45
0.0
 46
0.0
 47
0.0
 48
0.0
 49
0.0
140
0.0
141
0.0
142
1.0
143
1.0
 70
0
 72
0
 73
0
 74
0
  7

 75
0
147
1.0
148
0.0
149
0.0
100
AcDbLayout
  1
Model
 70
0
 71
0
 10
0.0
 20
0.0
 11
0.0
 21
0.0
 12
0.0
 22
0.0
 32
0.0
 14
0.0
 24
0.0
 34
0.0
 15
0.0
 25
0.0
 35
0.0
146
0.0
 13
0.0
 23
0.0
 33
0.0
 16
0.0
 26
0.0
 36
0.0
 17
0.0
 27
0.0
 37
0.0
 76
0
330
1F
331
0
345
0
346
0
  0
ENDSEC
  0
EOF
