999
DXF file: CBCGLJNX4F_5.dxf
999
Pro/ENGINEER 2006240 by Parametric Technology Corporation
  0
SECTION
  2
HEADER
  9
$ACADVER
  1
AC1015
  9
$DWGCODEPAGE
  3
ANSI_1252
  9
$EXTMAX
 10
22.0
 20
17.0
 30
0.0
  9
$EXTMIN
 10
0.0
 20
0.0
 30
0.0
  9
$LIMMIN
 10
0.0
 20
0.0
  9
$LIMMAX
 10
22.0
 20
17.0
  9
$VIEWCTR
 10
11.0
 20
8.5
  9
$VIEWSIZE
 40
17.0
  9
$CLAYER
  8
0
  9
$LTSCALE
 40
1.21
  9
$CELTYPE
  6
BYLAYER
  9
$DIMSCALE
 40
1.0
  9
$DIMASZ
 40
0.1875
  9
$DIMEXO
 40
0.1375
  9
$DIMDLI
 40
0.836
  9
$DIMEXE
 40
0.396
  9
$DIMCEN
 40
0.198
  9
$DIMLFAC
 40
1.0
  9
$DIMBLK
  1
_CLOSED
  9
$DIMTXT
 40
0.15625
  9
$DIMTOL
 70
0
  9
$DIMLIM
 70
0
  9
$DIMTFAC
 40
1.0
  9
$PDMODE
 70
3
  9
$PDSIZE
 40
0.3125
  9
$HANDSEED
  5
52F
  9
$MEASUREMENT
 70
0
  9
$INSUNITS
 70
1
  0
ENDSEC
  0
SECTION
  2
CLASSES
  0
CLASS
  1
ACDBDICTIONARYWDFLT
  2
AcDbDictionaryWithDefault
  3
AutoCAD 2000
 90
0
280
0
281
0
  0
CLASS
  1
ACDBPLACEHOLDER
  2
AcDbPlaceHolder
  3
AutoCAD 2000
 90
0
280
0
281
0
  0
CLASS
  1
LAYOUT
  2
AcDbLayout
  3
AutoCAD 2000
 90
0
280
0
281
0
  0
ENDSEC
  0
SECTION
  2
TABLES
  0
TABLE
  2
VPORT
  5
8
100
AcDbSymbolTable
 70
2
  0
VPORT
  5
1F4
100
AcDbSymbolTableRecord
100
AcDbViewportTableRecord
  2
*ACTIVE
 70
0
 10
0.0
 20
0.0
 11
1.0
 21
1.0
 12
11.0
 22
8.5
 13
0.0
 23
0.0
 14
1.0
 24
1.0
 15
0.0
 25
0.0
 16
0.0
 26
0.0
 36
1.0
 17
0.0
 27
0.0
 37
0.0
 40
17.0
 41
1.2941176471
 42
50.0
 43
0.0
 44
0.0
 50
0.0
 51
0.0
 71
0
 72
100
 73
1
 74
1
 75
0
 76
0
 77
0
 78
0
  0
ENDTAB
  0
TABLE
  2
LTYPE
  5
5
100
AcDbSymbolTable
 70
6
  0
LTYPE
  5
14
100
AcDbSymbolTableRecord
100
AcDbLinetypeTableRecord
  2
BYBLOCK
 70
0
  3

 72
65
 73
0
 40
0.0
  0
LTYPE
  5
15
100
AcDbSymbolTableRecord
100
AcDbLinetypeTableRecord
  2
BYLAYER
 70
0
  3

 72
65
 73
0
 40
0.0
  0
LTYPE
  5
16
100
AcDbSymbolTableRecord
100
AcDbLinetypeTableRecord
  2
CONTINUOUS
 70
64
  3
Solid line
 72
65
 73
0
 40
0.0
  0
LTYPE
  5
1F5
100
AcDbSymbolTableRecord
100
AcDbLinetypeTableRecord
  2
CENTER
 70
64
  3
____ _ ____ _ ____ _ ____ _ ____ _ ____ _ ____
 72
65
 73
4
 40
0.6
 49
0.375
 74
0
 49
-0.075
 74
0
 49
0.075
 74
0
 49
-0.075
 74
0
  0
LTYPE
  5
1F6
100
AcDbSymbolTableRecord
100
AcDbLinetypeTableRecord
  2
HIDDEN
 70
64
  3
- - - - - - - - - - - - - - - - - - - -
 72
65
 73
2
 40
0.2
 49
0.1
 74
0
 49
-0.1
 74
0
  0
LTYPE
  5
1F7
100
AcDbSymbolTableRecord
100
AcDbLinetypeTableRecord
  2
PHANTOM
 70
64
  3
_____ _ _ _____ _ _ _____ _ _ _____
 72
65
 73
6
 40
0.8
 49
0.45
 74
0
 49
-0.05
 74
0
 49
0.1
 74
0
 49
-0.05
 74
0
 49
0.1
 74
0
 49
-0.05
 74
0
  0
LTYPE
  5
1F8
100
AcDbSymbolTableRecord
100
AcDbLinetypeTableRecord
  2
DOT
 70
64
  3
. . . . . . . . . . . . . . . . . . . .
 72
65
 73
2
 40
0.2
 49
0.1
 74
0
 49
-0.1
 74
0
  0
LTYPE
  5
1F9
100
AcDbSymbolTableRecord
100
AcDbLinetypeTableRecord
  2
DASHED
 70
64
  3
- - - - - - - - - - - - - - - - - - - -
 72
65
 73
2
 40
0.2
 49
0.1
 74
0
 49
-0.1
 74
0
  0
ENDTAB
  0
TABLE
  2
LAYER
  5
2
100
AcDbSymbolTable
 70
36
  0
LAYER
  5
10
100
AcDbSymbolTableRecord
100
AcDbLayerTableRecord
  2
0
 70
0
 62
7
  6
CONTINUOUS
370
-3
390
F
  0
LAYER
  5
1FA
100
AcDbSymbolTableRecord
100
AcDbLayerTableRecord
  2
DEFAULT_1
 70
0
 62
7
  6
CENTER
370
-3
390
F
  0
LAYER
  5
1FB
100
AcDbSymbolTableRecord
100
AcDbLayerTableRecord
  2
DEFAULT_2
 70
0
 62
8
  6
HIDDEN
370
-3
390
F
  0
LAYER
  5
1FC
100
AcDbSymbolTableRecord
100
AcDbLayerTableRecord
  2
DEFAULT_3
 70
0
 62
7
  6
PHANTOM
370
-3
390
F
  0
LAYER
  5
1FD
100
AcDbSymbolTableRecord
100
AcDbLayerTableRecord
  2
01_ALL_DTM_PLN
 70
0
 62
7
  6
CONTINUOUS
370
-3
390
F
  0
LAYER
  5
1FE
100
AcDbSymbolTableRecord
100
AcDbLayerTableRecord
  2
01__ASM_ALL_DTM_PLN
 70
0
 62
7
  6
CONTINUOUS
370
-3
390
F
  0
LAYER
  5
1FF
100
AcDbSymbolTableRecord
100
AcDbLayerTableRecord
  2
01__ASM_DEF_DTM_PLN
 70
0
 62
7
  6
CONTINUOUS
370
-3
390
F
  0
LAYER
  5
200
100
AcDbSymbolTableRecord
100
AcDbLayerTableRecord
  2
01___PRT_ALL_DTM_PLN
 70
0
 62
7
  6
CONTINUOUS
370
-3
390
F
  0
LAYER
  5
201
100
AcDbSymbolTableRecord
100
AcDbLayerTableRecord
  2
01___PRT_DEF_DTM_PLN
 70
0
 62
7
  6
CONTINUOUS
370
-3
390
F
  0
LAYER
  5
202
100
AcDbSymbolTableRecord
100
AcDbLayerTableRecord
  2
02_ALL_AXES
 70
0
 62
7
  6
CONTINUOUS
370
-3
390
F
  0
LAYER
  5
203
100
AcDbSymbolTableRecord
100
AcDbLayerTableRecord
  2
02__ASM_ALL_AXES
 70
0
 62
7
  6
CONTINUOUS
370
-3
390
F
  0
LAYER
  5
204
100
AcDbSymbolTableRecord
100
AcDbLayerTableRecord
  2
02___PRT_ALL_AXES
 70
0
 62
7
  6
CONTINUOUS
370
-3
390
F
  0
LAYER
  5
205
100
AcDbSymbolTableRecord
100
AcDbLayerTableRecord
  2
03_ALL_CURVES
 70
0
 62
7
  6
CONTINUOUS
370
-3
390
F
  0
LAYER
  5
206
100
AcDbSymbolTableRecord
100
AcDbLayerTableRecord
  2
03__ASM_ALL_CURVES
 70
0
 62
7
  6
CONTINUOUS
370
-3
390
F
  0
LAYER
  5
207
100
AcDbSymbolTableRecord
100
AcDbLayerTableRecord
  2
03___PRT_ALL_CURVES
 70
0
 62
7
  6
CONTINUOUS
370
-3
390
F
  0
LAYER
  5
208
100
AcDbSymbolTableRecord
100
AcDbLayerTableRecord
  2
04_ALL_DTM_PNT
 70
0
 62
7
  6
CONTINUOUS
370
-3
390
F
  0
LAYER
  5
209
100
AcDbSymbolTableRecord
100
AcDbLayerTableRecord
  2
04__ASM_ALL_DTM_PNT
 70
0
 62
7
  6
CONTINUOUS
370
-3
390
F
  0
LAYER
  5
20A
100
AcDbSymbolTableRecord
100
AcDbLayerTableRecord
  2
04___PRT_ALL_DTM_PNT
 70
0
 62
7
  6
CONTINUOUS
370
-3
390
F
  0
LAYER
  5
20B
100
AcDbSymbolTableRecord
100
AcDbLayerTableRecord
  2
05_ALL_DTM_CSYS
 70
0
 62
7
  6
CONTINUOUS
370
-3
390
F
  0
LAYER
  5
20C
100
AcDbSymbolTableRecord
100
AcDbLayerTableRecord
  2
05__ASM_ALL_DTM_CSYS
 70
0
 62
7
  6
CONTINUOUS
370
-3
390
F
  0
LAYER
  5
20D
100
AcDbSymbolTableRecord
100
AcDbLayerTableRecord
  2
05__ASM_DEF_DTM_CSYS
 70
0
 62
7
  6
CONTINUOUS
370
-3
390
F
  0
LAYER
  5
20E
100
AcDbSymbolTableRecord
100
AcDbLayerTableRecord
  2
05___PRT_ALL_DTM_CSYS
 70
0
 62
7
  6
CONTINUOUS
370
-3
390
F
  0
LAYER
  5
20F
100
AcDbSymbolTableRecord
100
AcDbLayerTableRecord
  2
05___PRT_DEF_DTM_CSYS
 70
0
 62
7
  6
CONTINUOUS
370
-3
390
F
  0
LAYER
  5
210
100
AcDbSymbolTableRecord
100
AcDbLayerTableRecord
  2
06_ALL_SURFS
 70
0
 62
7
  6
CONTINUOUS
370
-3
390
F
  0
LAYER
  5
211
100
AcDbSymbolTableRecord
100
AcDbLayerTableRecord
  2
06__ASM_ALL_SURFS
 70
0
 62
7
  6
CONTINUOUS
370
-3
390
F
  0
LAYER
  5
212
100
AcDbSymbolTableRecord
100
AcDbLayerTableRecord
  2
06___PRT_ALL_SURFS
 70
0
 62
7
  6
CONTINUOUS
370
-3
390
F
  0
LAYER
  5
213
100
AcDbSymbolTableRecord
100
AcDbLayerTableRecord
  2
07__ASM_ALL_SKELETONS
 70
0
 62
7
  6
CONTINUOUS
370
-3
390
F
  0
LAYER
  5
214
100
AcDbSymbolTableRecord
100
AcDbLayerTableRecord
  2
CBCGLJNX4F_10
 70
0
 62
7
  6
CONTINUOUS
370
-3
390
F
  0
LAYER
  5
215
100
AcDbSymbolTableRecord
100
AcDbLayerTableRecord
  2
CBCGLJNX4F_5
 70
0
 62
7
  6
CONTINUOUS
370
-3
390
F
  0
LAYER
  5
216
100
AcDbSymbolTableRecord
100
AcDbLayerTableRecord
  2
CBCGLJNX4F_6
 70
0
 62
7
  6
CONTINUOUS
370
-3
390
F
  0
LAYER
  5
217
100
AcDbSymbolTableRecord
100
AcDbLayerTableRecord
  2
CBCGLJNX4F_7
 70
0
 62
7
  6
CONTINUOUS
370
-3
390
F
  0
LAYER
  5
218
100
AcDbSymbolTableRecord
100
AcDbLayerTableRecord
  2
CBCGLJNX4F_8
 70
0
 62
7
  6
CONTINUOUS
370
-3
390
F
  0
LAYER
  5
219
100
AcDbSymbolTableRecord
100
AcDbLayerTableRecord
  2
COPY_GEO_FET
 70
0
 62
7
  6
CONTINUOUS
370
-3
390
F
  0
LAYER
  5
21A
100
AcDbSymbolTableRecord
100
AcDbLayerTableRecord
  2
COSMETIC
 70
0
 62
7
  6
CONTINUOUS
370
-3
390
F
  0
LAYER
  5
21B
100
AcDbSymbolTableRecord
100
AcDbLayerTableRecord
  2
CUT_REF_SURF
 70
0
 62
7
  6
CONTINUOUS
370
-3
390
F
  0
LAYER
  5
21C
100
AcDbSymbolTableRecord
100
AcDbLayerTableRecord
  2
DATESTAMP
 70
0
 62
7
  6
CONTINUOUS
370
-3
390
F
  0
LAYER
  5
21D
100
AcDbSymbolTableRecord
100
AcDbLayerTableRecord
  2
DATUM
 70
0
 62
7
  6
CONTINUOUS
370
-3
390
F
  0
LAYER
  5
21E
100
AcDbSymbolTableRecord
100
AcDbLayerTableRecord
  2
DATUM_B
 70
0
 62
7
  6
CONTINUOUS
370
-3
390
F
  0
LAYER
  5
21F
100
AcDbSymbolTableRecord
100
AcDbLayerTableRecord
  2
DATUM_PLANES
 70
0
 62
7
  6
CONTINUOUS
370
-3
390
F
  0
LAYER
  5
220
100
AcDbSymbolTableRecord
100
AcDbLayerTableRecord
  2
DIM
 70
0
 62
7
  6
CONTINUOUS
370
-3
390
F
  0
LAYER
  5
221
100
AcDbSymbolTableRecord
100
AcDbLayerTableRecord
  2
DIMENSIONS
 70
0
 62
7
  6
CONTINUOUS
370
-3
390
F
  0
LAYER
  5
222
100
AcDbSymbolTableRecord
100
AcDbLayerTableRecord
  2
DIM_1
 70
0
 62
7
  6
CONTINUOUS
370
-3
390
F
  0
LAYER
  5
223
100
AcDbSymbolTableRecord
100
AcDbLayerTableRecord
  2
DIM_2
 70
0
 62
7
  6
CONTINUOUS
370
-3
390
F
  0
LAYER
  5
224
100
AcDbSymbolTableRecord
100
AcDbLayerTableRecord
  2
DIM_3
 70
0
 62
7
  6
CONTINUOUS
370
-3
390
F
  0
LAYER
  5
225
100
AcDbSymbolTableRecord
100
AcDbLayerTableRecord
  2
DTM
 70
0
 62
7
  6
CONTINUOUS
370
-3
390
F
  0
LAYER
  5
226
100
AcDbSymbolTableRecord
100
AcDbLayerTableRecord
  2
EXT_COPY_GEO
 70
0
 62
7
  6
CONTINUOUS
370
-3
390
F
  0
LAYER
  5
227
100
AcDbSymbolTableRecord
100
AcDbLayerTableRecord
  2
LS
 70
0
 62
7
  6
CONTINUOUS
370
-3
390
F
  0
LAYER
  5
228
100
AcDbSymbolTableRecord
100
AcDbLayerTableRecord
  2
ORIGIN
 70
0
 62
7
  6
CONTINUOUS
370
-3
390
F
  0
LAYER
  5
229
100
AcDbSymbolTableRecord
100
AcDbLayerTableRecord
  2
PARAMETERDIMENSIONS
 70
0
 62
7
  6
CONTINUOUS
370
-3
390
F
  0
LAYER
  5
22A
100
AcDbSymbolTableRecord
100
AcDbLayerTableRecord
  2
PARTNUMBER
 70
0
 62
7
  6
CONTINUOUS
370
-3
390
F
  0
LAYER
  5
22B
100
AcDbSymbolTableRecord
100
AcDbLayerTableRecord
  2
PORT_AREAS
 70
0
 62
7
  6
CONTINUOUS
370
-3
390
F
  0
LAYER
  5
22C
100
AcDbSymbolTableRecord
100
AcDbLayerTableRecord
  2
TEXT
 70
0
 62
7
  6
CONTINUOUS
370
-3
390
F
  0
LAYER
  5
22D
100
AcDbSymbolTableRecord
100
AcDbLayerTableRecord
  2
THREAD
 70
0
 62
7
  6
CONTINUOUS
370
-3
390
F
  0
LAYER
  5
22E
100
AcDbSymbolTableRecord
100
AcDbLayerTableRecord
  2
THREADS
 70
0
 62
7
  6
CONTINUOUS
370
-3
390
F
  0
ENDTAB
  0
TABLE
  2
STYLE
  5
3
100
AcDbSymbolTable
 70
1
  0
STYLE
  5
11
100
AcDbSymbolTableRecord
100
AcDbTextStyleTableRecord
  2
STANDARD
 70
0
 40
0.0
 41
0.8
 50
0.0
 71
0
 42
0.2
  3
txt
  4

  0
ENDTAB
  0
TABLE
  2
VIEW
  5
6
100
AcDbSymbolTable
 70
0
  0
ENDTAB
  0
TABLE
  2
UCS
  5
7
100
AcDbSymbolTable
 70
0
  0
ENDTAB
  0
TABLE
  2
APPID
  5
9
100
AcDbSymbolTable
 70
1
  0
APPID
  5
22F
100
AcDbSymbolTableRecord
100
AcDbRegAppTableRecord
  2
ACAD
 70
0
  0
ENDTAB
  0
TABLE
  2
BLOCK_RECORD
  5
1
100
AcDbSymbolTable
 70
0
  0
BLOCK_RECORD
  5
1F
100
AcDbSymbolTableRecord
100
AcDbBlockTableRecord
  2
*MODEL_SPACE
  0
BLOCK_RECORD
  5
1B
100
AcDbSymbolTableRecord
100
AcDbBlockTableRecord
  2
*PAPER_SPACE
  0
ENDTAB
  0
TABLE
  2
DIMSTYLE
  5
A
100
AcDbSymbolTable
 70
1
100
AcDbDimStyleTable
 71
0
  0
DIMSTYLE
105
230
100
AcDbSymbolTableRecord
100
AcDbDimStyleTableRecord
  2
STANDARD
 70
0
  3

  4

 40
1.0
 41
0.1875
 42
0.0625
 43
0.38
 44
0.18
 45
0.0
 46
0.0
 47
0.01
 48
0.01
140
0.15625
141
0.09
142
0.0
143
25.4
144
1.0
145
0.0
146
1.0
147
0.09
 71
0.0
 72
0.0
 73
1
 74
1
 75
0
 76
0
 77
0
 78
4
170
0
171
2
172
0
173
0
174
0
175
0
176
0
177
0
178
0
270
2
271
2
272
2
273
2
274
2
275
0
280
0
281
0
282
0
283
1
284
4
285
0
286
0
287
3
288
0
340
11
  0
ENDTAB
  0
ENDSEC
  0
SECTION
  2
BLOCKS
  0
BLOCK
  5
20
100
AcDbEntity
  8
0
100
AcDbBlockBegin
  2
*MODEL_SPACE
 70
0
 10
0.0
 20
0.0
 30
0.0
  3
*MODEL_SPACE
  1

  0
ENDBLK
  5
21
100
AcDbEntity
  8
0
100
AcDbBlockEnd
  0
BLOCK
  5
1C
100
AcDbEntity
  8
0
100
AcDbBlockBegin
  2
*PAPER_SPACE
 70
0
 10
0.0
 20
0.0
 30
0.0
  3
*PAPER_SPACE
  1

  0
ENDBLK
  5
1D
100
AcDbEntity
  8
0
100
AcDbBlockEnd
  0
ENDSEC
  0
SECTION
  2
ENTITIES
  0
LINE
  5
231
100
AcDbEntity
  8
0
100
AcDbLine
 62
7
  6
CONTINUOUS
 10
8.7154085923
 20
11.7794046618
 11
8.7354085923
 21
11.7994046618
  0
LINE
  5
232
100
AcDbEntity
  8
03__ASM_ALL_CURVES
100
AcDbLine
 62
4
  6
CONTINUOUS
 10
9.8817419249
 20
6.1674046618
 11
9.8550752574
 21
6.1674046618
  0
LINE
  5
233
100
AcDbEntity
  8
03__ASM_ALL_CURVES
100
AcDbLine
 62
4
  6
CONTINUOUS
 10
9.2944085923
 20
6.3324046618
 11
9.3144085923
 21
6.3274046618
  0
LINE
  5
234
100
AcDbEntity
  8
03__ASM_ALL_CURVES
100
AcDbLine
 62
4
  6
CONTINUOUS
 10
9.8550752574
 20
6.1674046618
 11
9.8417419272
 21
6.1724046618
  0
LINE
  5
235
100
AcDbEntity
  8
03__ASM_ALL_CURVES
100
AcDbLine
 62
4
  6
CONTINUOUS
 10
9.8817419249
 20
6.2074046618
 11
9.8950752586
 21
6.2024046618
  0
LINE
  5
236
100
AcDbEntity
  8
03__ASM_ALL_CURVES
100
AcDbLine
 62
4
  6
CONTINUOUS
 10
9.2477419272
 20
6.3274046618
 11
9.2410752574
 21
6.3324046618
  0
LINE
  5
237
100
AcDbEntity
  8
03__ASM_ALL_CURVES
100
AcDbLine
 62
4
  6
CONTINUOUS
 10
9.2810752598
 20
6.3424046618
 11
9.2944085923
 21
6.3324046618
  0
LINE
  5
238
100
AcDbEntity
  8
03__ASM_ALL_CURVES
100
AcDbLine
 62
4
  6
CONTINUOUS
 10
9.2344085923
 20
6.1874046618
 11
9.3144085923
 21
6.1874046618
  0
LINE
  5
239
100
AcDbEntity
  8
03__ASM_ALL_CURVES
100
AcDbLine
 62
4
  6
CONTINUOUS
 10
9.8550752574
 20
6.2074046618
 11
9.8817419249
 21
6.2074046618
  0
LINE
  5
23A
100
AcDbEntity
  8
03__ASM_ALL_CURVES
100
AcDbLine
 62
4
  6
CONTINUOUS
 10
9.9084085923
 20
6.2799046618
 11
9.898408592
 21
6.2799046618
  0
LINE
  5
23B
100
AcDbEntity
  8
03__ASM_ALL_CURVES
100
AcDbLine
 62
4
  6
CONTINUOUS
 10
9.3144085923
 20
6.2799046618
 11
9.304408592
 21
6.2799046618
  0
LINE
  5
23C
100
AcDbEntity
  8
03__ASM_ALL_CURVES
100
AcDbLine
 62
4
  6
CONTINUOUS
 10
9.8817419249
 20
6.3274046618
 11
9.8550752574
 21
6.3274046618
  0
LINE
  5
23D
100
AcDbEntity
  8
03__ASM_ALL_CURVES
100
AcDbLine
 62
4
  6
CONTINUOUS
 10
9.2477419272
 20
6.3674046618
 11
9.2610752574
 21
6.3674046618
  0
LINE
  5
23E
100
AcDbEntity
  8
03__ASM_ALL_CURVES
100
AcDbLine
 62
4
  6
CONTINUOUS
 10
9.2344085923
 20
6.4174046618
 11
9.2677419272
 21
6.4124046618
  0
LINE
  5
23F
100
AcDbEntity
  8
03__ASM_ALL_CURVES
100
AcDbLine
 62
4
  6
CONTINUOUS
 10
9.8284085923
 20
6.4174046618
 11
9.8617419272
 21
6.4124046618
  0
LINE
  5
240
100
AcDbEntity
  8
03__ASM_ALL_CURVES
100
AcDbLine
 62
4
  6
CONTINUOUS
 10
9.2477419272
 20
6.5824046618
 11
9.2677419272
 21
6.5774046618
  0
LINE
  5
241
100
AcDbEntity
  8
03__ASM_ALL_CURVES
100
AcDbLine
 62
4
  6
CONTINUOUS
 10
9.2877419249
 20
6.4524046618
 11
9.3010752586
 21
6.4474046618
  0
LINE
  5
242
100
AcDbEntity
  8
03__ASM_ALL_CURVES
100
AcDbLine
 62
4
  6
CONTINUOUS
 10
9.8550752574
 20
6.3274046618
 11
9.8417419272
 21
6.3324046618
  0
LINE
  5
243
100
AcDbEntity
  8
03__ASM_ALL_CURVES
100
AcDbLine
 62
4
  6
CONTINUOUS
 10
9.8817419249
 20
6.3274046618
 11
9.8684085923
 21
6.3324046618
  0
LINE
  5
244
100
AcDbEntity
  8
03__ASM_ALL_CURVES
100
AcDbLine
 62
4
  6
CONTINUOUS
 10
9.8817419249
 20
6.3674046618
 11
9.8950752586
 21
6.3624046618
  0
LINE
  5
245
100
AcDbEntity
  8
03__ASM_ALL_CURVES
100
AcDbLine
 62
4
  6
CONTINUOUS
 10
9.8817419249
 20
6.4524046618
 11
9.8950752586
 21
6.4474046618
  0
LINE
  5
246
100
AcDbEntity
  8
03__ASM_ALL_CURVES
100
AcDbLine
 62
4
  6
CONTINUOUS
 10
9.2610752574
 20
6.3674046618
 11
9.2677419272
 21
6.3624046618
  0
LINE
  5
247
100
AcDbEntity
  8
03__ASM_ALL_CURVES
100
AcDbLine
 62
4
  6
CONTINUOUS
 10
9.3010752586
 20
6.4474046618
 11
9.3077419255
 21
6.4424046618
  0
LINE
  5
248
100
AcDbEntity
  8
03__ASM_ALL_CURVES
100
AcDbLine
 62
4
  6
CONTINUOUS
 10
9.2344085923
 20
6.5924046618
 11
9.2477419272
 21
6.5824046618
  0
LINE
  5
249
100
AcDbEntity
  8
03__ASM_ALL_CURVES
100
AcDbLine
 62
4
  6
CONTINUOUS
 10
9.8417419272
 20
6.1724046618
 11
9.8350752574
 21
6.1774046618
  0
LINE
  5
24A
100
AcDbEntity
  8
03__ASM_ALL_CURVES
100
AcDbLine
 62
4
  6
CONTINUOUS
 10
9.2677419272
 20
6.5774046618
 11
9.2810752598
 21
6.5774046618
  0
LINE
  5
24B
100
AcDbEntity
  8
03__ASM_ALL_CURVES
100
AcDbLine
 62
4
  6
CONTINUOUS
 10
9.8617419272
 20
6.5774046618
 11
9.8750752598
 21
6.5774046618
  0
LINE
  5
24C
100
AcDbEntity
  8
03__ASM_ALL_CURVES
100
AcDbLine
 62
4
  6
CONTINUOUS
 10
9.8417419272
 20
6.5824046618
 11
9.8617419272
 21
6.5774046618
  0
LINE
  5
24D
100
AcDbEntity
  8
03__ASM_ALL_CURVES
100
AcDbLine
 62
4
  6
CONTINUOUS
 10
9.2610752574
 20
6.9174046618
 11
9.2344085923
 21
6.9274046618
  0
LINE
  5
24E
100
AcDbEntity
  8
03__ASM_ALL_CURVES
100
AcDbLine
 62
4
  6
CONTINUOUS
 10
9.8550752574
 20
6.7274046618
 11
9.8417419272
 21
6.7324046618
  0
LINE
  5
24F
100
AcDbEntity
  8
03__ASM_ALL_CURVES
100
AcDbLine
 62
4
  6
CONTINUOUS
 10
9.8950752586
 20
6.2024046618
 11
9.9017419255
 21
6.1974046618
  0
LINE
  5
250
100
AcDbEntity
  8
03__ASM_ALL_CURVES
100
AcDbLine
 62
4
  6
CONTINUOUS
 10
9.2544085923
 20
6.6874046618
 11
9.2610752574
 21
6.6824046618
  0
LINE
  5
251
100
AcDbEntity
  8
03__ASM_ALL_CURVES
100
AcDbLine
 62
4
  6
CONTINUOUS
 10
9.2944085923
 20
6.6924046618
 11
9.3077419255
 21
6.6824046618
  0
LINE
  5
252
100
AcDbEntity
  8
03__ASM_ALL_CURVES
100
AcDbLine
 62
4
  6
CONTINUOUS
 10
9.8417419272
 20
6.3324046618
 11
9.8350752574
 21
6.3374046618
  0
LINE
  5
253
100
AcDbEntity
  8
03__ASM_ALL_CURVES
100
AcDbLine
 62
4
  6
CONTINUOUS
 10
9.8950752586
 20
6.3624046618
 11
9.9017419255
 21
6.3574046618
  0
LINE
  5
254
100
AcDbEntity
  8
03__ASM_ALL_CURVES
100
AcDbLine
 62
4
  6
CONTINUOUS
 10
9.8950752586
 20
6.4474046618
 11
9.9017419255
 21
6.4424046618
  0
LINE
  5
255
100
AcDbEntity
  8
03__ASM_ALL_CURVES
100
AcDbLine
 62
4
  6
CONTINUOUS
 10
9.2410752574
 20
6.3324046618
 11
9.2344085923
 21
6.3424046618
  0
LINE
  5
256
100
AcDbEntity
  8
03__ASM_ALL_CURVES
100
AcDbLine
 62
4
  6
CONTINUOUS
 10
9.2677419272
 20
6.3624046618
 11
9.2810752598
 21
6.3424046618
  0
LINE
  5
257
100
AcDbEntity
  8
03__ASM_ALL_CURVES
100
AcDbLine
 62
4
  6
CONTINUOUS
 10
9.2677419272
 20
6.4124046618
 11
9.2610752574
 21
6.4224046618
  0
LINE
  5
258
100
AcDbEntity
  8
03__ASM_ALL_CURVES
100
AcDbLine
 62
4
  6
CONTINUOUS
 10
11.4594085923
 20
12.2484046618
 11
11.4444085923
 21
12.2417379943
  0
LINE
  5
259
100
AcDbEntity
  8
03__ASM_ALL_CURVES
100
AcDbLine
 62
4
  6
CONTINUOUS
 10
9.8750752598
 20
6.5774046618
 11
9.8950752586
 21
6.5824046618
  0
LINE
  5
25A
100
AcDbEntity
  8
03__ASM_ALL_CURVES
100
AcDbLine
 62
4
  6
CONTINUOUS
 10
9.8284085923
 20
6.6674046618
 11
9.9084085923
 21
6.6674046618
  0
LINE
  5
25B
100
AcDbEntity
  8
03__ASM_ALL_CURVES
100
AcDbLine
 62
4
  6
CONTINUOUS
 10
9.2477419272
 20
6.6874046618
 11
9.2544085923
 21
6.6874046618
  0
LINE
  5
25C
100
AcDbEntity
  8
03__ASM_ALL_CURVES
100
AcDbLine
 62
4
  6
CONTINUOUS
 10
9.2877419249
 20
6.6924046618
 11
9.2944085923
 21
6.6924046618
  0
LINE
  5
25D
100
AcDbEntity
  8
03__ASM_ALL_CURVES
100
AcDbLine
 62
4
  6
CONTINUOUS
 10
9.8817419249
 20
6.7274046618
 11
9.8550752574
 21
6.7274046618
  0
LINE
  5
25E
100
AcDbEntity
  8
03__ASM_ALL_CURVES
100
AcDbLine
 62
4
  6
CONTINUOUS
 10
9.2344085923
 20
6.7474046618
 11
9.3144085923
 21
6.7474046618
  0
LINE
  5
25F
100
AcDbEntity
  8
03__ASM_ALL_CURVES
100
AcDbLine
 62
4
  6
CONTINUOUS
 10
9.9084085923
 20
6.8399046618
 11
9.898408592
 21
6.8399046618
  0
LINE
  5
260
100
AcDbEntity
  8
03__ASM_ALL_CURVES
100
AcDbLine
 62
4
  6
CONTINUOUS
 10
9.3144085923
 20
6.8399046618
 11
9.304408592
 21
6.8399046618
  0
LINE
  5
261
100
AcDbEntity
  8
03__ASM_ALL_CURVES
100
AcDbLine
 62
4
  6
CONTINUOUS
 10
9.3144085923
 20
6.9074046618
 11
9.2810752598
 21
6.9124046618
  0
LINE
  5
262
100
AcDbEntity
  8
03__ASM_ALL_CURVES
100
AcDbLine
 62
4
  6
CONTINUOUS
 10
9.2344085923
 20
6.9774046618
 11
9.2677419272
 21
6.9724046618
  0
LINE
  5
263
100
AcDbEntity
  8
03__ASM_ALL_CURVES
100
AcDbLine
 62
4
  6
CONTINUOUS
 10
9.8284085923
 20
6.8974046618
 11
9.8617419272
 21
6.8924046618
  0
LINE
  5
264
100
AcDbEntity
  8
03__ASM_ALL_CURVES
100
AcDbLine
 62
4
  6
CONTINUOUS
 10
9.2810752598
 20
6.9124046618
 11
9.2610752574
 21
6.9174046618
  0
LINE
  5
265
100
AcDbEntity
  8
03__ASM_ALL_CURVES
100
AcDbLine
 62
4
  6
CONTINUOUS
 10
9.2810752598
 20
7.0774046618
 11
9.3010752586
 21
7.0724046618
  0
LINE
  5
266
100
AcDbEntity
  8
03__ASM_ALL_CURVES
100
AcDbLine
 62
4
  6
CONTINUOUS
 10
9.8817419249
 20
6.7274046618
 11
9.8684085923
 21
6.7324046618
  0
LINE
  5
267
100
AcDbEntity
  8
03__ASM_ALL_CURVES
100
AcDbLine
 62
4
  6
CONTINUOUS
 10
9.8817419249
 20
6.7674046618
 11
9.8950752586
 21
6.7624046618
  0
LINE
  5
268
100
AcDbEntity
  8
03__ASM_ALL_CURVES
100
AcDbLine
 62
4
  6
CONTINUOUS
 10
9.2877419249
 20
7.0124046618
 11
9.3010752586
 21
7.0074046618
  0
LINE
  5
269
100
AcDbEntity
  8
03__ASM_ALL_CURVES
100
AcDbLine
 62
4
  6
CONTINUOUS
 10
9.8817419249
 20
6.9324046618
 11
9.8950752586
 21
6.9274046618
  0
LINE
  5
26A
100
AcDbEntity
  8
03__ASM_ALL_CURVES
100
AcDbLine
 62
4
  6
CONTINUOUS
 10
9.8550752574
 20
6.9674046618
 11
9.8417419272
 21
6.9724046618
  0
LINE
  5
26B
100
AcDbEntity
  8
03__ASM_ALL_CURVES
100
AcDbLine
 62
4
  6
CONTINUOUS
 10
9.8284085923
 20
6.5924046618
 11
9.8417419272
 21
6.5824046618
  0
LINE
  5
26C
100
AcDbEntity
  8
03__ASM_ALL_CURVES
100
AcDbLine
 62
4
  6
CONTINUOUS
 10
9.3010752586
 20
7.0074046618
 11
9.3077419255
 21
7.0024046618
  0
LINE
  5
26D
100
AcDbEntity
  8
03__ASM_ALL_CURVES
100
AcDbLine
 62
4
  6
CONTINUOUS
 10
9.3010752586
 20
7.0724046618
 11
9.3144085923
 21
7.0624046618
  0
LINE
  5
26E
100
AcDbEntity
  8
03__ASM_ALL_CURVES
100
AcDbLine
 62
4
  6
CONTINUOUS
 10
9.8417419272
 20
6.7324046618
 11
9.8350752574
 21
6.7374046618
  0
LINE
  5
26F
100
AcDbEntity
  8
03__ASM_ALL_CURVES
100
AcDbLine
 62
4
  6
CONTINUOUS
 10
9.8950752586
 20
6.7624046618
 11
9.9017419255
 21
6.7574046618
  0
LINE
  5
270
100
AcDbEntity
  8
03__ASM_ALL_CURVES
100
AcDbLine
 62
4
  6
CONTINUOUS
 10
9.3077419255
 20
6.4424046618
 11
9.3144085923
 21
6.4324046618
  0
LINE
  5
271
100
AcDbEntity
  8
03__ASM_ALL_CURVES
100
AcDbLine
 62
4
  6
CONTINUOUS
 10
9.2410752574
 20
6.6524046618
 11
9.2344085923
 21
6.6624046618
  0
LINE
  5
272
100
AcDbEntity
  8
03__ASM_ALL_CURVES
100
AcDbLine
 62
4
  6
CONTINUOUS
 10
9.2610752574
 20
6.6824046618
 11
9.2677419272
 21
6.6724046618
  0
LINE
  5
273
100
AcDbEntity
  8
03__ASM_ALL_CURVES
100
AcDbLine
 62
4
  6
CONTINUOUS
 10
9.3077419255
 20
6.6824046618
 11
9.3144085923
 21
6.6724046618
  0
LINE
  5
274
100
AcDbEntity
  8
03__ASM_ALL_CURVES
100
AcDbLine
 62
4
  6
CONTINUOUS
 10
11.0294085923
 20
12.2817379967
 11
11.0394085923
 21
12.2884046618
  0
LINE
  5
275
100
AcDbEntity
  8
03__ASM_ALL_CURVES
100
AcDbLine
 62
4
  6
CONTINUOUS
 10
11.0594085923
 20
12.2617379967
 11
11.0494085923
 21
12.2550713269
  0
LINE
  5
276
100
AcDbEntity
  8
03__ASM_ALL_CURVES
100
AcDbLine
 62
4
  6
CONTINUOUS
 10
11.0594085923
 20
12.2150713287
 11
11.0494085923
 21
12.2084046618
  0
LINE
  5
277
100
AcDbEntity
  8
03__ASM_ALL_CURVES
100
AcDbLine
 62
4
  6
CONTINUOUS
 10
11.6994085923
 20
12.2484046618
 11
11.6844085923
 21
12.2417379943
  0
LINE
  5
278
100
AcDbEntity
  8
03__ASM_ALL_CURVES
100
AcDbLine
 62
4
  6
CONTINUOUS
 10
9.2810752598
 20
6.5774046618
 11
9.3010752586
 21
6.5824046618
  0
LINE
  5
279
100
AcDbEntity
  8
03__ASM_ALL_CURVES
100
AcDbLine
 62
4
  6
CONTINUOUS
 10
9.8817419249
 20
6.9674046618
 11
9.8550752574
 21
6.9674046618
  0
LINE
  5
27A
100
AcDbEntity
  8
03__ASM_ALL_CURVES
100
AcDbLine
 62
4
  6
CONTINUOUS
 10
9.8550752574
 20
7.0074046618
 11
9.8817419249
 21
7.0074046618
  0
LINE
  5
27B
100
AcDbEntity
  8
03__ASM_ALL_CURVES
100
AcDbLine
 62
4
  6
CONTINUOUS
 10
9.2677419272
 20
7.0774046618
 11
9.2810752598
 21
7.0774046618
  0
LINE
  5
27C
100
AcDbEntity
  8
03__ASM_ALL_CURVES
100
AcDbLine
 62
4
  6
CONTINUOUS
 10
9.8617419272
 20
7.0774046618
 11
9.8750752598
 21
7.0774046618
  0
LINE
  5
27D
100
AcDbEntity
  8
03__ASM_ALL_CURVES
100
AcDbLine
 62
4
  6
CONTINUOUS
 10
9.8750752598
 20
7.0774046618
 11
9.8950752586
 21
7.0724046618
  0
LINE
  5
27E
100
AcDbEntity
  8
03__ASM_ALL_CURVES
100
AcDbLine
 62
4
  6
CONTINUOUS
 10
9.8817419249
 20
7.0074046618
 11
9.8950752586
 21
7.0024046618
  0
LINE
  5
27F
100
AcDbEntity
  8
0
100
AcDbLine
 62
7
  6
CONTINUOUS
 10
9.5874085923
 20
7.3304046618
 11
9.5439085923
 21
7.3555193985
  0
LINE
  5
280
100
AcDbEntity
  8
03__ASM_ALL_CURVES
100
AcDbLine
 62
4
  6
CONTINUOUS
 10
9.8950752586
 20
6.9274046618
 11
9.9017419255
 21
6.9224046618
  0
LINE
  5
281
100
AcDbEntity
  8
03__ASM_ALL_CURVES
100
AcDbLine
 62
4
  6
CONTINUOUS
 10
9.8417419272
 20
6.9724046618
 11
9.8350752574
 21
6.9774046618
  0
LINE
  5
282
100
AcDbEntity
  8
03__ASM_ALL_CURVES
100
AcDbLine
 62
4
  6
CONTINUOUS
 10
9.8950752586
 20
7.0024046618
 11
9.9017419255
 21
6.9974046618
  0
LINE
  5
283
100
AcDbEntity
  8
03__ASM_ALL_CURVES
100
AcDbLine
 62
4
  6
CONTINUOUS
 10
9.8950752586
 20
7.0724046618
 11
9.9084085923
 21
7.0624046618
  0
LINE
  5
284
100
AcDbEntity
  8
03__ASM_ALL_CURVES
100
AcDbLine
 62
4
  6
CONTINUOUS
 10
9.2677419272
 20
6.9724046618
 11
9.2610752574
 21
6.9824046618
  0
LINE
  5
285
100
AcDbEntity
  8
03__ASM_ALL_CURVES
100
AcDbLine
 62
4
  6
CONTINUOUS
 10
9.8350752574
 20
6.1774046618
 11
9.8284085923
 21
6.1874046618
  0
LINE
  5
286
100
AcDbEntity
  8
03__ASM_ALL_CURVES
100
AcDbLine
 62
4
  6
CONTINUOUS
 10
9.3077419255
 20
7.0024046618
 11
9.3144085923
 21
6.9924046618
  0
LINE
  5
287
100
AcDbEntity
  8
03__ASM_ALL_CURVES
100
AcDbLine
 62
4
  6
CONTINUOUS
 10
9.9017419255
 20
6.1974046618
 11
9.9084085923
 21
6.1874046618
  0
LINE
  5
288
100
AcDbEntity
  8
03__ASM_ALL_CURVES
100
AcDbLine
 62
4
  6
CONTINUOUS
 10
9.8350752574
 20
6.3374046618
 11
9.8284085923
 21
6.3474046618
  0
LINE
  5
289
100
AcDbEntity
  8
03__ASM_ALL_CURVES
100
AcDbLine
 62
4
  6
CONTINUOUS
 10
9.8617419272
 20
6.4124046618
 11
9.8550752574
 21
6.4224046618
  0
LINE
  5
28A
100
AcDbEntity
  8
03__ASM_ALL_CURVES
100
AcDbLine
 62
4
  6
CONTINUOUS
 10
9.9017419255
 20
6.3574046618
 11
9.9084085923
 21
6.3474046618
  0
LINE
  5
28B
100
AcDbEntity
  8
03__ASM_ALL_CURVES
100
AcDbLine
 62
4
  6
CONTINUOUS
 10
11.4344085923
 20
12.2817379967
 11
11.4444085923
 21
12.2884046618
  0
LINE
  5
28C
100
AcDbEntity
  8
03__ASM_ALL_CURVES
100
AcDbLine
 62
4
  6
CONTINUOUS
 10
11.5094085923
 20
12.2817379967
 11
11.5194085923
 21
12.2884046618
  0
LINE
  5
28D
100
AcDbEntity
  8
03__ASM_ALL_CURVES
100
AcDbLine
 62
4
  6
CONTINUOUS
 10
11.4544085923
 20
12.2150713287
 11
11.4444085923
 21
12.2084046618
  0
LINE
  5
28E
100
AcDbEntity
  8
03__ASM_ALL_CURVES
100
AcDbLine
 62
4
  6
CONTINUOUS
 10
11.5394085923
 20
12.2617379967
 11
11.5294085923
 21
12.2550713269
  0
LINE
  5
28F
100
AcDbEntity
  8
03__ASM_ALL_CURVES
100
AcDbLine
 62
4
  6
CONTINUOUS
 10
11.5394085923
 20
12.2150713287
 11
11.5294085923
 21
12.2084046618
  0
LINE
  5
290
100
AcDbEntity
  8
03__ASM_ALL_CURVES
100
AcDbLine
 62
4
  6
CONTINUOUS
 10
11.6744085923
 20
12.2817379967
 11
11.6844085923
 21
12.2884046618
  0
LINE
  5
291
100
AcDbEntity
  8
03__ASM_ALL_CURVES
100
AcDbLine
 62
4
  6
CONTINUOUS
 10
9.8417419272
 20
7.0724046618
 11
9.8617419272
 21
7.0774046618
  0
LINE
  5
292
100
AcDbEntity
  8
03__ASM_ALL_CURVES
100
AcDbLine
 62
4
  6
CONTINUOUS
 10
12.0318857173
 20
7.2189716618
 11
12.0197774673
 21
7.2189716618
  0
LINE
  5
293
100
AcDbEntity
  8
03__ASM_ALL_CURVES
100
AcDbLine
 62
4
  6
CONTINUOUS
 10
11.9531820923
 20
7.2189716618
 11
11.9441009048
 21
7.2189716618
  0
LINE
  5
294
100
AcDbEntity
  8
03__ASM_ALL_CURVES
100
AcDbLine
 62
4
  6
CONTINUOUS
 10
11.7412877173
 20
7.2189716618
 11
11.7291794673
 21
7.2189716618
  0
LINE
  5
295
100
AcDbEntity
  8
03__ASM_ALL_CURVES
100
AcDbLine
 62
4
  6
CONTINUOUS
 10
11.4506897173
 20
7.2189716618
 11
11.4385814673
 21
7.2189716618
  0
LINE
  5
296
100
AcDbEntity
  8
03__ASM_ALL_CURVES
100
AcDbLine
 62
4
  6
CONTINUOUS
 10
11.2751200923
 20
7.2189716618
 11
11.2660389048
 21
7.2189716618
  0
LINE
  5
297
100
AcDbEntity
  8
03__ASM_ALL_CURVES
100
AcDbLine
 62
4
  6
CONTINUOUS
 10
11.3235530923
 20
7.2189716618
 11
11.3719860923
 21
7.2189716618
  0
LINE
  5
298
100
AcDbEntity
  8
03__ASM_ALL_CURVES
100
AcDbLine
 62
4
  6
CONTINUOUS
 10
11.8078830923
 20
7.2189716618
 11
11.8563160923
 21
7.2189716618
  0
LINE
  5
299
100
AcDbEntity
  8
0
100
AcDbLine
 62
7
  6
CONTINUOUS
 10
10.0219085923
 20
7.2674046618
 11
9.7149085923
 21
7.2674046618
  0
LINE
  5
29A
100
AcDbEntity
  8
03__ASM_ALL_CURVES
100
AcDbLine
 62
4
  6
CONTINUOUS
 10
10.6212745923
 20
7.2674046618
 11
10.9118725923
 21
7.2674046618
  0
LINE
  5
29B
100
AcDbEntity
  8
03__ASM_ALL_CURVES
100
AcDbLine
 62
4
  6
CONTINUOUS
 10
11.4385814673
 20
7.2754768265
 11
11.4506897173
 21
7.2754768265
  0
LINE
  5
29C
100
AcDbEntity
  8
03__ASM_ALL_CURVES
100
AcDbLine
 62
4
  6
CONTINUOUS
 10
11.7291794673
 20
7.2754768265
 11
11.7412877173
 21
7.2754768265
  0
LINE
  5
29D
100
AcDbEntity
  8
03__ASM_ALL_CURVES
100
AcDbLine
 62
4
  6
CONTINUOUS
 10
12.0197774673
 20
7.283548997
 11
12.0318857173
 21
7.283548997
  0
LINE
  5
29E
100
AcDbEntity
  8
0
100
AcDbLine
 62
7
  6
CONTINUOUS
 10
10.0529085923
 20
7.2984046618
 11
9.6839085923
 21
7.2984046618
  0
LINE
  5
29F
100
AcDbEntity
  8
03__ASM_ALL_CURVES
100
AcDbLine
 62
4
  6
CONTINUOUS
 10
12.0500480923
 20
7.3158376618
 11
12.0137233423
 21
7.3158376618
  0
LINE
  5
2A0
100
AcDbEntity
  8
03__ASM_ALL_CURVES
100
AcDbLine
 62
4
  6
CONTINUOUS
 10
11.3417154673
 20
7.3158376618
 11
11.3538237173
 21
7.3158376618
  0
LINE
  5
2A1
100
AcDbEntity
  8
03__ASM_ALL_CURVES
100
AcDbLine
 62
4
  6
CONTINUOUS
 10
11.4385814673
 20
7.3158376618
 11
11.4506897173
 21
7.3158376618
  0
LINE
  5
2A2
100
AcDbEntity
  8
03__ASM_ALL_CURVES
100
AcDbLine
 62
4
  6
CONTINUOUS
 10
11.7291794673
 20
7.3158376618
 11
11.7412877173
 21
7.3158376618
  0
LINE
  5
2A3
100
AcDbEntity
  8
03__ASM_ALL_CURVES
100
AcDbLine
 62
4
  6
CONTINUOUS
 10
11.8260454673
 20
7.3158376618
 11
11.8381537173
 21
7.3158376618
  0
LINE
  5
2A4
100
AcDbEntity
  8
0
100
AcDbLine
 62
7
  6
CONTINUOUS
 10
10.1494060457
 20
7.3304046618
 11
10.1113083749
 21
7.3304046618
  0
LINE
  5
2A5
100
AcDbEntity
  8
0
100
AcDbLine
 62
7
  6
CONTINUOUS
 10
9.6241923931
 20
7.3304046618
 11
9.5874111642
 21
7.3304046618
  0
LINE
  5
2A6
100
AcDbEntity
  8
0
100
AcDbLine
 62
7
  6
CONTINUOUS
 10
9.6248882676
 20
7.3304046618
 11
9.8667157754
 21
7.3304046618
  0
LINE
  5
2A7
100
AcDbEntity
  8
0
100
AcDbLine
 62
7
  6
CONTINUOUS
 10
9.867871129
 20
7.3304046618
 11
10.1106184642
 21
7.3304046618
  0
LINE
  5
2A8
100
AcDbEntity
  8
0
100
AcDbLine
 62
7
  6
CONTINUOUS
 10
9.6839085923
 20
7.2984046618
 11
9.7149085923
 21
7.2674046618
  0
LINE
  5
2A9
100
AcDbEntity
  8
0
100
AcDbLine
 62
7
  6
CONTINUOUS
 10
9.4949085923
 20
7.5994046618
 11
9.5449085923
 21
7.5494046618
  0
LINE
  5
2AA
100
AcDbEntity
  8
03__ASM_ALL_CURVES
100
AcDbLine
 62
4
  6
CONTINUOUS
 10
9.9017419255
 20
6.4424046618
 11
9.9084085923
 21
6.4324046618
  0
LINE
  5
2AB
100
AcDbEntity
  8
03__ASM_ALL_CURVES
100
AcDbLine
 62
4
  6
CONTINUOUS
 10
9.8350752574
 20
6.7374046618
 11
9.8284085923
 21
6.7474046618
  0
LINE
  5
2AC
100
AcDbEntity
  8
03__ASM_ALL_CURVES
100
AcDbLine
 62
4
  6
CONTINUOUS
 10
9.9017419255
 20
6.7574046618
 11
9.9084085923
 21
6.7474046618
  0
LINE
  5
2AD
100
AcDbEntity
  8
0
100
AcDbLine
 62
7
  6
CONTINUOUS
 10
8.7154085923
 20
11.1674130025
 11
8.7154085923
 21
11.7793963211
  0
LINE
  5
2AE
100
AcDbEntity
  8
0
100
AcDbLine
 62
7
  6
CONTINUOUS
 10
8.7354085923
 20
11.1474046618
 11
8.7354085923
 21
11.7994046618
  0
LINE
  5
2AF
100
AcDbEntity
  8
03__ASM_ALL_CURVES
100
AcDbLine
 62
4
  6
CONTINUOUS
 10
11.7494085923
 20
12.2817379967
 11
11.7594085923
 21
12.2884046618
  0
LINE
  5
2B0
100
AcDbEntity
  8
03__ASM_ALL_CURVES
100
AcDbLine
 62
4
  6
CONTINUOUS
 10
11.6944085923
 20
12.2150713287
 11
11.6844085923
 21
12.2084046618
  0
LINE
  5
2B1
100
AcDbEntity
  8
03__ASM_ALL_CURVES
100
AcDbLine
 62
4
  6
CONTINUOUS
 10
11.7494085923
 20
12.2484046618
 11
11.7594085923
 21
12.2550713269
  0
LINE
  5
2B2
100
AcDbEntity
  8
03__ASM_ALL_CURVES
100
AcDbLine
 62
4
  6
CONTINUOUS
 10
11.7794085923
 20
12.2617379967
 11
11.7694085923
 21
12.2550713269
  0
LINE
  5
2B3
100
AcDbEntity
  8
03__ASM_ALL_CURVES
100
AcDbLine
 62
4
  6
CONTINUOUS
 10
11.7794085923
 20
12.2150713287
 11
11.7694085923
 21
12.2084046618
  0
LINE
  5
2B4
100
AcDbEntity
  8
03__ASM_ALL_CURVES
100
AcDbLine
 62
4
  6
CONTINUOUS
 10
9.2477419272
 20
7.0724046618
 11
9.2677419272
 21
7.0774046618
  0
LINE
  5
2B5
100
AcDbEntity
  8
0
100
AcDbLine
 62
7
  6
CONTINUOUS
 10
10.1919085923
 20
7.5494046618
 11
9.5449085923
 21
7.5494046618
  0
LINE
  5
2B6
100
AcDbEntity
  8
0
100
AcDbLine
 62
7
  6
CONTINUOUS
 10
10.2419085923
 20
7.5994046618
 11
9.4949085923
 21
7.5994046618
  0
LINE
  5
2B7
100
AcDbEntity
  8
0
100
AcDbLine
 62
7
  6
CONTINUOUS
 10
10.1494085923
 20
7.5494046618
 11
10.1929085923
 21
7.5242899251
  0
LINE
  5
2B8
100
AcDbEntity
  8
03__ASM_ALL_CURVES
100
AcDbLine
 62
4
  6
CONTINUOUS
 10
9.8617419272
 20
6.8924046618
 11
9.8550752574
 21
6.9024046618
  0
LINE
  5
2B9
100
AcDbEntity
  8
03__ASM_ALL_CURVES
100
AcDbLine
 62
4
  6
CONTINUOUS
 10
9.8350752574
 20
6.9774046618
 11
9.8284085923
 21
6.9874046618
  0
LINE
  5
2BA
100
AcDbEntity
  8
03__ASM_ALL_CURVES
100
AcDbLine
 62
4
  6
CONTINUOUS
 10
9.9017419255
 20
6.9224046618
 11
9.9084085923
 21
6.9124046618
  0
LINE
  5
2BB
100
AcDbEntity
  8
03__ASM_ALL_CURVES
100
AcDbLine
 62
4
  6
CONTINUOUS
 10
9.9017419255
 20
6.9974046618
 11
9.9084085923
 21
6.9874046618
  0
LINE
  5
2BC
100
AcDbEntity
  8
03__ASM_ALL_CURVES
100
AcDbLine
 62
4
  6
CONTINUOUS
 10
9.8684085923
 20
6.3324046618
 11
9.8617419272
 21
6.3474046618
  0
LINE
  5
2BD
100
AcDbEntity
  8
03__ASM_ALL_CURVES
100
AcDbLine
 62
4
  6
CONTINUOUS
 10
11.0644085923
 20
12.2684046618
 11
11.0594085923
 21
12.2617379967
  0
LINE
  5
2BE
100
AcDbEntity
  8
0
100
AcDbLine
 62
7
  6
CONTINUOUS
 10
10.2419085923
 20
7.6504046618
 11
9.4949085923
 21
7.6504046618
  0
LINE
  5
2BF
100
AcDbEntity
  8
0
100
AcDbLine
 62
7
  6
CONTINUOUS
 10
10.2369085923
 20
7.6554046618
 11
9.4999085923
 21
7.6554046618
  0
LINE
  5
2C0
100
AcDbEntity
  8
0
100
AcDbLine
 62
7
  6
CONTINUOUS
 10
10.2184085923
 20
7.6634046618
 11
9.5184085923
 21
7.6634046618
  0
LINE
  5
2C1
100
AcDbEntity
  8
0
100
AcDbLine
 62
7
  6
CONTINUOUS
 10
10.2184085923
 20
7.6854046618
 11
9.5184085923
 21
7.6854046618
  0
LINE
  5
2C2
100
AcDbEntity
  8
0
100
AcDbLine
 62
7
  6
CONTINUOUS
 10
10.2369085923
 20
7.6934046618
 11
9.4999085923
 21
7.6934046618
  0
LINE
  5
2C3
100
AcDbEntity
  8
0
100
AcDbLine
 62
7
  6
CONTINUOUS
 10
10.2419085923
 20
7.6984046618
 11
9.4949085923
 21
7.6984046618
  0
LINE
  5
2C4
100
AcDbEntity
  8
0
100
AcDbLine
 62
7
  6
CONTINUOUS
 10
9.4305771804
 20
8.0539261296
 11
9.4384085923
 21
8.0494046618
  0
LINE
  5
2C5
100
AcDbEntity
  8
03__ASM_ALL_CURVES
100
AcDbLine
 62
4
  6
CONTINUOUS
 10
9.8684085923
 20
6.7324046618
 11
9.8617419272
 21
6.7474046618
  0
LINE
  5
2C6
100
AcDbEntity
  8
0
100
AcDbLine
 62
7
  6
CONTINUOUS
 10
9.2224085923
 20
11.0424046618
 11
9.2224085923
 21
11.9044046618
  0
LINE
  5
2C7
100
AcDbEntity
  8
03__ASM_ALL_CURVES
100
AcDbLine
 62
4
  6
CONTINUOUS
 10
9.2344085923
 20
7.0074046618
 11
9.2344085923
 21
6.9774046618
  0
LINE
  5
2C8
100
AcDbEntity
  8
03__ASM_ALL_CURVES
100
AcDbLine
 62
4
  6
CONTINUOUS
 10
9.2344085923
 20
6.9274046618
 11
9.2344085923
 21
6.8874046618
  0
LINE
  5
2C9
100
AcDbEntity
  8
03__ASM_ALL_CURVES
100
AcDbLine
 62
4
  6
CONTINUOUS
 10
9.2344085923
 20
6.4474046618
 11
9.2344085923
 21
6.4174046618
  0
LINE
  5
2CA
100
AcDbEntity
  8
03__ASM_ALL_CURVES
100
AcDbLine
 62
4
  6
CONTINUOUS
 10
9.2344085923
 20
6.3424046618
 11
9.2344085923
 21
6.3524046618
  0
LINE
  5
2CB
100
AcDbEntity
  8
03__ASM_ALL_CURVES
100
AcDbLine
 62
4
  6
CONTINUOUS
 10
9.2344085923
 20
6.6624046618
 11
9.2344085923
 21
6.6724046618
  0
LINE
  5
2CC
100
AcDbEntity
  8
03__ASM_ALL_CURVES
100
AcDbLine
 62
4
  6
CONTINUOUS
 10
9.2610752574
 20
6.4224046618
 11
9.2610752574
 21
6.4324046618
  0
LINE
  5
2CD
100
AcDbEntity
  8
03__ASM_ALL_CURVES
100
AcDbLine
 62
4
  6
CONTINUOUS
 10
9.2610752574
 20
6.9824046618
 11
9.2610752574
 21
6.9924046618
  0
LINE
  5
2CE
100
AcDbEntity
  8
03__ASM_ALL_CURVES
100
AcDbLine
 62
4
  6
CONTINUOUS
 10
9.2677419272
 20
6.6624046618
 11
9.2677419272
 21
6.6724046618
  0
LINE
  5
2CF
100
AcDbEntity
  8
03__ASM_ALL_CURVES
100
AcDbLine
 62
4
  6
CONTINUOUS
 10
9.2744085923
 20
8.4684046618
 11
9.2744085923
 21
7.1874046618
  0
LINE
  5
2D0
100
AcDbEntity
  8
0
100
AcDbLine
 62
7
  6
CONTINUOUS
 10
9.2744085923
 20
8.5484046618
 11
9.2744085923
 21
12.2484047095
  0
LINE
  5
2D1
100
AcDbEntity
  8
03__ASM_ALL_CURVES
100
AcDbLine
 62
4
  6
CONTINUOUS
 10
9.3144085923
 20
6.9924046618
 11
9.3144085923
 21
6.9824046618
  0
LINE
  5
2D2
100
AcDbEntity
  8
03__ASM_ALL_CURVES
100
AcDbLine
 62
4
  6
CONTINUOUS
 10
9.3144085923
 20
6.8474046618
 11
9.3144085923
 21
6.8399046618
  0
LINE
  5
2D3
100
AcDbEntity
  8
03__ASM_ALL_CURVES
100
AcDbLine
 62
4
  6
CONTINUOUS
 10
9.3144085923
 20
6.6724046618
 11
9.3144085923
 21
6.6624046618
  0
LINE
  5
2D4
100
AcDbEntity
  8
03__ASM_ALL_CURVES
100
AcDbLine
 62
4
  6
CONTINUOUS
 10
9.3144085923
 20
6.4324046618
 11
9.3144085923
 21
6.4224046618
  0
LINE
  5
2D5
100
AcDbEntity
  8
03__ASM_ALL_CURVES
100
AcDbLine
 62
4
  6
CONTINUOUS
 10
9.3144085923
 20
6.2874046618
 11
9.3144085923
 21
6.2799046618
  0
LINE
  5
2D6
100
AcDbEntity
  8
03__ASM_ALL_CURVES
100
AcDbLine
 62
4
  6
CONTINUOUS
 10
9.3144085923
 20
6.3274046618
 11
9.3144085923
 21
6.3674046618
  0
LINE
  5
2D7
100
AcDbEntity
  8
03__ASM_ALL_CURVES
100
AcDbLine
 62
4
  6
CONTINUOUS
 10
11.0694085923
 20
12.2284046618
 11
11.0594085923
 21
12.2150713287
  0
LINE
  5
2D8
100
AcDbEntity
  8
03__ASM_ALL_CURVES
100
AcDbLine
 62
4
  6
CONTINUOUS
 10
11.3694085923
 20
12.2884046618
 11
11.3594085923
 21
12.2750713269
  0
LINE
  5
2D9
100
AcDbEntity
  8
03__ASM_ALL_CURVES
100
AcDbLine
 62
4
  6
CONTINUOUS
 10
10.5377419249
 20
8.0084046618
 11
10.5110752574
 21
8.0084046618
  0
LINE
  5
2DA
100
AcDbEntity
  8
03__ASM_ALL_CURVES
100
AcDbLine
 62
4
  6
CONTINUOUS
 10
10.5110752574
 20
8.0484046618
 11
10.5377419249
 21
8.0484046618
  0
LINE
  5
2DB
100
AcDbEntity
  8
0
100
AcDbLine
 62
7
  6
CONTINUOUS
 10
9.4384147918
 20
8.0494046618
 11
10.2984023928
 21
8.0494046618
  0
LINE
  5
2DC
100
AcDbEntity
  8
03__ASM_ALL_CURVES
100
AcDbLine
 62
4
  6
CONTINUOUS
 10
11.4385814673
 20
7.2189716618
 11
11.4264732173
 21
7.2270438287
  0
LINE
  5
2DD
100
AcDbEntity
  8
0
100
AcDbLine
 62
7
  6
CONTINUOUS
 10
9.4308925583
 20
8.0537482739
 11
9.4308925583
 21
8.5083888087
  0
LINE
  5
2DE
100
AcDbEntity
  8
0
100
AcDbLine
 62
7
  6
CONTINUOUS
 10
9.4399085923
 20
8.5484046618
 11
9.4399085923
 21
8.5174046618
  0
LINE
  5
2DF
100
AcDbEntity
  8
0
100
AcDbLine
 62
7
  6
CONTINUOUS
 10
9.4605063446
 20
8.4569046618
 11
9.4605063446
 21
8.0834683277
  0
LINE
  5
2E0
100
AcDbEntity
  8
0
100
AcDbLine
 62
7
  6
CONTINUOUS
 10
9.4949085923
 20
8.0494046618
 11
9.4949085923
 21
7.6984046618
  0
LINE
  5
2E1
100
AcDbEntity
  8
0
100
AcDbLine
 62
7
  6
CONTINUOUS
 10
9.4949085923
 20
7.6504046618
 11
9.4949085923
 21
7.5994046618
  0
LINE
  5
2E2
100
AcDbEntity
  8
0
100
AcDbLine
 62
7
  6
CONTINUOUS
 10
9.5184085923
 20
7.6854046618
 11
9.5184085923
 21
7.6634046618
  0
LINE
  5
2E3
100
AcDbEntity
  8
0
100
AcDbLine
 62
7
  6
CONTINUOUS
 10
9.5439085923
 20
7.5242899251
 11
9.5439085923
 21
7.3555193985
  0
LINE
  5
2E4
100
AcDbEntity
  8
03__ASM_ALL_CURVES
100
AcDbLine
 62
4
  6
CONTINUOUS
 10
11.4294085923
 20
12.2750713269
 11
11.4344085923
 21
12.2817379967
  0
LINE
  5
2E5
100
AcDbEntity
  8
03__ASM_ALL_CURVES
100
AcDbLine
 62
4
  6
CONTINUOUS
 10
11.4594085923
 20
12.2217379955
 11
11.4544085923
 21
12.2150713287
  0
LINE
  5
2E6
100
AcDbEntity
  8
03__ASM_ALL_CURVES
100
AcDbLine
 62
4
  6
CONTINUOUS
 10
11.5444085923
 20
12.2684046618
 11
11.5394085923
 21
12.2617379967
  0
LINE
  5
2E7
100
AcDbEntity
  8
03__ASM_ALL_CURVES
100
AcDbLine
 62
4
  6
CONTINUOUS
 10
11.5494085923
 20
12.2284046618
 11
11.5394085923
 21
12.2150713287
  0
LINE
  5
2E8
100
AcDbEntity
  8
0
100
AcDbLine
 62
7
  6
CONTINUOUS
 10
9.4605063446
 20
8.0834683277
 11
9.4308925583
 21
8.0834683277
  0
LINE
  5
2E9
100
AcDbEntity
  8
0
100
AcDbLine
 62
7
  6
CONTINUOUS
 10
9.838794806
 20
8.0834683277
 11
9.8980223786
 21
8.0834683277
  0
LINE
  5
2EA
100
AcDbEntity
  8
0
100
AcDbLine
 62
7
  6
CONTINUOUS
 10
10.27631084
 20
8.0834683277
 11
10.3059246263
 21
8.0834683277
  0
LINE
  5
2EB
100
AcDbEntity
  8
03__ASM_ALL_CURVES
100
AcDbLine
 62
4
  6
CONTINUOUS
 10
10.5110752574
 20
8.0084046618
 11
10.4977419272
 21
8.0134046618
  0
LINE
  5
2EC
100
AcDbEntity
  8
03__ASM_ALL_CURVES
100
AcDbLine
 62
4
  6
CONTINUOUS
 10
10.5377419249
 20
8.0484046618
 11
10.5510752586
 21
8.0434046618
  0
LINE
  5
2ED
100
AcDbEntity
  8
03__ASM_ALL_CURVES
100
AcDbLine
 62
4
  6
CONTINUOUS
 10
11.3538237173
 20
7.3158376618
 11
11.3659319673
 21
7.307765497
  0
LINE
  5
2EE
100
AcDbEntity
  8
03__ASM_ALL_CURVES
100
AcDbLine
 62
4
  6
CONTINUOUS
 10
11.4385814673
 20
7.2754768265
 11
11.4264732173
 21
7.283548997
  0
LINE
  5
2EF
100
AcDbEntity
  8
03__ASM_ALL_CURVES
100
AcDbLine
 62
4
  6
CONTINUOUS
 10
11.4506897173
 20
7.2754768265
 11
11.4627979673
 21
7.2674046618
  0
LINE
  5
2F0
100
AcDbEntity
  8
03__ASM_ALL_CURVES
100
AcDbLine
 62
4
  6
CONTINUOUS
 10
11.4506897173
 20
7.3158376618
 11
11.4627979673
 21
7.307765497
  0
LINE
  5
2F1
100
AcDbEntity
  8
03__ASM_ALL_CURVES
100
AcDbLine
 62
4
  6
CONTINUOUS
 10
11.7291794673
 20
7.2189716618
 11
11.7170712173
 21
7.2270438287
  0
LINE
  5
2F2
100
AcDbEntity
  8
03__ASM_ALL_CURVES
100
AcDbLine
 62
4
  6
CONTINUOUS
 10
11.7412877173
 20
7.2754768265
 11
11.7533959673
 21
7.2674046618
  0
LINE
  5
2F3
100
AcDbEntity
  8
03__ASM_ALL_CURVES
100
AcDbLine
 62
4
  6
CONTINUOUS
 10
11.7412877173
 20
7.3158376618
 11
11.7533959673
 21
7.307765497
  0
LINE
  5
2F4
100
AcDbEntity
  8
03__ASM_ALL_CURVES
100
AcDbLine
 62
4
  6
CONTINUOUS
 10
10.4977419272
 20
8.0134046618
 11
10.4910752574
 21
8.0184046618
  0
LINE
  5
2F5
100
AcDbEntity
  8
03__ASM_ALL_CURVES
100
AcDbLine
 62
4
  6
CONTINUOUS
 10
10.5510752586
 20
8.0434046618
 11
10.5577419255
 21
8.0384046618
  0
LINE
  5
2F6
100
AcDbEntity
  8
0
100
AcDbLine
 62
7
  6
CONTINUOUS
 10
9.6839085923
 20
7.3304046618
 11
9.6839085923
 21
7.2984046618
  0
LINE
  5
2F7
100
AcDbEntity
  8
0
100
AcDbLine
 62
7
  6
CONTINUOUS
 10
9.7061585923
 20
7.5242899251
 11
9.7061585923
 21
7.3555193985
  0
LINE
  5
2F8
100
AcDbEntity
  8
03__ASM_ALL_CURVES
100
AcDbLine
 62
4
  6
CONTINUOUS
 10
9.8284085923
 20
6.9274046618
 11
9.8284085923
 21
6.8974046618
  0
LINE
  5
2F9
100
AcDbEntity
  8
03__ASM_ALL_CURVES
100
AcDbLine
 62
4
  6
CONTINUOUS
 10
9.8284085923
 20
6.4474046618
 11
9.8284085923
 21
6.4174046618
  0
LINE
  5
2FA
100
AcDbEntity
  8
0
100
AcDbLine
 62
7
  6
CONTINUOUS
 10
9.838794806
 20
8.4569046618
 11
9.838794806
 21
8.0834683277
  0
LINE
  5
2FB
100
AcDbEntity
  8
03__ASM_ALL_CURVES
100
AcDbLine
 62
4
  6
CONTINUOUS
 10
11.6694085923
 20
12.2750713269
 11
11.6744085923
 21
12.2817379967
  0
LINE
  5
2FC
100
AcDbEntity
  8
03__ASM_ALL_CURVES
100
AcDbLine
 62
4
  6
CONTINUOUS
 10
11.6994085923
 20
12.2217379955
 11
11.6944085923
 21
12.2150713287
  0
LINE
  5
2FD
100
AcDbEntity
  8
03__ASM_ALL_CURVES
100
AcDbLine
 62
4
  6
CONTINUOUS
 10
11.7444085923
 20
12.2750713269
 11
11.7494085923
 21
12.2817379967
  0
LINE
  5
2FE
100
AcDbEntity
  8
03__ASM_ALL_CURVES
100
AcDbLine
 62
4
  6
CONTINUOUS
 10
11.7394085923
 20
12.2350713293
 11
11.7494085923
 21
12.2484046618
  0
LINE
  5
2FF
100
AcDbEntity
  8
03__ASM_ALL_CURVES
100
AcDbLine
 62
4
  6
CONTINUOUS
 10
11.7844085923
 20
12.2684046618
 11
11.7794085923
 21
12.2617379967
  0
LINE
  5
300
100
AcDbEntity
  8
03__ASM_ALL_CURVES
100
AcDbLine
 62
4
  6
CONTINUOUS
 10
11.7894085923
 20
12.2284046618
 11
11.7794085923
 21
12.2150713287
  0
LINE
  5
301
100
AcDbEntity
  8
03__ASM_ALL_CURVES
100
AcDbLine
 62
4
  6
CONTINUOUS
 10
11.8494085923
 20
12.2217379955
 11
11.8394085923
 21
12.2084046618
  0
LINE
  5
302
100
AcDbEntity
  8
0
100
AcDbLine
 62
7
  6
CONTINUOUS
 10
9.4605063446
 20
8.4569046618
 11
9.4308925583
 21
8.4569046618
  0
LINE
  5
303
100
AcDbEntity
  8
0
100
AcDbLine
 62
7
  6
CONTINUOUS
 10
9.838794806
 20
8.4569046618
 11
9.8980223786
 21
8.4569046618
  0
LINE
  5
304
100
AcDbEntity
  8
0
100
AcDbLine
 62
7
  6
CONTINUOUS
 10
10.27631084
 20
8.4569046618
 11
10.3059246263
 21
8.4569046618
  0
LINE
  5
305
100
AcDbEntity
  8
0
100
AcDbLine
 62
7
  6
CONTINUOUS
 10
9.4399085923
 20
8.5174046618
 11
10.2969085923
 21
8.5174046618
  0
LINE
  5
306
100
AcDbEntity
  8
0
100
AcDbLine
 62
7
  6
CONTINUOUS
 10
10.5244085923
 20
8.5484046618
 11
9.2744085923
 21
8.5484046618
  0
LINE
  5
307
100
AcDbEntity
  8
03__ASM_ALL_CURVES
100
AcDbLine
 62
4
  6
CONTINUOUS
 10
10.6044085923
 20
8.5484046618
 11
10.8444085923
 21
8.5484046618
  0
LINE
  5
308
100
AcDbEntity
  8
03__ASM_ALL_CURVES
100
AcDbLine
 62
4
  6
CONTINUOUS
 10
11.8381537173
 20
7.3158376618
 11
11.8502619673
 21
7.307765497
  0
LINE
  5
309
100
AcDbEntity
  8
03__ASM_ALL_CURVES
100
AcDbLine
 62
4
  6
CONTINUOUS
 10
12.0197774673
 20
7.2189716618
 11
12.0076692173
 21
7.2270438287
  0
LINE
  5
30A
100
AcDbEntity
  8
03__ASM_ALL_CURVES
100
AcDbLine
 62
4
  6
CONTINUOUS
 10
12.0318857173
 20
7.283548997
 11
12.0439939673
 21
7.2754768265
  0
LINE
  5
30B
100
AcDbEntity
  8
03__ASM_ALL_CURVES
100
AcDbLine
 62
4
  6
CONTINUOUS
 10
10.4910752574
 20
8.0184046618
 11
10.4844085923
 21
8.0284046618
  0
LINE
  5
30C
100
AcDbEntity
  8
03__ASM_ALL_CURVES
100
AcDbLine
 62
4
  6
CONTINUOUS
 10
9.8550752574
 20
6.4224046618
 11
9.8550752574
 21
6.4324046618
  0
LINE
  5
30D
100
AcDbEntity
  8
03__ASM_ALL_CURVES
100
AcDbLine
 62
4
  6
CONTINUOUS
 10
9.8550752574
 20
6.9024046618
 11
9.8550752574
 21
6.9124046618
  0
LINE
  5
30E
100
AcDbEntity
  8
03__ASM_ALL_CURVES
100
AcDbLine
 62
4
  6
CONTINUOUS
 10
9.8684085923
 20
8.4684046618
 11
9.8684085923
 21
7.1874046618
  0
LINE
  5
30F
100
AcDbEntity
  8
0
100
AcDbLine
 62
7
  6
CONTINUOUS
 10
9.8980223786
 20
8.4569046618
 11
9.8980223786
 21
8.0834683277
  0
LINE
  5
310
100
AcDbEntity
  8
03__ASM_ALL_CURVES
100
AcDbLine
 62
4
  6
CONTINUOUS
 10
9.9084085923
 20
6.9124046618
 11
9.9084085923
 21
6.9024046618
  0
LINE
  5
311
100
AcDbEntity
  8
03__ASM_ALL_CURVES
100
AcDbLine
 62
4
  6
CONTINUOUS
 10
9.9084085923
 20
6.8474046618
 11
9.9084085923
 21
6.8399046618
  0
LINE
  5
312
100
AcDbEntity
  8
03__ASM_ALL_CURVES
100
AcDbLine
 62
4
  6
CONTINUOUS
 10
9.9084085923
 20
6.4324046618
 11
9.9084085923
 21
6.4224046618
  0
LINE
  5
313
100
AcDbEntity
  8
03__ASM_ALL_CURVES
100
AcDbLine
 62
4
  6
CONTINUOUS
 10
9.9084085923
 20
6.2874046618
 11
9.9084085923
 21
6.2799046618
  0
LINE
  5
314
100
AcDbEntity
  8
0
100
AcDbLine
 62
7
  6
CONTINUOUS
 10
10.0306585923
 20
7.5242899251
 11
10.0306585923
 21
7.3555193985
  0
LINE
  5
315
100
AcDbEntity
  8
0
100
AcDbLine
 62
7
  6
CONTINUOUS
 10
10.0529085923
 20
7.3304046618
 11
10.0529085923
 21
7.2984046618
  0
LINE
  5
316
100
AcDbEntity
  8
0
100
AcDbLine
 62
7
  6
CONTINUOUS
 10
10.2969085923
 20
8.5174046618
 11
10.3061480137
 21
8.5081652404
  0
LINE
  5
317
100
AcDbEntity
  8
03__ASM_ALL_CURVES
100
AcDbLine
 62
4
  6
CONTINUOUS
 10
11.2660389048
 20
7.2310799122
 11
11.2751200923
 21
7.2189716618
  0
LINE
  5
318
100
AcDbEntity
  8
03__ASM_ALL_CURVES
100
AcDbLine
 62
4
  6
CONTINUOUS
 10
11.4264732173
 20
7.2270438287
 11
11.4143649673
 21
7.2431881618
  0
LINE
  5
319
100
AcDbEntity
  8
03__ASM_ALL_CURVES
100
AcDbLine
 62
4
  6
CONTINUOUS
 10
11.3659319673
 20
7.307765497
 11
11.3719860923
 21
7.2996933265
  0
LINE
  5
31A
100
AcDbEntity
  8
03__ASM_ALL_CURVES
100
AcDbLine
 62
4
  6
CONTINUOUS
 10
11.4264732173
 20
7.283548997
 11
11.4204190923
 21
7.2916211618
  0
LINE
  5
31B
100
AcDbEntity
  8
03__ASM_ALL_CURVES
100
AcDbLine
 62
4
  6
CONTINUOUS
 10
10.5577419255
 20
8.0384046618
 11
10.5644085923
 21
8.0284046618
  0
LINE
  5
31C
100
AcDbEntity
  8
0
100
AcDbLine
 62
7
  6
CONTINUOUS
 10
10.1929085923
 20
7.5242899251
 11
10.1929085923
 21
7.3555193985
  0
LINE
  5
31D
100
AcDbEntity
  8
0
100
AcDbLine
 62
7
  6
CONTINUOUS
 10
10.2184085923
 20
7.6854046618
 11
10.2184085923
 21
7.6634046618
  0
LINE
  5
31E
100
AcDbEntity
  8
0
100
AcDbLine
 62
7
  6
CONTINUOUS
 10
10.2419085923
 20
8.0494046618
 11
10.2419085923
 21
7.6984046618
  0
LINE
  5
31F
100
AcDbEntity
  8
0
100
AcDbLine
 62
7
  6
CONTINUOUS
 10
10.2419085923
 20
7.6504046618
 11
10.2419085923
 21
7.5994046618
  0
LINE
  5
320
100
AcDbEntity
  8
0
100
AcDbLine
 62
7
  6
CONTINUOUS
 10
10.27631084
 20
8.4569046618
 11
10.27631084
 21
8.0834683277
  0
LINE
  5
321
100
AcDbEntity
  8
0
100
AcDbLine
 62
7
  6
CONTINUOUS
 10
10.2969085923
 20
8.5484046618
 11
10.2969085923
 21
8.5174046618
  0
LINE
  5
322
100
AcDbEntity
  8
0
100
AcDbLine
 62
7
  6
CONTINUOUS
 10
10.3059246263
 20
8.0537482741
 11
10.3059246263
 21
8.5083888087
  0
LINE
  5
323
100
AcDbEntity
  8
0
100
AcDbLine
 62
7
  6
CONTINUOUS
 10
10.5925197946
 20
10.9278086574
 11
10.6054085923
 21
11.0009046618
  0
LINE
  5
324
100
AcDbEntity
  8
03__ASM_ALL_CURVES
100
AcDbLine
 62
4
  6
CONTINUOUS
 10
11.2144085923
 20
12.2617379967
 11
11.2244085923
 21
12.2884046618
  0
LINE
  5
325
100
AcDbEntity
  8
03__ASM_ALL_CURVES
100
AcDbLine
 62
4
  6
CONTINUOUS
 10
11.4244085923
 20
12.2617379967
 11
11.4294085923
 21
12.2750713269
  0
LINE
  5
326
100
AcDbEntity
  8
0
100
AcDbLine
 62
7
  6
CONTINUOUS
 10
9.4399085923
 20
8.5174046618
 11
9.4306691709
 21
8.5081652404
  0
LINE
  5
327
100
AcDbEntity
  8
0
100
AcDbLine
 62
7
  6
CONTINUOUS
 10
9.7662174884
 20
8.8329046618
 11
9.97059966
 21
8.8329046618
  0
LINE
  5
328
100
AcDbEntity
  8
0
100
AcDbLine
 62
7
  6
CONTINUOUS
 10
9.7328838201
 20
8.8558143177
 11
10.0039333283
 21
8.8558143177
  0
LINE
  5
329
100
AcDbEntity
  8
03__ASM_ALL_CURVES
100
AcDbLine
 62
4
  6
CONTINUOUS
 10
11.8494085923
 20
8.9774046618
 11
11.8394085923
 21
8.9774046618
  0
LINE
  5
32A
100
AcDbEntity
  8
03__ASM_ALL_CURVES
100
AcDbLine
 62
4
  6
CONTINUOUS
 10
11.7044085923
 20
8.9774046618
 11
11.6969085923
 21
8.9774046618
  0
LINE
  5
32B
100
AcDbEntity
  8
03__ASM_ALL_CURVES
100
AcDbLine
 62
4
  6
CONTINUOUS
 10
11.1444085923
 20
8.9774046618
 11
11.1369085923
 21
8.9774046618
  0
LINE
  5
32C
100
AcDbEntity
  8
03__ASM_ALL_CURVES
100
AcDbLine
 62
4
  6
CONTINUOUS
 10
11.1844085923
 20
8.9974046618
 11
11.2294085923
 21
8.9974046618
  0
LINE
  5
32D
100
AcDbEntity
  8
03__ASM_ALL_CURVES
100
AcDbLine
 62
4
  6
CONTINUOUS
 10
10.6044085923
 20
9.0174046618
 11
10.8444085923
 21
9.0174046618
  0
LINE
  5
32E
100
AcDbEntity
  8
03__ASM_ALL_CURVES
100
AcDbLine
 62
4
  6
CONTINUOUS
 10
11.8394085923
 20
9.0240713269
 11
11.8494085923
 21
9.0240713269
  0
LINE
  5
32F
100
AcDbEntity
  8
03__ASM_ALL_CURVES
100
AcDbLine
 62
4
  6
CONTINUOUS
 10
11.0444085923
 20
8.5084046618
 11
11.0344085923
 21
8.5150713287
  0
LINE
  5
330
100
AcDbEntity
  8
03__ASM_ALL_CURVES
100
AcDbLine
 62
4
  6
CONTINUOUS
 10
11.0444085923
 20
8.5884046618
 11
11.0544085923
 21
8.5817379967
  0
LINE
  5
331
100
AcDbEntity
  8
03__ASM_ALL_CURVES
100
AcDbLine
 62
4
  6
CONTINUOUS
 10
11.4627979673
 20
7.2674046618
 11
11.4749062173
 21
7.2512603294
  0
LINE
  5
332
100
AcDbEntity
  8
03__ASM_ALL_CURVES
100
AcDbLine
 62
4
  6
CONTINUOUS
 10
11.4627979673
 20
7.307765497
 11
11.4688520923
 21
7.2996933265
  0
LINE
  5
333
100
AcDbEntity
  8
03__ASM_ALL_CURVES
100
AcDbLine
 62
4
  6
CONTINUOUS
 10
11.6323134673
 20
7.2351159956
 11
11.6444217173
 21
7.2189716618
  0
LINE
  5
334
100
AcDbEntity
  8
03__ASM_ALL_CURVES
100
AcDbLine
 62
4
  6
CONTINUOUS
 10
11.7170712173
 20
7.2270438287
 11
11.7110170923
 21
7.2351159956
  0
LINE
  5
335
100
AcDbEntity
  8
0
100
AcDbLine
 62
7
  6
CONTINUOUS
 10
10.5244085923
 20
12.2484047095
 11
10.5244085923
 21
8.5484046618
  0
LINE
  5
336
100
AcDbEntity
  8
03__ASM_ALL_CURVES
100
AcDbLine
 62
4
  6
CONTINUOUS
 10
10.5244085923
 20
8.4684046618
 11
10.5244085923
 21
8.2284046618
  0
LINE
  5
337
100
AcDbEntity
  8
03__ASM_ALL_CURVES
100
AcDbLine
 62
4
  6
CONTINUOUS
 10
11.2094085923
 20
12.2417379943
 11
11.2144085923
 21
12.2617379967
  0
LINE
  5
338
100
AcDbEntity
  8
03__ASM_ALL_CURVES
100
AcDbLine
 62
4
  6
CONTINUOUS
 10
11.4644085923
 20
12.2617379967
 11
11.4594085923
 21
12.2484046618
  0
LINE
  5
339
100
AcDbEntity
  8
03__ASM_ALL_CURVES
100
AcDbLine
 62
4
  6
CONTINUOUS
 10
11.4644085923
 20
12.2350713293
 11
11.4594085923
 21
12.2217379955
  0
LINE
  5
33A
100
AcDbEntity
  8
03__ASM_ALL_CURVES
100
AcDbLine
 62
4
  6
CONTINUOUS
 10
11.6644085923
 20
12.2617379967
 11
11.6694085923
 21
12.2750713269
  0
LINE
  5
33B
100
AcDbEntity
  8
03__ASM_ALL_CURVES
100
AcDbLine
 62
4
  6
CONTINUOUS
 10
11.8394085923
 20
9.0574046618
 11
11.8494085923
 21
9.0574046618
  0
LINE
  5
33C
100
AcDbEntity
  8
0
100
AcDbLine
 62
7
  6
CONTINUOUS
 10
9.7116139502
 20
9.1584950058
 11
10.0252031982
 21
9.1584950058
  0
LINE
  5
33D
100
AcDbEntity
  8
0
100
AcDbLine
 62
7
  6
CONTINUOUS
 10
9.7358199659
 20
9.1814046618
 11
10.0009971825
 21
9.1814046618
  0
LINE
  5
33E
100
AcDbEntity
  8
03__ASM_ALL_CURVES
100
AcDbLine
 62
4
  6
CONTINUOUS
 10
12.2494085923
 20
9.1964046618
 11
12.2394085923
 21
9.1964046618
  0
LINE
  5
33F
100
AcDbEntity
  8
03__ASM_ALL_CURVES
100
AcDbLine
 62
4
  6
CONTINUOUS
 10
11.7044085923
 20
9.1964046618
 11
11.6969085923
 21
9.1964046618
  0
LINE
  5
340
100
AcDbEntity
  8
03__ASM_ALL_CURVES
100
AcDbLine
 62
4
  6
CONTINUOUS
 10
11.2894085923
 20
9.1964046618
 11
11.2794085923
 21
9.1964046618
  0
LINE
  5
341
100
AcDbEntity
  8
03__ASM_ALL_CURVES
100
AcDbLine
 62
4
  6
CONTINUOUS
 10
11.1444085923
 20
9.1964046618
 11
11.1369085923
 21
9.1964046618
  0
LINE
  5
342
100
AcDbEntity
  8
03__ASM_ALL_CURVES
100
AcDbLine
 62
4
  6
CONTINUOUS
 10
11.7444085923
 20
9.1964046618
 11
11.7844085923
 21
9.1964046618
  0
LINE
  5
343
100
AcDbEntity
  8
03__ASM_ALL_CURVES
100
AcDbLine
 62
4
  6
CONTINUOUS
 10
12.1444085923
 20
9.1964046618
 11
12.1844085923
 21
9.1964046618
  0
LINE
  5
344
100
AcDbEntity
  8
03__ASM_ALL_CURVES
100
AcDbLine
 62
4
  6
CONTINUOUS
 10
10.6044085923
 20
9.2364046618
 11
10.8444085923
 21
9.2364046618
  0
LINE
  5
345
100
AcDbEntity
  8
03__ASM_ALL_CURVES
100
AcDbLine
 62
4
  6
CONTINUOUS
 10
11.2794085923
 20
9.2430713269
 11
11.2894085923
 21
9.2430713269
  0
LINE
  5
346
100
AcDbEntity
  8
03__ASM_ALL_CURVES
100
AcDbLine
 62
4
  6
CONTINUOUS
 10
11.7533959673
 20
7.2674046618
 11
11.7655042173
 21
7.2512603294
  0
LINE
  5
347
100
AcDbEntity
  8
03__ASM_ALL_CURVES
100
AcDbLine
 62
4
  6
CONTINUOUS
 10
11.7533959673
 20
7.307765497
 11
11.7594500923
 21
7.2996933265
  0
LINE
  5
348
100
AcDbEntity
  8
03__ASM_ALL_CURVES
100
AcDbLine
 62
4
  6
CONTINUOUS
 10
11.8502619673
 20
7.307765497
 11
11.8563160923
 21
7.2996933265
  0
LINE
  5
349
100
AcDbEntity
  8
03__ASM_ALL_CURVES
100
AcDbLine
 62
4
  6
CONTINUOUS
 10
11.9441009048
 20
7.2310799122
 11
11.9531820923
 21
7.2189716618
  0
LINE
  5
34A
100
AcDbEntity
  8
03__ASM_ALL_CURVES
100
AcDbLine
 62
4
  6
CONTINUOUS
 10
11.0344085923
 20
8.5150713287
 11
11.0294085923
 21
8.5217379955
  0
LINE
  5
34B
100
AcDbEntity
  8
03__ASM_ALL_CURVES
100
AcDbLine
 62
4
  6
CONTINUOUS
 10
12.0076692173
 20
7.2270438287
 11
12.0016150923
 21
7.2351159956
  0
LINE
  5
34C
100
AcDbEntity
  8
0
100
AcDbLine
 62
7
  6
CONTINUOUS
 10
10.6054085923
 20
11.9458991312
 11
10.6054085923
 21
11.912630026
  0
LINE
  5
34D
100
AcDbEntity
  8
0
100
AcDbLine
 62
7
  6
CONTINUOUS
 10
10.6054085923
 20
11.8826016651
 11
10.6054085923
 21
11.0009101924
  0
LINE
  5
34E
100
AcDbEntity
  8
03__ASM_ALL_CURVES
100
AcDbLine
 62
4
  6
CONTINUOUS
 10
11.2044085923
 20
12.2084046618
 11
11.2094085923
 21
12.2417379943
  0
LINE
  5
34F
100
AcDbEntity
  8
03__ASM_ALL_CURVES
100
AcDbLine
 62
4
  6
CONTINUOUS
 10
11.3594085923
 20
12.2750713269
 11
11.3544085923
 21
12.2550713269
  0
LINE
  5
350
100
AcDbEntity
  8
03__ASM_ALL_CURVES
100
AcDbLine
 62
4
  6
CONTINUOUS
 10
11.7044085923
 20
12.2617379967
 11
11.6994085923
 21
12.2484046618
  0
LINE
  5
351
100
AcDbEntity
  8
03__ASM_ALL_CURVES
100
AcDbLine
 62
4
  6
CONTINUOUS
 10
11.7044085923
 20
12.2350713293
 11
11.6994085923
 21
12.2217379955
  0
LINE
  5
352
100
AcDbEntity
  8
03__ASM_ALL_CURVES
100
AcDbLine
 62
4
  6
CONTINUOUS
 10
9.2610752574
 20
6.9924046618
 11
9.2677419272
 21
7.0024046618
  0
LINE
  5
353
100
AcDbEntity
  8
03__ASM_ALL_CURVES
100
AcDbLine
 62
4
  6
CONTINUOUS
 10
9.3144085923
 20
6.9824046618
 11
9.3077419255
 21
6.9724046618
  0
LINE
  5
354
100
AcDbEntity
  8
03__ASM_ALL_CURVES
100
AcDbLine
 62
4
  6
CONTINUOUS
 10
11.0344085923
 20
9.2697379967
 11
11.0444085923
 21
9.2764046618
  0
LINE
  5
355
100
AcDbEntity
  8
03__ASM_ALL_CURVES
100
AcDbLine
 62
4
  6
CONTINUOUS
 10
11.1894085923
 20
9.2364046618
 11
11.2044085923
 21
9.2430713269
  0
LINE
  5
356
100
AcDbEntity
  8
03__ASM_ALL_CURVES
100
AcDbLine
 62
4
  6
CONTINUOUS
 10
12.2494085923
 20
9.2764046618
 11
12.2394085923
 21
9.2764046618
  0
LINE
  5
357
100
AcDbEntity
  8
03__ASM_ALL_CURVES
100
AcDbLine
 62
4
  6
CONTINUOUS
 10
11.8644085923
 20
9.2764046618
 11
11.8244085923
 21
9.2764046618
  0
LINE
  5
358
100
AcDbEntity
  8
03__ASM_ALL_CURVES
100
AcDbLine
 62
4
  6
CONTINUOUS
 10
11.6244085923
 20
9.2764046618
 11
11.5844085923
 21
9.2764046618
  0
LINE
  5
359
100
AcDbEntity
  8
03__ASM_ALL_CURVES
100
AcDbLine
 62
4
  6
CONTINUOUS
 10
11.2794085923
 20
9.2764046618
 11
11.2894085923
 21
9.2764046618
  0
LINE
  5
35A
100
AcDbEntity
  8
03__ASM_ALL_CURVES
100
AcDbLine
 62
4
  6
CONTINUOUS
 10
11.7594085923
 20
9.2764046618
 11
11.7694085923
 21
9.2764046618
  0
LINE
  5
35B
100
AcDbEntity
  8
03__ASM_ALL_CURVES
100
AcDbLine
 62
4
  6
CONTINUOUS
 10
11.2844085923
 20
9.0240713269
 11
11.2994085923
 21
9.0174046618
  0
LINE
  5
35C
100
AcDbEntity
  8
03__ASM_ALL_CURVES
100
AcDbLine
 62
4
  6
CONTINUOUS
 10
11.0444085923
 20
8.9774046618
 11
11.0344085923
 21
8.9840713287
  0
LINE
  5
35D
100
AcDbEntity
  8
03__ASM_ALL_CURVES
100
AcDbLine
 62
4
  6
CONTINUOUS
 10
11.0444085923
 20
9.0574046618
 11
11.0544085923
 21
9.0507379967
  0
LINE
  5
35E
100
AcDbEntity
  8
03__ASM_ALL_CURVES
100
AcDbLine
 62
4
  6
CONTINUOUS
 10
11.2844085923
 20
8.9774046618
 11
11.2744085923
 21
8.9840713287
  0
LINE
  5
35F
100
AcDbEntity
  8
03__ASM_ALL_CURVES
100
AcDbLine
 62
4
  6
CONTINUOUS
 10
11.0444085923
 20
9.1964046618
 11
11.0344085923
 21
9.2030713287
  0
LINE
  5
360
100
AcDbEntity
  8
0
100
AcDbLine
 62
7
  6
CONTINUOUS
 10
8.7154085923
 20
11.1674046618
 11
8.7354085923
 21
11.1474046618
  0
LINE
  5
361
100
AcDbEntity
  8
03__ASM_ALL_CURVES
100
AcDbLine
 62
4
  6
CONTINUOUS
 10
11.0544085923
 20
8.5817379967
 11
11.0594085923
 21
8.5750713269
  0
LINE
  5
362
100
AcDbEntity
  8
03__ASM_ALL_CURVES
100
AcDbLine
 62
4
  6
CONTINUOUS
 10
12.0439939673
 20
7.2754768265
 11
12.0500480923
 21
7.2674046618
  0
LINE
  5
363
100
AcDbEntity
  8
03__ASM_ALL_CURVES
100
AcDbLine
 62
4
  6
CONTINUOUS
 10
12.2135094673
 20
7.3158376618
 11
12.2256177173
 21
7.2996933265
  0
LINE
  5
364
100
AcDbEntity
  8
03__ASM_ALL_CURVES
100
AcDbLine
 62
4
  6
CONTINUOUS
 10
11.0344085923
 20
8.9840713287
 11
11.0294085923
 21
8.9907379955
  0
LINE
  5
365
100
AcDbEntity
  8
03__ASM_ALL_CURVES
100
AcDbLine
 62
4
  6
CONTINUOUS
 10
11.0294085923
 20
8.5217379955
 11
11.0244085923
 21
8.5350713293
  0
LINE
  5
366
100
AcDbEntity
  8
03__ASM_ALL_CURVES
100
AcDbLine
 62
4
  6
CONTINUOUS
 10
11.0244085923
 20
8.5350713293
 11
11.0244085923
 21
8.5617379967
  0
LINE
  5
367
100
AcDbEntity
  8
03__ASM_ALL_CURVES
100
AcDbLine
 62
4
  6
CONTINUOUS
 10
11.0244085923
 20
9.0040713293
 11
11.0244085923
 21
9.0307379967
  0
LINE
  5
368
100
AcDbEntity
  8
03__ASM_ALL_CURVES
100
AcDbLine
 62
4
  6
CONTINUOUS
 10
11.0244085923
 20
9.2230713293
 11
11.0244085923
 21
9.2497379967
  0
LINE
  5
369
100
AcDbEntity
  8
03__ASM_ALL_CURVES
100
AcDbLine
 62
4
  6
CONTINUOUS
 10
11.0244085923
 20
9.2497379967
 11
11.0294085923
 21
9.2630713269
  0
LINE
  5
36A
100
AcDbEntity
  8
03__ASM_ALL_CURVES
100
AcDbLine
 62
4
  6
CONTINUOUS
 10
9.8617419272
 20
6.7474046618
 11
9.8684085923
 21
6.7624046618
  0
LINE
  5
36B
100
AcDbEntity
  8
03__ASM_ALL_CURVES
100
AcDbLine
 62
4
  6
CONTINUOUS
 10
9.2344085923
 20
6.6724046618
 11
9.2410752574
 21
6.6824046618
  0
LINE
  5
36C
100
AcDbEntity
  8
03__ASM_ALL_CURVES
100
AcDbLine
 62
4
  6
CONTINUOUS
 10
9.2677419272
 20
6.6724046618
 11
9.2744085923
 21
6.6824046618
  0
LINE
  5
36D
100
AcDbEntity
  8
03__ASM_ALL_CURVES
100
AcDbLine
 62
4
  6
CONTINUOUS
 10
9.3144085923
 20
6.6624046618
 11
9.3077419255
 21
6.6524046618
  0
LINE
  5
36E
100
AcDbEntity
  8
03__ASM_ALL_CURVES
100
AcDbLine
 62
4
  6
CONTINUOUS
 10
9.2610752574
 20
6.4324046618
 11
9.2677419272
 21
6.4424046618
  0
LINE
  5
36F
100
AcDbEntity
  8
03__ASM_ALL_CURVES
100
AcDbLine
 62
4
  6
CONTINUOUS
 10
11.0294085923
 20
9.2630713269
 11
11.0344085923
 21
9.2697379967
  0
LINE
  5
370
100
AcDbEntity
  8
03__ASM_ALL_CURVES
100
AcDbLine
 62
4
  6
CONTINUOUS
 10
11.0594085923
 20
9.2097379955
 11
11.0544085923
 21
9.2030713287
  0
LINE
  5
371
100
AcDbEntity
  8
03__ASM_ALL_CURVES
100
AcDbLine
 62
4
  6
CONTINUOUS
 10
11.0544085923
 20
9.2030713287
 11
11.0444085923
 21
9.1964046618
  0
LINE
  5
372
100
AcDbEntity
  8
03__ASM_ALL_CURVES
100
AcDbLine
 62
4
  6
CONTINUOUS
 10
11.1944085923
 20
9.2697379967
 11
11.2044085923
 21
9.2764046618
  0
LINE
  5
373
100
AcDbEntity
  8
03__ASM_ALL_CURVES
100
AcDbLine
 62
4
  6
CONTINUOUS
 10
11.2694085923
 20
9.2697379967
 11
11.2794085923
 21
9.2764046618
  0
LINE
  5
374
100
AcDbEntity
  8
03__ASM_ALL_CURVES
100
AcDbLine
 62
4
  6
CONTINUOUS
 10
11.2144085923
 20
9.2030713287
 11
11.2044085923
 21
9.1964046618
  0
LINE
  5
375
100
AcDbEntity
  8
03__ASM_ALL_CURVES
100
AcDbLine
 62
4
  6
CONTINUOUS
 10
11.2694085923
 20
9.2364046618
 11
11.2794085923
 21
9.2430713269
  0
LINE
  5
376
100
AcDbEntity
  8
03__ASM_ALL_CURVES
100
AcDbLine
 62
4
  6
CONTINUOUS
 10
11.2994085923
 20
9.2497379967
 11
11.2894085923
 21
9.2430713269
  0
LINE
  5
377
100
AcDbEntity
  8
03__ASM_ALL_CURVES
100
AcDbLine
 62
4
  6
CONTINUOUS
 10
11.0344085923
 20
9.0507379967
 11
11.0444085923
 21
9.0574046618
  0
LINE
  5
378
100
AcDbEntity
  8
03__ASM_ALL_CURVES
100
AcDbLine
 62
4
  6
CONTINUOUS
 10
11.2994085923
 20
9.2030713287
 11
11.2894085923
 21
9.1964046618
  0
LINE
  5
379
100
AcDbEntity
  8
03__ASM_ALL_CURVES
100
AcDbLine
 62
4
  6
CONTINUOUS
 10
11.0544085923
 20
8.9840713287
 11
11.0444085923
 21
8.9774046618
  0
LINE
  5
37A
100
AcDbEntity
  8
03__ASM_ALL_CURVES
100
AcDbLine
 62
4
  6
CONTINUOUS
 10
11.2694085923
 20
9.0174046618
 11
11.2844085923
 21
9.0240713269
  0
LINE
  5
37B
100
AcDbEntity
  8
03__ASM_ALL_CURVES
100
AcDbLine
 62
4
  6
CONTINUOUS
 10
11.2044085923
 20
9.2430713269
 11
11.2194085923
 21
9.2364046618
  0
LINE
  5
37C
100
AcDbEntity
  8
03__ASM_ALL_CURVES
100
AcDbLine
 62
4
  6
CONTINUOUS
 10
11.7644085923
 20
9.0240713269
 11
11.7794085923
 21
9.0174046618
  0
LINE
  5
37D
100
AcDbEntity
  8
03__ASM_ALL_CURVES
100
AcDbLine
 62
4
  6
CONTINUOUS
 10
11.2844085923
 20
9.0574046618
 11
11.2944085923
 21
9.0507379967
  0
LINE
  5
37E
100
AcDbEntity
  8
03__ASM_ALL_CURVES
100
AcDbLine
 62
4
  6
CONTINUOUS
 10
11.0444085923
 20
9.2764046618
 11
11.0544085923
 21
9.2697379967
  0
LINE
  5
37F
100
AcDbEntity
  8
03__ASM_ALL_CURVES
100
AcDbLine
 62
4
  6
CONTINUOUS
 10
11.2044085923
 20
9.1964046618
 11
11.1944085923
 21
9.2030713287
  0
LINE
  5
380
100
AcDbEntity
  8
03__ASM_ALL_CURVES
100
AcDbLine
 62
4
  6
CONTINUOUS
 10
11.2794085923
 20
9.1964046618
 11
11.2694085923
 21
9.2030713287
  0
LINE
  5
381
100
AcDbEntity
  8
03__ASM_ALL_CURVES
100
AcDbLine
 62
4
  6
CONTINUOUS
 10
11.2044085923
 20
9.2764046618
 11
11.2144085923
 21
9.2697379967
  0
LINE
  5
382
100
AcDbEntity
  8
03__ASM_ALL_CURVES
100
AcDbLine
 62
4
  6
CONTINUOUS
 10
11.2794085923
 20
9.2430713269
 11
11.2694085923
 21
9.2497379967
  0
LINE
  5
383
100
AcDbEntity
  8
03__ASM_ALL_CURVES
100
AcDbLine
 62
4
  6
CONTINUOUS
 10
11.2894085923
 20
9.2430713269
 11
11.2994085923
 21
9.2364046618
  0
LINE
  5
384
100
AcDbEntity
  8
03__ASM_ALL_CURVES
100
AcDbLine
 62
4
  6
CONTINUOUS
 10
11.2894085923
 20
9.2764046618
 11
11.2994085923
 21
9.2697379967
  0
LINE
  5
385
100
AcDbEntity
  8
03__ASM_ALL_CURVES
100
AcDbLine
 62
4
  6
CONTINUOUS
 10
11.7644085923
 20
8.9774046618
 11
11.7544085923
 21
8.9840713287
  0
LINE
  5
386
100
AcDbEntity
  8
03__ASM_ALL_CURVES
100
AcDbLine
 62
4
  6
CONTINUOUS
 10
11.0544085923
 20
9.0507379967
 11
11.0594085923
 21
9.0440713269
  0
LINE
  5
387
100
AcDbEntity
  8
03__ASM_ALL_CURVES
100
AcDbLine
 62
4
  6
CONTINUOUS
 10
11.1369085923
 20
8.9874046621
 11
11.1444085923
 21
8.9774046618
  0
LINE
  5
388
100
AcDbEntity
  8
03__ASM_ALL_CURVES
100
AcDbLine
 62
4
  6
CONTINUOUS
 10
11.0344085923
 20
9.2030713287
 11
11.0294085923
 21
9.2097379955
  0
LINE
  5
389
100
AcDbEntity
  8
03__ASM_ALL_CURVES
100
AcDbLine
 62
4
  6
CONTINUOUS
 10
11.0544085923
 20
9.2697379967
 11
11.0594085923
 21
9.2630713269
  0
LINE
  5
38A
100
AcDbEntity
  8
03__ASM_ALL_CURVES
100
AcDbLine
 62
4
  6
CONTINUOUS
 10
11.2744085923
 20
8.9840713287
 11
11.2694085923
 21
8.9907379955
  0
LINE
  5
38B
100
AcDbEntity
  8
03__ASM_ALL_CURVES
100
AcDbLine
 62
4
  6
CONTINUOUS
 10
11.1369085923
 20
9.2064046621
 11
11.1444085923
 21
9.1964046618
  0
LINE
  5
38C
100
AcDbEntity
  8
03__ASM_ALL_CURVES
100
AcDbLine
 62
4
  6
CONTINUOUS
 10
11.0594085923
 20
8.5750713269
 11
11.0644085923
 21
8.5617379967
  0
LINE
  5
38D
100
AcDbEntity
  8
03__ASM_ALL_CURVES
100
AcDbLine
 62
4
  6
CONTINUOUS
 10
11.0294085923
 20
8.9907379955
 11
11.0244085923
 21
9.0040713293
  0
LINE
  5
38E
100
AcDbEntity
  8
03__ASM_ALL_CURVES
100
AcDbLine
 62
4
  6
CONTINUOUS
 10
11.0594085923
 20
9.0440713269
 11
11.0644085923
 21
9.0307379967
  0
LINE
  5
38F
100
AcDbEntity
  8
03__ASM_ALL_CURVES
100
AcDbLine
 62
4
  6
CONTINUOUS
 10
11.0294085923
 20
9.2097379955
 11
11.0244085923
 21
9.2230713293
  0
LINE
  5
390
100
AcDbEntity
  8
03__ASM_ALL_CURVES
100
AcDbLine
 62
4
  6
CONTINUOUS
 10
11.0644085923
 20
12.2750713269
 11
11.0644085923
 21
12.2684046618
  0
LINE
  5
391
100
AcDbEntity
  8
03__ASM_ALL_CURVES
100
AcDbLine
 62
4
  6
CONTINUOUS
 10
11.0644085923
 20
9.2497379967
 11
11.0644085923
 21
9.2230713293
  0
LINE
  5
392
100
AcDbEntity
  8
03__ASM_ALL_CURVES
100
AcDbLine
 62
4
  6
CONTINUOUS
 10
11.0644085923
 20
9.0307379967
 11
11.0644085923
 21
9.0040713293
  0
LINE
  5
393
100
AcDbEntity
  8
03__ASM_ALL_CURVES
100
AcDbLine
 62
4
  6
CONTINUOUS
 10
11.0644085923
 20
8.5617379967
 11
11.0644085923
 21
8.5350713293
  0
LINE
  5
394
100
AcDbEntity
  8
03__ASM_ALL_CURVES
100
AcDbLine
 62
4
  6
CONTINUOUS
 10
11.0694085923
 20
12.2350713293
 11
11.0694085923
 21
12.2284046618
  0
LINE
  5
395
100
AcDbEntity
  8
03__ASM_ALL_CURVES
100
AcDbLine
 62
4
  6
CONTINUOUS
 10
11.1369085923
 20
8.9774046618
 11
11.1369085923
 21
8.9874046621
  0
LINE
  5
396
100
AcDbEntity
  8
03__ASM_ALL_CURVES
100
AcDbLine
 62
4
  6
CONTINUOUS
 10
11.1369085923
 20
9.1964046618
 11
11.1369085923
 21
9.2064046621
  0
LINE
  5
397
100
AcDbEntity
  8
03__ASM_ALL_CURVES
100
AcDbLine
 62
4
  6
CONTINUOUS
 10
11.1369085923
 20
12.2084046618
 11
11.1369085923
 21
12.2184046621
  0
LINE
  5
398
100
AcDbEntity
  8
03__ASM_ALL_CURVES
100
AcDbLine
 62
4
  6
CONTINUOUS
 10
11.1540375923
 20
7.3158376618
 11
11.1540375923
 21
7.2189716618
  0
LINE
  5
399
100
AcDbEntity
  8
03__ASM_ALL_CURVES
100
AcDbLine
 62
4
  6
CONTINUOUS
 10
11.1844085923
 20
9.2230713293
 11
11.1844085923
 21
9.2497379967
  0
LINE
  5
39A
100
AcDbEntity
  8
03__ASM_ALL_CURVES
100
AcDbLine
 62
4
  6
CONTINUOUS
 10
11.2194085923
 20
8.9774046618
 11
11.2194085923
 21
9.0574046618
  0
LINE
  5
39B
100
AcDbEntity
  8
03__ASM_ALL_CURVES
100
AcDbLine
 62
4
  6
CONTINUOUS
 10
11.2594085923
 20
9.2164046618
 11
11.2594085923
 21
9.2230713293
  0
LINE
  5
39C
100
AcDbEntity
  8
03__ASM_ALL_CURVES
100
AcDbLine
 62
4
  6
CONTINUOUS
 10
11.2644085923
 20
9.0040713293
 11
11.2644085923
 21
9.0307379967
  0
LINE
  5
39D
100
AcDbEntity
  8
03__ASM_ALL_CURVES
100
AcDbLine
 62
4
  6
CONTINUOUS
 10
11.2644085923
 20
9.2564046618
 11
11.2644085923
 21
9.2630713269
  0
LINE
  5
39E
100
AcDbEntity
  8
03__ASM_ALL_CURVES
100
AcDbLine
 62
4
  6
CONTINUOUS
 10
11.2660389048
 20
7.2189716618
 11
11.2660389048
 21
7.2310799122
  0
LINE
  5
39F
100
AcDbEntity
  8
03__ASM_ALL_CURVES
100
AcDbLine
 62
4
  6
CONTINUOUS
 10
11.8544085923
 20
12.2417379943
 11
11.8494085923
 21
12.2217379955
  0
LINE
  5
3A0
100
AcDbEntity
  8
03__ASM_ALL_CURVES
100
AcDbLine
 62
4
  6
CONTINUOUS
 10
11.0644085923
 20
9.2230713293
 11
11.0594085923
 21
9.2097379955
  0
LINE
  5
3A1
100
AcDbEntity
  8
03__ASM_ALL_CURVES
100
AcDbLine
 62
4
  6
CONTINUOUS
 10
11.0244085923
 20
9.0307379967
 11
11.0294085923
 21
9.0440713269
  0
LINE
  5
3A2
100
AcDbEntity
  8
03__ASM_ALL_CURVES
100
AcDbLine
 62
4
  6
CONTINUOUS
 10
11.0644085923
 20
9.0040713293
 11
11.0594085923
 21
8.9907379955
  0
LINE
  5
3A3
100
AcDbEntity
  8
03__ASM_ALL_CURVES
100
AcDbLine
 62
4
  6
CONTINUOUS
 10
11.1844085923
 20
9.2497379967
 11
11.1894085923
 21
9.2630713269
  0
LINE
  5
3A4
100
AcDbEntity
  8
03__ASM_ALL_CURVES
100
AcDbLine
 62
4
  6
CONTINUOUS
 10
11.1844085923
 20
9.2230713293
 11
11.1894085923
 21
9.2364046618
  0
LINE
  5
3A5
100
AcDbEntity
  8
03__ASM_ALL_CURVES
100
AcDbLine
 62
4
  6
CONTINUOUS
 10
11.2244085923
 20
9.2230713293
 11
11.2194085923
 21
9.2097379955
  0
LINE
  5
3A6
100
AcDbEntity
  8
03__ASM_ALL_CURVES
100
AcDbLine
 62
4
  6
CONTINUOUS
 10
11.0244085923
 20
8.5617379967
 11
11.0294085923
 21
8.5750713269
  0
LINE
  5
3A7
100
AcDbEntity
  8
03__ASM_ALL_CURVES
100
AcDbLine
 62
4
  6
CONTINUOUS
 10
9.8617419272
 20
6.3474046618
 11
9.8684085923
 21
6.3624046618
  0
LINE
  5
3A8
100
AcDbEntity
  8
03__ASM_ALL_CURVES
100
AcDbLine
 62
4
  6
CONTINUOUS
 10
11.2194085923
 20
9.0574046618
 11
11.1844085923
 21
8.9974046618
  0
LINE
  5
3A9
100
AcDbEntity
  8
03__ASM_ALL_CURVES
100
AcDbLine
 62
4
  6
CONTINUOUS
 10
9.2344085923
 20
6.3524046618
 11
9.2410752574
 21
6.3624046618
  0
LINE
  5
3AA
100
AcDbEntity
  8
03__ASM_ALL_CURVES
100
AcDbLine
 62
4
  6
CONTINUOUS
 10
9.3144085923
 20
6.4224046618
 11
9.3077419255
 21
6.4124046618
  0
LINE
  5
3AB
100
AcDbEntity
  8
03__ASM_ALL_CURVES
100
AcDbLine
 62
4
  6
CONTINUOUS
 10
10.4844085923
 20
8.0284046618
 11
10.4910752574
 21
8.0384046618
  0
LINE
  5
3AC
100
AcDbEntity
  8
03__ASM_ALL_CURVES
100
AcDbLine
 62
4
  6
CONTINUOUS
 10
9.8284085923
 20
6.9874046618
 11
9.8350752574
 21
6.9974046618
  0
LINE
  5
3AD
100
AcDbEntity
  8
03__ASM_ALL_CURVES
100
AcDbLine
 62
4
  6
CONTINUOUS
 10
10.5644085923
 20
8.0284046618
 11
10.5577419255
 21
8.0184046618
  0
LINE
  5
3AE
100
AcDbEntity
  8
03__ASM_ALL_CURVES
100
AcDbLine
 62
4
  6
CONTINUOUS
 10
9.8550752574
 20
6.9124046618
 11
9.8617419272
 21
6.9224046618
  0
LINE
  5
3AF
100
AcDbEntity
  8
03__ASM_ALL_CURVES
100
AcDbLine
 62
4
  6
CONTINUOUS
 10
9.9084085923
 20
6.9874046618
 11
9.9017419255
 21
6.9774046618
  0
LINE
  5
3B0
100
AcDbEntity
  8
03__ASM_ALL_CURVES
100
AcDbLine
 62
4
  6
CONTINUOUS
 10
11.1894085923
 20
9.2630713269
 11
11.1944085923
 21
9.2697379967
  0
LINE
  5
3B1
100
AcDbEntity
  8
03__ASM_ALL_CURVES
100
AcDbLine
 62
4
  6
CONTINUOUS
 10
11.0294085923
 20
9.0440713269
 11
11.0344085923
 21
9.0507379967
  0
LINE
  5
3B2
100
AcDbEntity
  8
03__ASM_ALL_CURVES
100
AcDbLine
 62
4
  6
CONTINUOUS
 10
11.2194085923
 20
9.2097379955
 11
11.2144085923
 21
9.2030713287
  0
LINE
  5
3B3
100
AcDbEntity
  8
03__ASM_ALL_CURVES
100
AcDbLine
 62
4
  6
CONTINUOUS
 10
11.0594085923
 20
8.9907379955
 11
11.0544085923
 21
8.9840713287
  0
LINE
  5
3B4
100
AcDbEntity
  8
03__ASM_ALL_CURVES
100
AcDbLine
 62
4
  6
CONTINUOUS
 10
11.2644085923
 20
9.2630713269
 11
11.2694085923
 21
9.2697379967
  0
LINE
  5
3B5
100
AcDbEntity
  8
03__ASM_ALL_CURVES
100
AcDbLine
 62
4
  6
CONTINUOUS
 10
11.2594085923
 20
9.2230713293
 11
11.2694085923
 21
9.2364046618
  0
LINE
  5
3B6
100
AcDbEntity
  8
03__ASM_ALL_CURVES
100
AcDbLine
 62
4
  6
CONTINUOUS
 10
11.3044085923
 20
9.2564046618
 11
11.2994085923
 21
9.2497379967
  0
LINE
  5
3B7
100
AcDbEntity
  8
03__ASM_ALL_CURVES
100
AcDbLine
 62
4
  6
CONTINUOUS
 10
11.3094085923
 20
9.2164046618
 11
11.2994085923
 21
9.2030713287
  0
LINE
  5
3B8
100
AcDbEntity
  8
03__ASM_ALL_CURVES
100
AcDbLine
 62
4
  6
CONTINUOUS
 10
11.2694085923
 20
9.0440713269
 11
11.2744085923
 21
9.0507379967
  0
LINE
  5
3B9
100
AcDbEntity
  8
03__ASM_ALL_CURVES
100
AcDbLine
 62
4
  6
CONTINUOUS
 10
11.4494085923
 20
9.2764046618
 11
11.4394085923
 21
9.2630713269
  0
LINE
  5
3BA
100
AcDbEntity
  8
03__ASM_ALL_CURVES
100
AcDbLine
 62
4
  6
CONTINUOUS
 10
11.2744085923
 20
9.0507379967
 11
11.2844085923
 21
9.0574046618
  0
LINE
  5
3BB
100
AcDbEntity
  8
03__ASM_ALL_CURVES
100
AcDbLine
 62
4
  6
CONTINUOUS
 10
11.2944085923
 20
8.9840713287
 11
11.2844085923
 21
8.9774046618
  0
LINE
  5
3BC
100
AcDbEntity
  8
03__ASM_ALL_CURVES
100
AcDbLine
 62
4
  6
CONTINUOUS
 10
11.7494085923
 20
9.2697379967
 11
11.7594085923
 21
9.2764046618
  0
LINE
  5
3BD
100
AcDbEntity
  8
03__ASM_ALL_CURVES
100
AcDbLine
 62
4
  6
CONTINUOUS
 10
11.7794085923
 20
9.2430713269
 11
11.7594085923
 21
9.2297379943
  0
LINE
  5
3BE
100
AcDbEntity
  8
03__ASM_ALL_CURVES
100
AcDbLine
 62
4
  6
CONTINUOUS
 10
11.7494085923
 20
9.0174046618
 11
11.7644085923
 21
9.0240713269
  0
LINE
  5
3BF
100
AcDbEntity
  8
03__ASM_ALL_CURVES
100
AcDbLine
 62
4
  6
CONTINUOUS
 10
11.8394085923
 20
8.9774046618
 11
11.8294085923
 21
8.9840713287
  0
LINE
  5
3C0
100
AcDbEntity
  8
03__ASM_ALL_CURVES
100
AcDbLine
 62
4
  6
CONTINUOUS
 10
11.7644085923
 20
9.0574046618
 11
11.7744085923
 21
9.0507379967
  0
LINE
  5
3C1
100
AcDbEntity
  8
03__ASM_ALL_CURVES
100
AcDbLine
 62
4
  6
CONTINUOUS
 10
11.8394085923
 20
9.0240713269
 11
11.8294085923
 21
9.0307379967
  0
LINE
  5
3C2
100
AcDbEntity
  8
03__ASM_ALL_CURVES
100
AcDbLine
 62
4
  6
CONTINUOUS
 10
11.8494085923
 20
9.0240713269
 11
11.8594085923
 21
9.0174046618
  0
LINE
  5
3C3
100
AcDbEntity
  8
03__ASM_ALL_CURVES
100
AcDbLine
 62
4
  6
CONTINUOUS
 10
11.8494085923
 20
9.0574046618
 11
11.8594085923
 21
9.0507379967
  0
LINE
  5
3C4
100
AcDbEntity
  8
03__ASM_ALL_CURVES
100
AcDbLine
 62
4
  6
CONTINUOUS
 10
11.7694085923
 20
9.2764046618
 11
11.7794085923
 21
9.2697379967
  0
LINE
  5
3C5
100
AcDbEntity
  8
03__ASM_ALL_CURVES
100
AcDbLine
 62
4
  6
CONTINUOUS
 10
11.2944085923
 20
9.0507379967
 11
11.2994085923
 21
9.0440713269
  0
LINE
  5
3C6
100
AcDbEntity
  8
03__ASM_ALL_CURVES
100
AcDbLine
 62
4
  6
CONTINUOUS
 10
11.1944085923
 20
9.2030713287
 11
11.1894085923
 21
9.2097379955
  0
LINE
  5
3C7
100
AcDbEntity
  8
03__ASM_ALL_CURVES
100
AcDbLine
 62
4
  6
CONTINUOUS
 10
11.2144085923
 20
9.2697379967
 11
11.2194085923
 21
9.2630713269
  0
LINE
  5
3C8
100
AcDbEntity
  8
03__ASM_ALL_CURVES
100
AcDbLine
 62
4
  6
CONTINUOUS
 10
11.2694085923
 20
9.2030713287
 11
11.2594085923
 21
9.2164046618
  0
LINE
  5
3C9
100
AcDbEntity
  8
03__ASM_ALL_CURVES
100
AcDbLine
 62
4
  6
CONTINUOUS
 10
11.4394085923
 20
8.9907379955
 11
11.4494085923
 21
8.9774046618
  0
LINE
  5
3CA
100
AcDbEntity
  8
03__ASM_ALL_CURVES
100
AcDbLine
 62
4
  6
CONTINUOUS
 10
11.2694085923
 20
9.2497379967
 11
11.2644085923
 21
9.2564046618
  0
LINE
  5
3CB
100
AcDbEntity
  8
03__ASM_ALL_CURVES
100
AcDbLine
 62
4
  6
CONTINUOUS
 10
11.2994085923
 20
9.2364046618
 11
11.3094085923
 21
9.2230713293
  0
LINE
  5
3CC
100
AcDbEntity
  8
03__ASM_ALL_CURVES
100
AcDbLine
 62
4
  6
CONTINUOUS
 10
11.2994085923
 20
9.2697379967
 11
11.3044085923
 21
9.2630713269
  0
LINE
  5
3CD
100
AcDbEntity
  8
03__ASM_ALL_CURVES
100
AcDbLine
 62
4
  6
CONTINUOUS
 10
11.4394085923
 20
9.2097379955
 11
11.4494085923
 21
9.1964046618
  0
LINE
  5
3CE
100
AcDbEntity
  8
03__ASM_ALL_CURVES
100
AcDbLine
 62
4
  6
CONTINUOUS
 10
11.0594085923
 20
9.2630713269
 11
11.0644085923
 21
9.2497379967
  0
LINE
  5
3CF
100
AcDbEntity
  8
03__ASM_ALL_CURVES
100
AcDbLine
 62
4
  6
CONTINUOUS
 10
11.2694085923
 20
8.9907379955
 11
11.2644085923
 21
9.0040713293
  0
LINE
  5
3D0
100
AcDbEntity
  8
03__ASM_ALL_CURVES
100
AcDbLine
 62
4
  6
CONTINUOUS
 10
11.1894085923
 20
9.2097379955
 11
11.1844085923
 21
9.2230713293
  0
LINE
  5
3D1
100
AcDbEntity
  8
03__ASM_ALL_CURVES
100
AcDbLine
 62
4
  6
CONTINUOUS
 10
11.2994085923
 20
9.0174046618
 11
11.3044085923
 21
9.0040713293
  0
LINE
  5
3D2
100
AcDbEntity
  8
03__ASM_ALL_CURVES
100
AcDbLine
 62
4
  6
CONTINUOUS
 10
11.2194085923
 20
9.2364046618
 11
11.2244085923
 21
9.2230713293
  0
LINE
  5
3D3
100
AcDbEntity
  8
03__ASM_ALL_CURVES
100
AcDbLine
 62
4
  6
CONTINUOUS
 10
12.0500480923
 20
7.2674046618
 11
12.0561022173
 21
7.2512603294
  0
LINE
  5
3D4
100
AcDbEntity
  8
03__ASM_ALL_CURVES
100
AcDbLine
 62
4
  6
CONTINUOUS
 10
11.6262593423
 20
7.2593324942
 11
11.6323134673
 21
7.2351159956
  0
LINE
  5
3D5
100
AcDbEntity
  8
0
100
AcDbLine
 62
7
  6
CONTINUOUS
 10
10.5925197946
 20
12.0190006662
 11
10.6054085923
 21
11.9459046618
  0
LINE
  5
3D6
100
AcDbEntity
  8
03__ASM_ALL_CURVES
100
AcDbLine
 62
4
  6
CONTINUOUS
 10
11.3044085923
 20
9.2630713269
 11
11.3044085923
 21
9.2564046618
  0
LINE
  5
3D7
100
AcDbEntity
  8
03__ASM_ALL_CURVES
100
AcDbLine
 62
4
  6
CONTINUOUS
 10
11.3094085923
 20
9.2230713293
 11
11.3094085923
 21
9.2164046618
  0
LINE
  5
3D8
100
AcDbEntity
  8
03__ASM_ALL_CURVES
100
AcDbLine
 62
4
  6
CONTINUOUS
 10
11.3544085923
 20
12.2550713269
 11
11.3544085923
 21
12.2417379943
  0
LINE
  5
3D9
100
AcDbEntity
  8
03__ASM_ALL_CURVES
100
AcDbLine
 62
4
  6
CONTINUOUS
 10
11.3719860923
 20
7.2996933265
 11
11.3719860923
 21
7.283548997
  0
LINE
  5
3DA
100
AcDbEntity
  8
03__ASM_ALL_CURVES
100
AcDbLine
 62
4
  6
CONTINUOUS
 10
11.4143649673
 20
7.2431881618
 11
11.4143649673
 21
7.2512603294
  0
LINE
  5
3DB
100
AcDbEntity
  8
03__ASM_ALL_CURVES
100
AcDbLine
 62
4
  6
CONTINUOUS
 10
11.4204190923
 20
7.2916211618
 11
11.4204190923
 21
7.2996933265
  0
LINE
  5
3DC
100
AcDbEntity
  8
03__ASM_ALL_CURVES
100
AcDbLine
 62
4
  6
CONTINUOUS
 10
11.4344085923
 20
9.2430713269
 11
11.4344085923
 21
9.2297379943
  0
LINE
  5
3DD
100
AcDbEntity
  8
03__ASM_ALL_CURVES
100
AcDbLine
 62
4
  6
CONTINUOUS
 10
11.4344085923
 20
9.0240713269
 11
11.4344085923
 21
9.0107379943
  0
LINE
  5
3DE
100
AcDbEntity
  8
03__ASM_ALL_CURVES
100
AcDbLine
 62
4
  6
CONTINUOUS
 10
11.4644085923
 20
12.2617379967
 11
11.4644085923
 21
12.2350713293
  0
LINE
  5
3DF
100
AcDbEntity
  8
03__ASM_ALL_CURVES
100
AcDbLine
 62
4
  6
CONTINUOUS
 10
11.4688520923
 20
7.2996933265
 11
11.4688520923
 21
7.2916211618
  0
LINE
  5
3E0
100
AcDbEntity
  8
03__ASM_ALL_CURVES
100
AcDbLine
 62
4
  6
CONTINUOUS
 10
11.4749062173
 20
7.2512603294
 11
11.4749062173
 21
7.2431881618
  0
LINE
  5
3E1
100
AcDbEntity
  8
03__ASM_ALL_CURVES
100
AcDbLine
 62
4
  6
CONTINUOUS
 10
11.4394085923
 20
9.2630713269
 11
11.4344085923
 21
9.2430713269
  0
LINE
  5
3E2
100
AcDbEntity
  8
03__ASM_ALL_CURVES
100
AcDbLine
 62
4
  6
CONTINUOUS
 10
11.4394085923
 20
9.0440713269
 11
11.4344085923
 21
9.0240713269
  0
LINE
  5
3E3
100
AcDbEntity
  8
03__ASM_ALL_CURVES
100
AcDbLine
 62
4
  6
CONTINUOUS
 10
11.0644085923
 20
8.5350713293
 11
11.0594085923
 21
8.5217379955
  0
LINE
  5
3E4
100
AcDbEntity
  8
03__ASM_ALL_CURVES
100
AcDbLine
 62
4
  6
CONTINUOUS
 10
11.2644085923
 20
9.0307379967
 11
11.2694085923
 21
9.0440713269
  0
LINE
  5
3E5
100
AcDbEntity
  8
03__ASM_ALL_CURVES
100
AcDbLine
 62
4
  6
CONTINUOUS
 10
11.2644085923
 20
9.0040713293
 11
11.2694085923
 21
9.0174046618
  0
LINE
  5
3E6
100
AcDbEntity
  8
03__ASM_ALL_CURVES
100
AcDbLine
 62
4
  6
CONTINUOUS
 10
11.3044085923
 20
9.0040713293
 11
11.2994085923
 21
8.9907379955
  0
LINE
  5
3E7
100
AcDbEntity
  8
03__ASM_ALL_CURVES
100
AcDbLine
 62
4
  6
CONTINUOUS
 10
9.9084085923
 20
6.9024046618
 11
9.9017419255
 21
6.8924046618
  0
LINE
  5
3E8
100
AcDbEntity
  8
03__ASM_ALL_CURVES
100
AcDbLine
 62
4
  6
CONTINUOUS
 10
9.8284085923
 20
6.7474046618
 11
9.8350752574
 21
6.7574046618
  0
LINE
  5
3E9
100
AcDbEntity
  8
03__ASM_ALL_CURVES
100
AcDbLine
 62
4
  6
CONTINUOUS
 10
9.9084085923
 20
6.7474046618
 11
9.9017419255
 21
6.7374046618
  0
LINE
  5
3EA
100
AcDbEntity
  8
03__ASM_ALL_CURVES
100
AcDbLine
 62
4
  6
CONTINUOUS
 10
11.2994085923
 20
8.9907379955
 11
11.2944085923
 21
8.9840713287
  0
LINE
  5
3EB
100
AcDbEntity
  8
03__ASM_ALL_CURVES
100
AcDbLine
 62
4
  6
CONTINUOUS
 10
11.0294085923
 20
8.5750713269
 11
11.0344085923
 21
8.5817379967
  0
LINE
  5
3EC
100
AcDbEntity
  8
03__ASM_ALL_CURVES
100
AcDbLine
 62
4
  6
CONTINUOUS
 10
11.4494085923
 20
9.0574046618
 11
11.4394085923
 21
9.0440713269
  0
LINE
  5
3ED
100
AcDbEntity
  8
03__ASM_ALL_CURVES
100
AcDbLine
 62
4
  6
CONTINUOUS
 10
11.0594085923
 20
8.5217379955
 11
11.0544085923
 21
8.5150713287
  0
LINE
  5
3EE
100
AcDbEntity
  8
03__ASM_ALL_CURVES
100
AcDbLine
 62
4
  6
CONTINUOUS
 10
11.7444085923
 20
9.2630713269
 11
11.7494085923
 21
9.2697379967
  0
LINE
  5
3EF
100
AcDbEntity
  8
0
100
AcDbLine
 62
7
  6
CONTINUOUS
 10
10.2419085923
 20
7.5994046618
 11
10.1919085923
 21
7.5494046618
  0
LINE
  5
3F0
100
AcDbEntity
  8
03__ASM_ALL_CURVES
100
AcDbLine
 62
4
  6
CONTINUOUS
 10
10.4910752574
 20
8.0384046618
 11
10.4977419272
 21
8.0434046618
  0
LINE
  5
3F1
100
AcDbEntity
  8
03__ASM_ALL_CURVES
100
AcDbLine
 62
4
  6
CONTINUOUS
 10
9.2344085923
 20
7.0624046618
 11
9.2477419272
 21
7.0724046618
  0
LINE
  5
3F2
100
AcDbEntity
  8
03__ASM_ALL_CURVES
100
AcDbLine
 62
4
  6
CONTINUOUS
 10
11.0344085923
 20
8.5817379967
 11
11.0444085923
 21
8.5884046618
  0
LINE
  5
3F3
100
AcDbEntity
  8
03__ASM_ALL_CURVES
100
AcDbLine
 62
4
  6
CONTINUOUS
 10
11.7544085923
 20
9.0507379967
 11
11.7644085923
 21
9.0574046618
  0
LINE
  5
3F4
100
AcDbEntity
  8
03__ASM_ALL_CURVES
100
AcDbLine
 62
4
  6
CONTINUOUS
 10
11.8294085923
 20
9.0507379967
 11
11.8394085923
 21
9.0574046618
  0
LINE
  5
3F5
100
AcDbEntity
  8
03__ASM_ALL_CURVES
100
AcDbLine
 62
4
  6
CONTINUOUS
 10
11.0544085923
 20
8.5150713287
 11
11.0444085923
 21
8.5084046618
  0
LINE
  5
3F6
100
AcDbEntity
  8
03__ASM_ALL_CURVES
100
AcDbLine
 62
4
  6
CONTINUOUS
 10
11.7744085923
 20
8.9840713287
 11
11.7644085923
 21
8.9774046618
  0
LINE
  5
3F7
100
AcDbEntity
  8
03__ASM_ALL_CURVES
100
AcDbLine
 62
4
  6
CONTINUOUS
 10
11.8294085923
 20
9.0174046618
 11
11.8394085923
 21
9.0240713269
  0
LINE
  5
3F8
100
AcDbEntity
  8
03__ASM_ALL_CURVES
100
AcDbLine
 62
4
  6
CONTINUOUS
 10
11.8594085923
 20
9.0307379967
 11
11.8494085923
 21
9.0240713269
  0
LINE
  5
3F9
100
AcDbEntity
  8
03__ASM_ALL_CURVES
100
AcDbLine
 62
4
  6
CONTINUOUS
 10
12.2394085923
 20
9.2764046618
 11
12.2294085923
 21
9.2697379967
  0
LINE
  5
3FA
100
AcDbEntity
  8
03__ASM_ALL_CURVES
100
AcDbLine
 62
4
  6
CONTINUOUS
 10
11.8594085923
 20
8.9840713287
 11
11.8494085923
 21
8.9774046618
  0
LINE
  5
3FB
100
AcDbEntity
  8
0
100
AcDbLine
 62
7
  6
CONTINUOUS
 10
10.3062400042
 20
8.0539261296
 11
10.2984085923
 21
8.0494046618
  0
LINE
  5
3FC
100
AcDbEntity
  8
03__ASM_ALL_CURVES
100
AcDbLine
 62
4
  6
CONTINUOUS
 10
12.2394085923
 20
9.1964046618
 11
12.2294085923
 21
9.2030713287
  0
LINE
  5
3FD
100
AcDbEntity
  8
03__ASM_ALL_CURVES
100
AcDbLine
 62
4
  6
CONTINUOUS
 10
12.2294085923
 20
9.2497379967
 11
12.2594085923
 21
9.2297379943
  0
LINE
  5
3FE
100
AcDbEntity
  8
03__ASM_ALL_CURVES
100
AcDbLine
 62
4
  6
CONTINUOUS
 10
11.6969085923
 20
8.9874046621
 11
11.7044085923
 21
8.9774046618
  0
LINE
  5
3FF
100
AcDbEntity
  8
03__ASM_ALL_CURVES
100
AcDbLine
 62
4
  6
CONTINUOUS
 10
11.7544085923
 20
8.9840713287
 11
11.7494085923
 21
8.9907379955
  0
LINE
  5
400
100
AcDbEntity
  8
03__ASM_ALL_CURVES
100
AcDbLine
 62
4
  6
CONTINUOUS
 10
11.7744085923
 20
9.0507379967
 11
11.7794085923
 21
9.0440713269
  0
LINE
  5
401
100
AcDbEntity
  8
03__ASM_ALL_CURVES
100
AcDbLine
 62
4
  6
CONTINUOUS
 10
11.8294085923
 20
8.9840713287
 11
11.8194085923
 21
8.9974046618
  0
LINE
  5
402
100
AcDbEntity
  8
03__ASM_ALL_CURVES
100
AcDbLine
 62
4
  6
CONTINUOUS
 10
11.6969085923
 20
9.2064046621
 11
11.7044085923
 21
9.1964046618
  0
LINE
  5
403
100
AcDbEntity
  8
03__ASM_ALL_CURVES
100
AcDbLine
 62
4
  6
CONTINUOUS
 10
11.8294085923
 20
9.0307379967
 11
11.8244085923
 21
9.0374046618
  0
LINE
  5
404
100
AcDbEntity
  8
03__ASM_ALL_CURVES
100
AcDbLine
 62
4
  6
CONTINUOUS
 10
11.8594085923
 20
9.0174046618
 11
11.8694085923
 21
9.0040713293
  0
LINE
  5
405
100
AcDbEntity
  8
03__ASM_ALL_CURVES
100
AcDbLine
 62
4
  6
CONTINUOUS
 10
11.8594085923
 20
9.0507379967
 11
11.8644085923
 21
9.0440713269
  0
LINE
  5
406
100
AcDbEntity
  8
03__ASM_ALL_CURVES
100
AcDbLine
 62
4
  6
CONTINUOUS
 10
11.4344085923
 20
9.0107379943
 11
11.4394085923
 21
8.9907379955
  0
LINE
  5
407
100
AcDbEntity
  8
03__ASM_ALL_CURVES
100
AcDbLine
 62
4
  6
CONTINUOUS
 10
11.4344085923
 20
9.2297379943
 11
11.4394085923
 21
9.2097379955
  0
LINE
  5
408
100
AcDbEntity
  8
03__ASM_ALL_CURVES
100
AcDbLine
 62
4
  6
CONTINUOUS
 10
11.5244085923
 20
9.2764046618
 11
11.5244085923
 21
9.1964046618
  0
LINE
  5
409
100
AcDbEntity
  8
03__ASM_ALL_CURVES
100
AcDbLine
 62
4
  6
CONTINUOUS
 10
11.5244085923
 20
9.0574046618
 11
11.5244085923
 21
8.9774046618
  0
LINE
  5
40A
100
AcDbEntity
  8
03__ASM_ALL_CURVES
100
AcDbLine
 62
4
  6
CONTINUOUS
 10
11.5444085923
 20
12.2750713269
 11
11.5444085923
 21
12.2684046618
  0
LINE
  5
40B
100
AcDbEntity
  8
03__ASM_ALL_CURVES
100
AcDbLine
 62
4
  6
CONTINUOUS
 10
11.5494085923
 20
12.2350713293
 11
11.5494085923
 21
12.2284046618
  0
LINE
  5
40C
100
AcDbEntity
  8
03__ASM_ALL_CURVES
100
AcDbLine
 62
4
  6
CONTINUOUS
 10
11.6044085923
 20
9.0574046618
 11
11.6044085923
 21
8.9774046618
  0
LINE
  5
40D
100
AcDbEntity
  8
03__ASM_ALL_CURVES
100
AcDbLine
 62
4
  6
CONTINUOUS
 10
11.6169085923
 20
12.2084046618
 11
11.6169085923
 21
12.2184046621
  0
LINE
  5
40E
100
AcDbEntity
  8
03__ASM_ALL_CURVES
100
AcDbLine
 62
4
  6
CONTINUOUS
 10
11.6262593423
 20
7.2754768265
 11
11.6262593423
 21
7.2593324942
  0
LINE
  5
40F
100
AcDbEntity
  8
03__ASM_ALL_CURVES
100
AcDbLine
 62
4
  6
CONTINUOUS
 10
11.6969085923
 20
8.9774046618
 11
11.6969085923
 21
8.9874046621
  0
LINE
  5
410
100
AcDbEntity
  8
03__ASM_ALL_CURVES
100
AcDbLine
 62
4
  6
CONTINUOUS
 10
11.6969085923
 20
9.1964046618
 11
11.6969085923
 21
9.2064046621
  0
LINE
  5
411
100
AcDbEntity
  8
03__ASM_ALL_CURVES
100
AcDbLine
 62
4
  6
CONTINUOUS
 10
11.7044085923
 20
12.2617379967
 11
11.7044085923
 21
12.2350713293
  0
LINE
  5
412
100
AcDbEntity
  8
03__ASM_ALL_CURVES
100
AcDbLine
 62
4
  6
CONTINUOUS
 10
11.7394085923
 20
12.2284046618
 11
11.7394085923
 21
12.2350713293
  0
LINE
  5
413
100
AcDbEntity
  8
03__ASM_ALL_CURVES
100
AcDbLine
 62
4
  6
CONTINUOUS
 10
11.6044085923
 20
9.1964046618
 11
11.6094085923
 21
9.2297379943
  0
LINE
  5
414
100
AcDbEntity
  8
03__ASM_ALL_CURVES
100
AcDbLine
 62
4
  6
CONTINUOUS
 10
11.6094085923
 20
9.2297379943
 11
11.6144085923
 21
9.2497379967
  0
LINE
  5
415
100
AcDbEntity
  8
03__ASM_ALL_CURVES
100
AcDbLine
 62
4
  6
CONTINUOUS
 10
11.7494085923
 20
9.2164046618
 11
11.7444085923
 21
9.1964046618
  0
LINE
  5
416
100
AcDbEntity
  8
03__ASM_ALL_CURVES
100
AcDbLine
 62
4
  6
CONTINUOUS
 10
11.6144085923
 20
9.2497379967
 11
11.6244085923
 21
9.2764046618
  0
LINE
  5
417
100
AcDbEntity
  8
03__ASM_ALL_CURVES
100
AcDbLine
 62
4
  6
CONTINUOUS
 10
11.7444085923
 20
9.0307379967
 11
11.7494085923
 21
9.0440713269
  0
LINE
  5
418
100
AcDbEntity
  8
03__ASM_ALL_CURVES
100
AcDbLine
 62
4
  6
CONTINUOUS
 10
9.8550752574
 20
6.4324046618
 11
9.8617419272
 21
6.4424046618
  0
LINE
  5
419
100
AcDbEntity
  8
03__ASM_ALL_CURVES
100
AcDbLine
 62
4
  6
CONTINUOUS
 10
9.8284085923
 20
6.3474046618
 11
9.8350752574
 21
6.3574046618
  0
LINE
  5
41A
100
AcDbEntity
  8
03__ASM_ALL_CURVES
100
AcDbLine
 62
4
  6
CONTINUOUS
 10
9.9084085923
 20
6.4224046618
 11
9.9017419255
 21
6.4124046618
  0
LINE
  5
41B
100
AcDbEntity
  8
03__ASM_ALL_CURVES
100
AcDbLine
 62
4
  6
CONTINUOUS
 10
9.9084085923
 20
6.3474046618
 11
9.9017419255
 21
6.3374046618
  0
LINE
  5
41C
100
AcDbEntity
  8
03__ASM_ALL_CURVES
100
AcDbLine
 62
4
  6
CONTINUOUS
 10
9.8284085923
 20
6.1874046618
 11
9.8350752574
 21
6.1974046618
  0
LINE
  5
41D
100
AcDbEntity
  8
03__ASM_ALL_CURVES
100
AcDbLine
 62
4
  6
CONTINUOUS
 10
9.9084085923
 20
6.1874046618
 11
9.9017419255
 21
6.1774046618
  0
LINE
  5
41E
100
AcDbEntity
  8
03__ASM_ALL_CURVES
100
AcDbLine
 62
4
  6
CONTINUOUS
 10
11.7594085923
 20
9.2297379943
 11
11.7494085923
 21
9.2164046618
  0
LINE
  5
41F
100
AcDbEntity
  8
03__ASM_ALL_CURVES
100
AcDbLine
 62
4
  6
CONTINUOUS
 10
11.7844085923
 20
9.2497379967
 11
11.7794085923
 21
9.2430713269
  0
LINE
  5
420
100
AcDbEntity
  8
03__ASM_ALL_CURVES
100
AcDbLine
 62
4
  6
CONTINUOUS
 10
11.7494085923
 20
9.0440713269
 11
11.7544085923
 21
9.0507379967
  0
LINE
  5
421
100
AcDbEntity
  8
03__ASM_ALL_CURVES
100
AcDbLine
 62
4
  6
CONTINUOUS
 10
11.9294085923
 20
9.2097379955
 11
11.9194085923
 21
9.1964046618
  0
LINE
  5
422
100
AcDbEntity
  8
03__ASM_ALL_CURVES
100
AcDbLine
 62
4
  6
CONTINUOUS
 10
11.7794085923
 20
8.9907379955
 11
11.7744085923
 21
8.9840713287
  0
LINE
  5
423
100
AcDbEntity
  8
03__ASM_ALL_CURVES
100
AcDbLine
 62
4
  6
CONTINUOUS
 10
11.8244085923
 20
9.0440713269
 11
11.8294085923
 21
9.0507379967
  0
LINE
  5
424
100
AcDbEntity
  8
03__ASM_ALL_CURVES
100
AcDbLine
 62
4
  6
CONTINUOUS
 10
11.8194085923
 20
9.0040713293
 11
11.8294085923
 21
9.0174046618
  0
LINE
  5
425
100
AcDbEntity
  8
03__ASM_ALL_CURVES
100
AcDbLine
 62
4
  6
CONTINUOUS
 10
11.8644085923
 20
9.0374046618
 11
11.8594085923
 21
9.0307379967
  0
LINE
  5
426
100
AcDbEntity
  8
03__ASM_ALL_CURVES
100
AcDbLine
 62
4
  6
CONTINUOUS
 10
11.8694085923
 20
8.9974046618
 11
11.8594085923
 21
8.9840713287
  0
LINE
  5
427
100
AcDbEntity
  8
0
100
AcDbLine
 62
7
  6
CONTINUOUS
 10
10.0529085923
 20
7.2984046618
 11
10.0219085923
 21
7.2674046618
  0
LINE
  5
428
100
AcDbEntity
  8
03__ASM_ALL_CURVES
100
AcDbLine
 62
4
  6
CONTINUOUS
 10
10.5577419255
 20
8.0184046618
 11
10.5510752586
 21
8.0134046618
  0
LINE
  5
429
100
AcDbEntity
  8
03__ASM_ALL_CURVES
100
AcDbLine
 62
4
  6
CONTINUOUS
 10
9.2677419272
 20
7.0024046618
 11
9.2744085923
 21
7.0074046618
  0
LINE
  5
42A
100
AcDbEntity
  8
03__ASM_ALL_CURVES
100
AcDbLine
 62
4
  6
CONTINUOUS
 10
9.3077419255
 20
6.9724046618
 11
9.3010752586
 21
6.9674046618
  0
LINE
  5
42B
100
AcDbEntity
  8
03__ASM_ALL_CURVES
100
AcDbLine
 62
4
  6
CONTINUOUS
 10
9.304408592
 20
6.8399046618
 11
9.3144085923
 21
6.8474046618
  0
LINE
  5
42C
100
AcDbEntity
  8
03__ASM_ALL_CURVES
100
AcDbLine
 62
4
  6
CONTINUOUS
 10
12.2594085923
 20
9.2030713287
 11
12.2494085923
 21
9.1964046618
  0
LINE
  5
42D
100
AcDbEntity
  8
0
100
AcDbLine
 62
7
  6
CONTINUOUS
 10
9.5874085923
 20
7.5494046618
 11
9.5439085923
 21
7.5242899251
  0
LINE
  5
42E
100
AcDbEntity
  8
03__ASM_ALL_CURVES
100
AcDbLine
 62
4
  6
CONTINUOUS
 10
10.4977419272
 20
8.0434046618
 11
10.5110752574
 21
8.0484046618
  0
LINE
  5
42F
100
AcDbEntity
  8
03__ASM_ALL_CURVES
100
AcDbLine
 62
4
  6
CONTINUOUS
 10
10.5510752586
 20
8.0134046618
 11
10.5377419249
 21
8.0084046618
  0
LINE
  5
430
100
AcDbEntity
  8
03__ASM_ALL_CURVES
100
AcDbLine
 62
4
  6
CONTINUOUS
 10
12.2594085923
 20
9.2697379967
 11
12.2494085923
 21
9.2764046618
  0
LINE
  5
431
100
AcDbEntity
  8
03__ASM_ALL_CURVES
100
AcDbLine
 62
4
  6
CONTINUOUS
 10
11.9194085923
 20
9.0574046618
 11
11.9294085923
 21
9.0440713269
  0
LINE
  5
432
100
AcDbEntity
  8
03__ASM_ALL_CURVES
100
AcDbLine
 62
4
  6
CONTINUOUS
 10
11.7794085923
 20
9.2697379967
 11
11.7844085923
 21
9.2630713269
  0
LINE
  5
433
100
AcDbEntity
  8
03__ASM_ALL_CURVES
100
AcDbLine
 62
4
  6
CONTINUOUS
 10
11.9194085923
 20
9.2764046618
 11
11.9294085923
 21
9.2630713269
  0
LINE
  5
434
100
AcDbEntity
  8
03__ASM_ALL_CURVES
100
AcDbLine
 62
4
  6
CONTINUOUS
 10
11.7494085923
 20
8.9907379955
 11
11.7444085923
 21
9.0040713293
  0
LINE
  5
435
100
AcDbEntity
  8
03__ASM_ALL_CURVES
100
AcDbLine
 62
4
  6
CONTINUOUS
 10
11.7794085923
 20
9.0174046618
 11
11.7844085923
 21
9.0040713293
  0
LINE
  5
436
100
AcDbEntity
  8
03__ASM_ALL_CURVES
100
AcDbLine
 62
4
  6
CONTINUOUS
 10
12.2256177173
 20
7.2996933265
 11
12.2316718423
 21
7.2754768265
  0
LINE
  5
437
100
AcDbEntity
  8
03__ASM_ALL_CURVES
100
AcDbLine
 62
4
  6
CONTINUOUS
 10
11.7444085923
 20
9.0040713293
 11
11.7444085923
 21
9.0307379967
  0
LINE
  5
438
100
AcDbEntity
  8
03__ASM_ALL_CURVES
100
AcDbLine
 62
4
  6
CONTINUOUS
 10
11.7444085923
 20
12.2684046618
 11
11.7444085923
 21
12.2750713269
  0
LINE
  5
439
100
AcDbEntity
  8
03__ASM_ALL_CURVES
100
AcDbLine
 62
4
  6
CONTINUOUS
 10
11.7594500923
 20
7.2996933265
 11
11.7594500923
 21
7.2916211618
  0
LINE
  5
43A
100
AcDbEntity
  8
03__ASM_ALL_CURVES
100
AcDbLine
 62
4
  6
CONTINUOUS
 10
11.7655042173
 20
7.2512603294
 11
11.7655042173
 21
7.2431881618
  0
LINE
  5
43B
100
AcDbEntity
  8
03__ASM_ALL_CURVES
100
AcDbLine
 62
4
  6
CONTINUOUS
 10
11.7844085923
 20
12.2750713269
 11
11.7844085923
 21
12.2684046618
  0
LINE
  5
43C
100
AcDbEntity
  8
03__ASM_ALL_CURVES
100
AcDbLine
 62
4
  6
CONTINUOUS
 10
11.7844085923
 20
9.2630713269
 11
11.7844085923
 21
9.2497379967
  0
LINE
  5
43D
100
AcDbEntity
  8
03__ASM_ALL_CURVES
100
AcDbLine
 62
4
  6
CONTINUOUS
 10
11.7894085923
 20
12.2350713293
 11
11.7894085923
 21
12.2284046618
  0
LINE
  5
43E
100
AcDbEntity
  8
03__ASM_ALL_CURVES
100
AcDbLine
 62
4
  6
CONTINUOUS
 10
11.8194085923
 20
8.9974046618
 11
11.8194085923
 21
9.0040713293
  0
LINE
  5
43F
100
AcDbEntity
  8
03__ASM_ALL_CURVES
100
AcDbLine
 62
4
  6
CONTINUOUS
 10
11.8244085923
 20
9.0374046618
 11
11.8244085923
 21
9.0440713269
  0
LINE
  5
440
100
AcDbEntity
  8
03__ASM_ALL_CURVES
100
AcDbLine
 62
4
  6
CONTINUOUS
 10
11.8544085923
 20
12.2550713269
 11
11.8544085923
 21
12.2417379943
  0
LINE
  5
441
100
AcDbEntity
  8
03__ASM_ALL_CURVES
100
AcDbLine
 62
4
  6
CONTINUOUS
 10
11.8563160923
 20
7.2996933265
 11
11.8563160923
 21
7.283548997
  0
LINE
  5
442
100
AcDbEntity
  8
03__ASM_ALL_CURVES
100
AcDbLine
 62
4
  6
CONTINUOUS
 10
11.8644085923
 20
9.0440713269
 11
11.8644085923
 21
9.0374046618
  0
LINE
  5
443
100
AcDbEntity
  8
03__ASM_ALL_CURVES
100
AcDbLine
 62
4
  6
CONTINUOUS
 10
11.8694085923
 20
9.0040713293
 11
11.8694085923
 21
8.9974046618
  0
LINE
  5
444
100
AcDbEntity
  8
03__ASM_ALL_CURVES
100
AcDbLine
 62
4
  6
CONTINUOUS
 10
11.9344085923
 20
9.2430713269
 11
11.9344085923
 21
9.2297379943
  0
LINE
  5
445
100
AcDbEntity
  8
03__ASM_ALL_CURVES
100
AcDbLine
 62
4
  6
CONTINUOUS
 10
11.9344085923
 20
9.0240713269
 11
11.9344085923
 21
9.0107379943
  0
LINE
  5
446
100
AcDbEntity
  8
03__ASM_ALL_CURVES
100
AcDbLine
 62
4
  6
CONTINUOUS
 10
11.9441009048
 20
7.2189716618
 11
11.9441009048
 21
7.2310799122
  0
LINE
  5
447
100
AcDbEntity
  8
03__ASM_ALL_CURVES
100
AcDbLine
 62
4
  6
CONTINUOUS
 10
11.8444085923
 20
9.1964046618
 11
11.8494085923
 21
9.2297379943
  0
LINE
  5
448
100
AcDbEntity
  8
03__ASM_ALL_CURVES
100
AcDbLine
 62
4
  6
CONTINUOUS
 10
11.3296072173
 20
7.2431881618
 11
11.3235530923
 21
7.2189716618
  0
LINE
  5
449
100
AcDbEntity
  8
03__ASM_ALL_CURVES
100
AcDbLine
 62
4
  6
CONTINUOUS
 10
11.8494085923
 20
9.2297379943
 11
11.8544085923
 21
9.2497379967
  0
LINE
  5
44A
100
AcDbEntity
  8
03__ASM_ALL_CURVES
100
AcDbLine
 62
4
  6
CONTINUOUS
 10
11.9344085923
 20
9.2297379943
 11
11.9294085923
 21
9.2097379955
  0
LINE
  5
44B
100
AcDbEntity
  8
03__ASM_ALL_CURVES
100
AcDbLine
 62
4
  6
CONTINUOUS
 10
11.9344085923
 20
9.0107379943
 11
11.9294085923
 21
8.9907379955
  0
LINE
  5
44C
100
AcDbEntity
  8
03__ASM_ALL_CURVES
100
AcDbLine
 62
4
  6
CONTINUOUS
 10
11.7444085923
 20
9.0040713293
 11
11.7494085923
 21
9.0174046618
  0
LINE
  5
44D
100
AcDbEntity
  8
03__ASM_ALL_CURVES
100
AcDbLine
 62
4
  6
CONTINUOUS
 10
11.8544085923
 20
9.2497379967
 11
11.8644085923
 21
9.2764046618
  0
LINE
  5
44E
100
AcDbEntity
  8
03__ASM_ALL_CURVES
100
AcDbLine
 62
4
  6
CONTINUOUS
 10
11.7844085923
 20
9.0040713293
 11
11.7794085923
 21
8.9907379955
  0
LINE
  5
44F
100
AcDbEntity
  8
03__ASM_ALL_CURVES
100
AcDbLine
 62
4
  6
CONTINUOUS
 10
12.0894085923
 20
9.2764046618
 11
12.0794085923
 21
9.2630713269
  0
LINE
  5
450
100
AcDbEntity
  8
03__ASM_ALL_CURVES
100
AcDbLine
 62
4
  6
CONTINUOUS
 10
11.9294085923
 20
8.9907379955
 11
11.9194085923
 21
8.9774046618
  0
LINE
  5
451
100
AcDbEntity
  8
03__ASM_ALL_CURVES
100
AcDbLine
 62
4
  6
CONTINUOUS
 10
12.2294085923
 20
9.2697379967
 11
12.2244085923
 21
9.2630713269
  0
LINE
  5
452
100
AcDbEntity
  8
03__ASM_ALL_CURVES
100
AcDbLine
 62
4
  6
CONTINUOUS
 10
12.2644085923
 20
9.2097379955
 11
12.2594085923
 21
9.2030713287
  0
LINE
  5
453
100
AcDbEntity
  8
03__ASM_ALL_CURVES
100
AcDbLine
 62
4
  6
CONTINUOUS
 10
9.2410752574
 20
6.6824046618
 11
9.2477419272
 21
6.6874046618
  0
LINE
  5
454
100
AcDbEntity
  8
03__ASM_ALL_CURVES
100
AcDbLine
 62
4
  6
CONTINUOUS
 10
9.2744085923
 20
6.6824046618
 11
9.2877419249
 21
6.6924046618
  0
LINE
  5
455
100
AcDbEntity
  8
03__ASM_ALL_CURVES
100
AcDbLine
 62
4
  6
CONTINUOUS
 10
9.8284085923
 20
7.0624046618
 11
9.8417419272
 21
7.0724046618
  0
LINE
  5
456
100
AcDbEntity
  8
03__ASM_ALL_CURVES
100
AcDbLine
 62
4
  6
CONTINUOUS
 10
9.3077419255
 20
6.6524046618
 11
9.3010752586
 21
6.6474046618
  0
LINE
  5
457
100
AcDbEntity
  8
03__ASM_ALL_CURVES
100
AcDbLine
 62
4
  6
CONTINUOUS
 10
9.8350752574
 20
6.9974046618
 11
9.8417419272
 21
7.0024046618
  0
LINE
  5
458
100
AcDbEntity
  8
03__ASM_ALL_CURVES
100
AcDbLine
 62
4
  6
CONTINUOUS
 10
9.3010752586
 20
6.5824046618
 11
9.3144085923
 21
6.5924046618
  0
LINE
  5
459
100
AcDbEntity
  8
03__ASM_ALL_CURVES
100
AcDbLine
 62
4
  6
CONTINUOUS
 10
9.9017419255
 20
6.9774046618
 11
9.8950752586
 21
6.9724046618
  0
LINE
  5
45A
100
AcDbEntity
  8
03__ASM_ALL_CURVES
100
AcDbLine
 62
4
  6
CONTINUOUS
 10
9.8617419272
 20
6.9224046618
 11
9.8684085923
 21
6.9274046618
  0
LINE
  5
45B
100
AcDbEntity
  8
03__ASM_ALL_CURVES
100
AcDbLine
 62
4
  6
CONTINUOUS
 10
12.0794085923
 20
9.2097379955
 11
12.0894085923
 21
9.1964046618
  0
LINE
  5
45C
100
AcDbEntity
  8
03__ASM_ALL_CURVES
100
AcDbLine
 62
4
  6
CONTINUOUS
 10
12.2294085923
 20
9.2030713287
 11
12.2194085923
 21
9.2164046618
  0
LINE
  5
45D
100
AcDbEntity
  8
03__ASM_ALL_CURVES
100
AcDbLine
 62
4
  6
CONTINUOUS
 10
12.2244085923
 20
9.2564046618
 11
12.2294085923
 21
9.2497379967
  0
LINE
  5
45E
100
AcDbEntity
  8
03__ASM_ALL_CURVES
100
AcDbLine
 62
4
  6
CONTINUOUS
 10
12.2594085923
 20
9.2297379943
 11
12.2644085923
 21
9.2230713293
  0
LINE
  5
45F
100
AcDbEntity
  8
03__ASM_ALL_CURVES
100
AcDbLine
 62
4
  6
CONTINUOUS
 10
12.2644085923
 20
9.2630713269
 11
12.2594085923
 21
9.2697379967
  0
LINE
  5
460
100
AcDbEntity
  8
03__ASM_ALL_CURVES
100
AcDbLine
 62
4
  6
CONTINUOUS
 10
11.9294085923
 20
9.0440713269
 11
11.9344085923
 21
9.0240713269
  0
LINE
  5
461
100
AcDbEntity
  8
03__ASM_ALL_CURVES
100
AcDbLine
 62
4
  6
CONTINUOUS
 10
11.9294085923
 20
9.2630713269
 11
11.9344085923
 21
9.2430713269
  0
LINE
  5
462
100
AcDbEntity
  8
03__ASM_ALL_CURVES
100
AcDbLine
 62
4
  6
CONTINUOUS
 10
12.0744085923
 20
9.2430713269
 11
12.0744085923
 21
9.2297379943
  0
LINE
  5
463
100
AcDbEntity
  8
03__ASM_ALL_CURVES
100
AcDbLine
 62
4
  6
CONTINUOUS
 10
12.1226975923
 20
7.3158376618
 11
12.1226975923
 21
7.2189716618
  0
LINE
  5
464
100
AcDbEntity
  8
03__ASM_ALL_CURVES
100
AcDbLine
 62
4
  6
CONTINUOUS
 10
12.1444085923
 20
9.2764046618
 11
12.1444085923
 21
9.1964046618
  0
LINE
  5
465
100
AcDbEntity
  8
03__ASM_ALL_CURVES
100
AcDbLine
 62
4
  6
CONTINUOUS
 10
12.0794085923
 20
9.2630713269
 11
12.0744085923
 21
9.2430713269
  0
LINE
  5
466
100
AcDbEntity
  8
03__ASM_ALL_CURVES
100
AcDbLine
 62
4
  6
CONTINUOUS
 10
11.6323134673
 20
7.2996933265
 11
11.6262593423
 21
7.2754768265
  0
LINE
  5
467
100
AcDbEntity
  8
03__ASM_ALL_CURVES
100
AcDbLine
 62
4
  6
CONTINUOUS
 10
12.3294085923
 20
9.2097379955
 11
12.3194085923
 21
9.1964046618
  0
LINE
  5
468
100
AcDbEntity
  8
03__ASM_ALL_CURVES
100
AcDbLine
 62
4
  6
CONTINUOUS
 10
9.2677419272
 20
6.4424046618
 11
9.2744085923
 21
6.4474046618
  0
LINE
  5
469
100
AcDbEntity
  8
03__ASM_ALL_CURVES
100
AcDbLine
 62
4
  6
CONTINUOUS
 10
9.9017419255
 20
6.8924046618
 11
9.8950752586
 21
6.8874046618
  0
LINE
  5
46A
100
AcDbEntity
  8
03__ASM_ALL_CURVES
100
AcDbLine
 62
4
  6
CONTINUOUS
 10
9.3077419255
 20
6.4124046618
 11
9.3010752586
 21
6.4074046618
  0
LINE
  5
46B
100
AcDbEntity
  8
03__ASM_ALL_CURVES
100
AcDbLine
 62
4
  6
CONTINUOUS
 10
9.2410752574
 20
6.3624046618
 11
9.2477419272
 21
6.3674046618
  0
LINE
  5
46C
100
AcDbEntity
  8
03__ASM_ALL_CURVES
100
AcDbLine
 62
4
  6
CONTINUOUS
 10
9.898408592
 20
6.8399046618
 11
9.9084085923
 21
6.8474046618
  0
LINE
  5
46D
100
AcDbEntity
  8
03__ASM_ALL_CURVES
100
AcDbLine
 62
4
  6
CONTINUOUS
 10
9.8350752574
 20
6.7574046618
 11
9.8417419272
 21
6.7624046618
  0
LINE
  5
46E
100
AcDbEntity
  8
03__ASM_ALL_CURVES
100
AcDbLine
 62
4
  6
CONTINUOUS
 10
9.9017419255
 20
6.7374046618
 11
9.8950752586
 21
6.7324046618
  0
LINE
  5
46F
100
AcDbEntity
  8
03__ASM_ALL_CURVES
100
AcDbLine
 62
4
  6
CONTINUOUS
 10
9.304408592
 20
6.2799046618
 11
9.3144085923
 21
6.2874046618
  0
LINE
  5
470
100
AcDbEntity
  8
0
100
AcDbLine
 62
7
  6
CONTINUOUS
 10
10.1494085923
 20
7.3304046618
 11
10.1929085923
 21
7.3555193985
  0
LINE
  5
471
100
AcDbEntity
  8
03__ASM_ALL_CURVES
100
AcDbLine
 62
4
  6
CONTINUOUS
 10
9.2744085923
 20
7.0074046618
 11
9.2877419249
 21
7.0124046618
  0
LINE
  5
472
100
AcDbEntity
  8
03__ASM_ALL_CURVES
100
AcDbLine
 62
4
  6
CONTINUOUS
 10
12.3194085923
 20
9.2764046618
 11
12.3294085923
 21
9.2630713269
  0
LINE
  5
473
100
AcDbEntity
  8
03__ASM_ALL_CURVES
100
AcDbLine
 62
4
  6
CONTINUOUS
 10
12.0744085923
 20
9.2297379943
 11
12.0794085923
 21
9.2097379955
  0
LINE
  5
474
100
AcDbEntity
  8
03__ASM_ALL_CURVES
100
AcDbLine
 62
4
  6
CONTINUOUS
 10
11.3544085923
 20
12.2417379943
 11
11.3594085923
 21
12.2217379955
  0
LINE
  5
475
100
AcDbEntity
  8
03__ASM_ALL_CURVES
100
AcDbLine
 62
4
  6
CONTINUOUS
 10
12.2244085923
 20
9.2630713269
 11
12.2244085923
 21
9.2564046618
  0
LINE
  5
476
100
AcDbEntity
  8
03__ASM_ALL_CURVES
100
AcDbLine
 62
4
  6
CONTINUOUS
 10
12.2316718423
 20
7.2754768265
 11
12.2316718423
 21
7.2593324942
  0
LINE
  5
477
100
AcDbEntity
  8
03__ASM_ALL_CURVES
100
AcDbLine
 62
4
  6
CONTINUOUS
 10
12.2644085923
 20
9.2230713293
 11
12.2644085923
 21
9.2097379955
  0
LINE
  5
478
100
AcDbEntity
  8
03__ASM_ALL_CURVES
100
AcDbLine
 62
4
  6
CONTINUOUS
 10
12.3344085923
 20
9.2430713269
 11
12.3344085923
 21
9.2297379943
  0
LINE
  5
479
100
AcDbEntity
  8
03__ASM_ALL_CURVES
100
AcDbLine
 62
4
  6
CONTINUOUS
 10
12.0137233423
 20
7.3158376618
 11
12.0076692173
 21
7.2754768265
  0
LINE
  5
47A
100
AcDbEntity
  8
03__ASM_ALL_CURVES
100
AcDbLine
 62
4
  6
CONTINUOUS
 10
11.8139372173
 20
7.2431881618
 11
11.8078830923
 21
7.2189716618
  0
LINE
  5
47B
100
AcDbEntity
  8
03__ASM_ALL_CURVES
100
AcDbLine
 62
4
  6
CONTINUOUS
 10
12.3344085923
 20
9.2297379943
 11
12.3294085923
 21
9.2097379955
  0
LINE
  5
47C
100
AcDbEntity
  8
03__ASM_ALL_CURVES
100
AcDbLine
 62
4
  6
CONTINUOUS
 10
11.3235530923
 20
7.2996933265
 11
11.3296072173
 21
7.307765497
  0
LINE
  5
47D
100
AcDbEntity
  8
03__ASM_ALL_CURVES
100
AcDbLine
 62
4
  6
CONTINUOUS
 10
11.3417154673
 20
7.2593324942
 11
11.3296072173
 21
7.2431881618
  0
LINE
  5
47E
100
AcDbEntity
  8
03__ASM_ALL_CURVES
100
AcDbLine
 62
4
  6
CONTINUOUS
 10
11.3719860923
 20
7.283548997
 11
11.3659319673
 21
7.2754768265
  0
LINE
  5
47F
100
AcDbEntity
  8
03__ASM_ALL_CURVES
100
AcDbLine
 62
4
  6
CONTINUOUS
 10
11.4204190923
 20
7.2996933265
 11
11.4264732173
 21
7.307765497
  0
LINE
  5
480
100
AcDbEntity
  8
03__ASM_ALL_CURVES
100
AcDbLine
 62
4
  6
CONTINUOUS
 10
11.4143649673
 20
7.2512603294
 11
11.4264732173
 21
7.2674046618
  0
LINE
  5
481
100
AcDbEntity
  8
03__ASM_ALL_CURVES
100
AcDbLine
 62
4
  6
CONTINUOUS
 10
11.4688520923
 20
7.2916211618
 11
11.4627979673
 21
7.283548997
  0
LINE
  5
482
100
AcDbEntity
  8
03__ASM_ALL_CURVES
100
AcDbLine
 62
4
  6
CONTINUOUS
 10
9.8950752586
 20
6.5824046618
 11
9.9084085923
 21
6.5924046618
  0
LINE
  5
483
100
AcDbEntity
  8
03__ASM_ALL_CURVES
100
AcDbLine
 62
4
  6
CONTINUOUS
 10
9.8617419272
 20
6.4424046618
 11
9.8684085923
 21
6.4474046618
  0
LINE
  5
484
100
AcDbEntity
  8
03__ASM_ALL_CURVES
100
AcDbLine
 62
4
  6
CONTINUOUS
 10
9.9017419255
 20
6.4124046618
 11
9.8950752586
 21
6.4074046618
  0
LINE
  5
485
100
AcDbEntity
  8
03__ASM_ALL_CURVES
100
AcDbLine
 62
4
  6
CONTINUOUS
 10
9.8350752574
 20
6.3574046618
 11
9.8417419272
 21
6.3624046618
  0
LINE
  5
486
100
AcDbEntity
  8
03__ASM_ALL_CURVES
100
AcDbLine
 62
4
  6
CONTINUOUS
 10
9.8417419272
 20
7.0024046618
 11
9.8550752574
 21
7.0074046618
  0
LINE
  5
487
100
AcDbEntity
  8
03__ASM_ALL_CURVES
100
AcDbLine
 62
4
  6
CONTINUOUS
 10
9.8950752586
 20
6.9724046618
 11
9.8817419249
 21
6.9674046618
  0
LINE
  5
488
100
AcDbEntity
  8
03__ASM_ALL_CURVES
100
AcDbLine
 62
4
  6
CONTINUOUS
 10
9.8684085923
 20
6.9274046618
 11
9.8817419249
 21
6.9324046618
  0
LINE
  5
489
100
AcDbEntity
  8
0
100
AcDbLine
 62
7
  6
CONTINUOUS
 10
10.5244085923
 20
10.9278086574
 11
10.5925197946
 21
10.9278086574
  0
LINE
  5
48A
100
AcDbEntity
  8
0
100
AcDbLine
 62
7
  6
CONTINUOUS
 10
9.2744085923
 20
11.0424046618
 11
9.2224085923
 21
11.0424046618
  0
LINE
  5
48B
100
AcDbEntity
  8
0
100
AcDbLine
 62
7
  6
CONTINUOUS
 10
8.7354085923
 20
11.1474046618
 11
9.2224085923
 21
11.1474046618
  0
LINE
  5
48C
100
AcDbEntity
  8
03__ASM_ALL_CURVES
100
AcDbLine
 62
4
  6
CONTINUOUS
 10
11.4294085923
 20
12.2484046618
 11
11.4244085923
 21
12.2617379967
  0
LINE
  5
48D
100
AcDbEntity
  8
03__ASM_ALL_CURVES
100
AcDbLine
 62
4
  6
CONTINUOUS
 10
12.3294085923
 20
9.2630713269
 11
12.3344085923
 21
9.2430713269
  0
LINE
  5
48E
100
AcDbEntity
  8
03__ASM_ALL_CURVES
100
AcDbLine
 62
4
  6
CONTINUOUS
 10
12.2316718423
 20
7.2593324942
 11
12.2256177173
 21
7.2351159956
  0
LINE
  5
48F
100
AcDbEntity
  8
03__ASM_ALL_CURVES
100
AcDbLine
 62
4
  6
CONTINUOUS
 10
12.0561022173
 20
7.2512603294
 11
12.0500480923
 21
7.2351159956
  0
LINE
  5
490
100
AcDbEntity
  8
03__ASM_ALL_CURVES
100
AcDbLine
 62
4
  6
CONTINUOUS
 10
11.4749062173
 20
7.2431881618
 11
11.4627979673
 21
7.2270438287
  0
LINE
  5
491
100
AcDbEntity
  8
03__ASM_ALL_CURVES
100
AcDbLine
 62
4
  6
CONTINUOUS
 10
11.6444217173
 20
7.3158376618
 11
11.6323134673
 21
7.2996933265
  0
LINE
  5
492
100
AcDbEntity
  8
03__ASM_ALL_CURVES
100
AcDbLine
 62
4
  6
CONTINUOUS
 10
11.7594500923
 20
7.2916211618
 11
11.7533959673
 21
7.283548997
  0
LINE
  5
493
100
AcDbEntity
  8
03__ASM_ALL_CURVES
100
AcDbLine
 62
4
  6
CONTINUOUS
 10
9.9017419255
 20
6.3374046618
 11
9.8950752586
 21
6.3324046618
  0
LINE
  5
494
100
AcDbEntity
  8
03__ASM_ALL_CURVES
100
AcDbLine
 62
4
  6
CONTINUOUS
 10
9.898408592
 20
6.2799046618
 11
9.9084085923
 21
6.2874046618
  0
LINE
  5
495
100
AcDbEntity
  8
03__ASM_ALL_CURVES
100
AcDbLine
 62
4
  6
CONTINUOUS
 10
9.8350752574
 20
6.1974046618
 11
9.8417419272
 21
6.2024046618
  0
LINE
  5
496
100
AcDbEntity
  8
03__ASM_ALL_CURVES
100
AcDbLine
 62
4
  6
CONTINUOUS
 10
9.9017419255
 20
6.1774046618
 11
9.8950752586
 21
6.1724046618
  0
LINE
  5
497
100
AcDbEntity
  8
03__ASM_ALL_CURVES
100
AcDbLine
 62
4
  6
CONTINUOUS
 10
11.3296072173
 20
7.307765497
 11
11.3417154673
 21
7.3158376618
  0
LINE
  5
498
100
AcDbEntity
  8
03__ASM_ALL_CURVES
100
AcDbLine
 62
4
  6
CONTINUOUS
 10
11.3659319673
 20
7.2754768265
 11
11.3417154673
 21
7.2593324942
  0
LINE
  5
499
100
AcDbEntity
  8
03__ASM_ALL_CURVES
100
AcDbLine
 62
4
  6
CONTINUOUS
 10
11.4264732173
 20
7.307765497
 11
11.4385814673
 21
7.3158376618
  0
LINE
  5
49A
100
AcDbEntity
  8
03__ASM_ALL_CURVES
100
AcDbLine
 62
4
  6
CONTINUOUS
 10
11.4264732173
 20
7.2674046618
 11
11.4385814673
 21
7.2754768265
  0
LINE
  5
49B
100
AcDbEntity
  8
03__ASM_ALL_CURVES
100
AcDbLine
 62
4
  6
CONTINUOUS
 10
11.4627979673
 20
7.283548997
 11
11.4506897173
 21
7.2754768265
  0
LINE
  5
49C
100
AcDbEntity
  8
03__ASM_ALL_CURVES
100
AcDbLine
 62
4
  6
CONTINUOUS
 10
9.8684085923
 20
6.7624046618
 11
9.8817419249
 21
6.7674046618
  0
LINE
  5
49D
100
AcDbEntity
  8
03__ASM_ALL_CURVES
100
AcDbLine
 62
4
  6
CONTINUOUS
 10
9.8950752586
 20
6.7324046618
 11
9.8817419249
 21
6.7274046618
  0
LINE
  5
49E
100
AcDbEntity
  8
0
100
AcDbLine
 62
7
  6
CONTINUOUS
 10
10.5244085923
 20
11.2006066596
 11
10.5925197946
 21
11.2006066596
  0
LINE
  5
49F
100
AcDbEntity
  8
03__ASM_ALL_CURVES
100
AcDbLine
 62
4
  6
CONTINUOUS
 10
11.4594085923
 20
12.2750713269
 11
11.4644085923
 21
12.2617379967
  0
LINE
  5
4A0
100
AcDbEntity
  8
03__ASM_ALL_CURVES
100
AcDbLine
 62
4
  6
CONTINUOUS
 10
11.6694085923
 20
12.2484046618
 11
11.6644085923
 21
12.2617379967
  0
LINE
  5
4A1
100
AcDbEntity
  8
03__ASM_ALL_CURVES
100
AcDbLine
 62
4
  6
CONTINUOUS
 10
11.8494085923
 20
12.2750713269
 11
11.8544085923
 21
12.2550713269
  0
LINE
  5
4A2
100
AcDbEntity
  8
03__ASM_ALL_CURVES
100
AcDbLine
 62
4
  6
CONTINUOUS
 10
11.8078830923
 20
7.2996933265
 11
11.8139372173
 21
7.307765497
  0
LINE
  5
4A3
100
AcDbEntity
  8
03__ASM_ALL_CURVES
100
AcDbLine
 62
4
  6
CONTINUOUS
 10
11.7655042173
 20
7.2431881618
 11
11.7533959673
 21
7.2270438287
  0
LINE
  5
4A4
100
AcDbEntity
  8
03__ASM_ALL_CURVES
100
AcDbLine
 62
4
  6
CONTINUOUS
 10
11.8260454673
 20
7.2593324942
 11
11.8139372173
 21
7.2431881618
  0
LINE
  5
4A5
100
AcDbEntity
  8
03__ASM_ALL_CURVES
100
AcDbLine
 62
4
  6
CONTINUOUS
 10
11.8563160923
 20
7.283548997
 11
11.8502619673
 21
7.2754768265
  0
LINE
  5
4A6
100
AcDbEntity
  8
03__ASM_ALL_CURVES
100
AcDbLine
 62
4
  6
CONTINUOUS
 10
11.4627979673
 20
7.2270438287
 11
11.4506897173
 21
7.2189716618
  0
LINE
  5
4A7
100
AcDbEntity
  8
03__ASM_ALL_CURVES
100
AcDbLine
 62
4
  6
CONTINUOUS
 10
11.7170712173
 20
7.307765497
 11
11.7291794673
 21
7.3158376618
  0
LINE
  5
4A8
100
AcDbEntity
  8
03__ASM_ALL_CURVES
100
AcDbLine
 62
4
  6
CONTINUOUS
 10
11.7533959673
 20
7.283548997
 11
11.7412877173
 21
7.2754768265
  0
LINE
  5
4A9
100
AcDbEntity
  8
03__ASM_ALL_CURVES
100
AcDbLine
 62
4
  6
CONTINUOUS
 10
11.8139372173
 20
7.307765497
 11
11.8260454673
 21
7.3158376618
  0
LINE
  5
4AA
100
AcDbEntity
  8
03__ASM_ALL_CURVES
100
AcDbLine
 62
4
  6
CONTINUOUS
 10
11.7533959673
 20
7.2270438287
 11
11.7412877173
 21
7.2189716618
  0
LINE
  5
4AB
100
AcDbEntity
  8
03__ASM_ALL_CURVES
100
AcDbLine
 62
4
  6
CONTINUOUS
 10
11.8502619673
 20
7.2754768265
 11
11.8260454673
 21
7.2593324942
  0
LINE
  5
4AC
100
AcDbEntity
  8
03__ASM_ALL_CURVES
100
AcDbLine
 62
4
  6
CONTINUOUS
 10
9.2744085923
 20
6.4474046618
 11
9.2877419249
 21
6.4524046618
  0
LINE
  5
4AD
100
AcDbEntity
  8
03__ASM_ALL_CURVES
100
AcDbLine
 62
4
  6
CONTINUOUS
 10
9.8684085923
 20
6.4474046618
 11
9.8817419249
 21
6.4524046618
  0
LINE
  5
4AE
100
AcDbEntity
  8
03__ASM_ALL_CURVES
100
AcDbLine
 62
4
  6
CONTINUOUS
 10
11.0294085923
 20
12.2150713287
 11
11.0244085923
 21
12.2217379955
  0
LINE
  5
4AF
100
AcDbEntity
  8
03__ASM_ALL_CURVES
100
AcDbLine
 62
4
  6
CONTINUOUS
 10
11.0594085923
 20
12.2484046618
 11
11.0694085923
 21
12.2350713293
  0
LINE
  5
4B0
100
AcDbEntity
  8
03__ASM_ALL_CURVES
100
AcDbLine
 62
4
  6
CONTINUOUS
 10
11.0594085923
 20
12.2817379967
 11
11.0644085923
 21
12.2750713269
  0
LINE
  5
4B1
100
AcDbEntity
  8
03__ASM_ALL_CURVES
100
AcDbLine
 62
4
  6
CONTINUOUS
 10
11.1369085923
 20
12.2184046621
 11
11.1444085923
 21
12.2084046618
  0
LINE
  5
4B2
100
AcDbEntity
  8
03__ASM_ALL_CURVES
100
AcDbLine
 62
4
  6
CONTINUOUS
 10
11.6994085923
 20
12.2750713269
 11
11.7044085923
 21
12.2617379967
  0
LINE
  5
4B3
100
AcDbEntity
  8
03__ASM_ALL_CURVES
100
AcDbLine
 62
4
  6
CONTINUOUS
 10
12.0500480923
 20
7.2351159956
 11
12.0439939673
 21
7.2270438287
  0
LINE
  5
4B4
100
AcDbEntity
  8
03__ASM_ALL_CURVES
100
AcDbLine
 62
4
  6
CONTINUOUS
 10
12.2256177173
 20
7.2351159956
 11
12.2135094673
 21
7.2189716618
  0
LINE
  5
4B5
100
AcDbEntity
  8
03__ASM_ALL_CURVES
100
AcDbLine
 62
4
  6
CONTINUOUS
 10
12.0076692173
 20
7.2754768265
 11
12.0197774673
 21
7.283548997
  0
LINE
  5
4B6
100
AcDbEntity
  8
03__ASM_ALL_CURVES
100
AcDbLine
 62
4
  6
CONTINUOUS
 10
12.0439939673
 20
7.2270438287
 11
12.0318857173
 21
7.2189716618
  0
LINE
  5
4B7
100
AcDbEntity
  8
03__ASM_ALL_CURVES
100
AcDbLine
 62
4
  6
CONTINUOUS
 10
9.8684085923
 20
6.3624046618
 11
9.8817419249
 21
6.3674046618
  0
LINE
  5
4B8
100
AcDbEntity
  8
03__ASM_ALL_CURVES
100
AcDbLine
 62
4
  6
CONTINUOUS
 10
9.8950752586
 20
6.3324046618
 11
9.8817419249
 21
6.3274046618
  0
LINE
  5
4B9
100
AcDbEntity
  8
03__ASM_ALL_CURVES
100
AcDbLine
 62
4
  6
CONTINUOUS
 10
9.8417419272
 20
6.2024046618
 11
9.8550752574
 21
6.2074046618
  0
LINE
  5
4BA
100
AcDbEntity
  8
0
100
AcDbLine
 62
7
  6
CONTINUOUS
 10
10.5244085923
 20
11.746202664
 11
10.5925197946
 21
11.746202664
  0
LINE
  5
4BB
100
AcDbEntity
  8
0
100
AcDbLine
 62
7
  6
CONTINUOUS
 10
8.7354085923
 20
11.7994046618
 11
9.2224085923
 21
11.7994046618
  0
LINE
  5
4BC
100
AcDbEntity
  8
03__ASM_ALL_CURVES
100
AcDbLine
 62
4
  6
CONTINUOUS
 10
11.3594085923
 20
12.2217379955
 11
11.3694085923
 21
12.2084046618
  0
LINE
  5
4BD
100
AcDbEntity
  8
03__ASM_ALL_CURVES
100
AcDbLine
 62
4
  6
CONTINUOUS
 10
11.4344085923
 20
12.2150713287
 11
11.4294085923
 21
12.2217379955
  0
LINE
  5
4BE
100
AcDbEntity
  8
03__ASM_ALL_CURVES
100
AcDbLine
 62
4
  6
CONTINUOUS
 10
11.4544085923
 20
12.2817379967
 11
11.4594085923
 21
12.2750713269
  0
LINE
  5
4BF
100
AcDbEntity
  8
03__ASM_ALL_CURVES
100
AcDbLine
 62
4
  6
CONTINUOUS
 10
11.5094085923
 20
12.2150713287
 11
11.5044085923
 21
12.2217379955
  0
LINE
  5
4C0
100
AcDbEntity
  8
03__ASM_ALL_CURVES
100
AcDbLine
 62
4
  6
CONTINUOUS
 10
11.5394085923
 20
12.2484046618
 11
11.5494085923
 21
12.2350713293
  0
LINE
  5
4C1
100
AcDbEntity
  8
03__ASM_ALL_CURVES
100
AcDbLine
 62
4
  6
CONTINUOUS
 10
9.8950752586
 20
6.1724046618
 11
9.8817419249
 21
6.1674046618
  0
LINE
  5
4C2
100
AcDbEntity
  8
0
100
AcDbLine
 62
7
  6
CONTINUOUS
 10
9.2744085923
 20
11.9044046618
 11
9.2224085923
 21
11.9044046618
  0
LINE
  5
4C3
100
AcDbEntity
  8
0
100
AcDbLine
 62
7
  6
CONTINUOUS
 10
10.5244085923
 20
12.0190006662
 11
10.5925197946
 21
12.0190006662
  0
LINE
  5
4C4
100
AcDbEntity
  8
03__ASM_ALL_CURVES
100
AcDbLine
 62
4
  6
CONTINUOUS
 10
11.0394085923
 20
12.2084046618
 11
11.0294085923
 21
12.2150713287
  0
LINE
  5
4C5
100
AcDbEntity
  8
03__ASM_ALL_CURVES
100
AcDbLine
 62
4
  6
CONTINUOUS
 10
11.0494085923
 20
12.2550713269
 11
11.0594085923
 21
12.2484046618
  0
LINE
  5
4C6
100
AcDbEntity
  8
03__ASM_ALL_CURVES
100
AcDbLine
 62
4
  6
CONTINUOUS
 10
11.0494085923
 20
12.2884046618
 11
11.0594085923
 21
12.2817379967
  0
LINE
  5
4C7
100
AcDbEntity
  8
03__ASM_ALL_CURVES
100
AcDbLine
 62
4
  6
CONTINUOUS
 10
11.5394085923
 20
12.2817379967
 11
11.5444085923
 21
12.2750713269
  0
LINE
  5
4C8
100
AcDbEntity
  8
03__ASM_ALL_CURVES
100
AcDbLine
 62
4
  6
CONTINUOUS
 10
11.6169085923
 20
12.2184046621
 11
11.6244085923
 21
12.2084046618
  0
LINE
  5
4C9
100
AcDbEntity
  8
03__ASM_ALL_CURVES
100
AcDbLine
 62
4
  6
CONTINUOUS
 10
11.6744085923
 20
12.2150713287
 11
11.6694085923
 21
12.2217379955
  0
LINE
  5
4CA
100
AcDbEntity
  8
03__ASM_ALL_CURVES
100
AcDbLine
 62
4
  6
CONTINUOUS
 10
11.6944085923
 20
12.2817379967
 11
11.6994085923
 21
12.2750713269
  0
LINE
  5
4CB
100
AcDbEntity
  8
03__ASM_ALL_CURVES
100
AcDbLine
 62
4
  6
CONTINUOUS
 10
11.7494085923
 20
12.2150713287
 11
11.7394085923
 21
12.2284046618
  0
LINE
  5
4CC
100
AcDbEntity
  8
03__ASM_ALL_CURVES
100
AcDbLine
 62
4
  6
CONTINUOUS
 10
11.7494085923
 20
12.2617379967
 11
11.7444085923
 21
12.2684046618
  0
LINE
  5
4CD
100
AcDbEntity
  8
03__ASM_ALL_CURVES
100
AcDbLine
 62
4
  6
CONTINUOUS
 10
11.7794085923
 20
12.2484046618
 11
11.7894085923
 21
12.2350713293
  0
LINE
  5
4CE
100
AcDbEntity
  8
03__ASM_ALL_CURVES
100
AcDbLine
 62
4
  6
CONTINUOUS
 10
11.7794085923
 20
12.2817379967
 11
11.7844085923
 21
12.2750713269
  0
LINE
  5
4CF
100
AcDbEntity
  8
03__ASM_ALL_CURVES
100
AcDbLine
 62
4
  6
CONTINUOUS
 10
11.7694085923
 20
12.2084046618
 11
11.7594085923
 21
12.2084046618
  0
LINE
  5
4D0
100
AcDbEntity
  8
03__ASM_ALL_CURVES
100
AcDbLine
 62
4
  6
CONTINUOUS
 10
11.6244085923
 20
12.2084046618
 11
11.6169085923
 21
12.2084046618
  0
LINE
  5
4D1
100
AcDbEntity
  8
03__ASM_ALL_CURVES
100
AcDbLine
 62
4
  6
CONTINUOUS
 10
11.5294085923
 20
12.2084046618
 11
11.5194085923
 21
12.2084046618
  0
LINE
  5
4D2
100
AcDbEntity
  8
03__ASM_ALL_CURVES
100
AcDbLine
 62
4
  6
CONTINUOUS
 10
11.1444085923
 20
12.2084046618
 11
11.1369085923
 21
12.2084046618
  0
LINE
  5
4D3
100
AcDbEntity
  8
03__ASM_ALL_CURVES
100
AcDbLine
 62
4
  6
CONTINUOUS
 10
11.0494085923
 20
12.2084046618
 11
11.0394085923
 21
12.2084046618
  0
LINE
  5
4D4
100
AcDbEntity
  8
0
100
AcDbLine
 62
7
  6
CONTINUOUS
 10
9.2744085923
 20
12.2484047095
 11
10.5244085923
 21
12.2484047095
  0
LINE
  5
4D5
100
AcDbEntity
  8
03__ASM_ALL_CURVES
100
AcDbLine
 62
4
  6
CONTINUOUS
 10
10.6044085923
 20
12.2484046618
 11
10.8444085923
 21
12.2484046618
  0
LINE
  5
4D6
100
AcDbEntity
  8
03__ASM_ALL_CURVES
100
AcDbLine
 62
4
  6
CONTINUOUS
 10
11.0394085923
 20
12.2550713269
 11
11.0494085923
 21
12.2550713269
  0
LINE
  5
4D7
100
AcDbEntity
  8
03__ASM_ALL_CURVES
100
AcDbLine
 62
4
  6
CONTINUOUS
 10
11.5194085923
 20
12.2550713269
 11
11.5294085923
 21
12.2550713269
  0
LINE
  5
4D8
100
AcDbEntity
  8
03__ASM_ALL_CURVES
100
AcDbLine
 62
4
  6
CONTINUOUS
 10
11.7594085923
 20
12.2550713269
 11
11.7694085923
 21
12.2550713269
  0
LINE
  5
4D9
100
AcDbEntity
  8
03__ASM_ALL_CURVES
100
AcDbLine
 62
4
  6
CONTINUOUS
 10
11.2244085923
 20
12.2884046618
 11
11.1844085923
 21
12.2884046618
  0
LINE
  5
4DA
100
AcDbEntity
  8
03__ASM_ALL_CURVES
100
AcDbLine
 62
4
  6
CONTINUOUS
 10
11.0394085923
 20
12.2884046618
 11
11.0494085923
 21
12.2884046618
  0
LINE
  5
4DB
100
AcDbEntity
  8
03__ASM_ALL_CURVES
100
AcDbLine
 62
4
  6
CONTINUOUS
 10
11.5194085923
 20
12.2884046618
 11
11.5294085923
 21
12.2884046618
  0
LINE
  5
4DC
100
AcDbEntity
  8
03__ASM_ALL_CURVES
100
AcDbLine
 62
4
  6
CONTINUOUS
 10
11.7594085923
 20
12.2884046618
 11
11.7694085923
 21
12.2884046618
  0
LINE
  5
4DD
100
AcDbEntity
  8
03__ASM_ALL_CURVES
100
AcDbLine
 62
4
  6
CONTINUOUS
 10
11.4444085923
 20
12.2084046618
 11
11.4344085923
 21
12.2150713287
  0
LINE
  5
4DE
100
AcDbEntity
  8
03__ASM_ALL_CURVES
100
AcDbLine
 62
4
  6
CONTINUOUS
 10
11.5194085923
 20
12.2084046618
 11
11.5094085923
 21
12.2150713287
  0
LINE
  5
4DF
100
AcDbEntity
  8
03__ASM_ALL_CURVES
100
AcDbLine
 62
4
  6
CONTINUOUS
 10
11.4444085923
 20
12.2884046618
 11
11.4544085923
 21
12.2817379967
  0
LINE
  5
4E0
100
AcDbEntity
  8
03__ASM_ALL_CURVES
100
AcDbLine
 62
4
  6
CONTINUOUS
 10
11.5294085923
 20
12.2550713269
 11
11.5394085923
 21
12.2484046618
  0
LINE
  5
4E1
100
AcDbEntity
  8
03__ASM_ALL_CURVES
100
AcDbLine
 62
4
  6
CONTINUOUS
 10
11.5294085923
 20
12.2884046618
 11
11.5394085923
 21
12.2817379967
  0
LINE
  5
4E2
100
AcDbEntity
  8
03__ASM_ALL_CURVES
100
AcDbLine
 62
4
  6
CONTINUOUS
 10
11.8394085923
 20
12.2884046618
 11
11.8494085923
 21
12.2750713269
  0
LINE
  5
4E3
100
AcDbEntity
  8
03__ASM_ALL_CURVES
100
AcDbLine
 62
4
  6
CONTINUOUS
 10
11.4444085923
 20
12.2417379943
 11
11.4294085923
 21
12.2484046618
  0
LINE
  5
4E4
100
AcDbEntity
  8
03__ASM_ALL_CURVES
100
AcDbLine
 62
4
  6
CONTINUOUS
 10
11.6844085923
 20
12.2417379943
 11
11.6694085923
 21
12.2484046618
  0
LINE
  5
4E5
100
AcDbEntity
  8
03__ASM_ALL_CURVES
100
AcDbLine
 62
4
  6
CONTINUOUS
 10
11.6844085923
 20
12.2084046618
 11
11.6744085923
 21
12.2150713287
  0
LINE
  5
4E6
100
AcDbEntity
  8
03__ASM_ALL_CURVES
100
AcDbLine
 62
4
  6
CONTINUOUS
 10
11.7594085923
 20
12.2084046618
 11
11.7494085923
 21
12.2150713287
  0
LINE
  5
4E7
100
AcDbEntity
  8
03__ASM_ALL_CURVES
100
AcDbLine
 62
4
  6
CONTINUOUS
 10
11.6844085923
 20
12.2884046618
 11
11.6944085923
 21
12.2817379967
  0
LINE
  5
4E8
100
AcDbEntity
  8
03__ASM_ALL_CURVES
100
AcDbLine
 62
4
  6
CONTINUOUS
 10
11.7594085923
 20
12.2550713269
 11
11.7494085923
 21
12.2617379967
  0
LINE
  5
4E9
100
AcDbEntity
  8
03__ASM_ALL_CURVES
100
AcDbLine
 62
4
  6
CONTINUOUS
 10
11.7694085923
 20
12.2550713269
 11
11.7794085923
 21
12.2484046618
  0
LINE
  5
4EA
100
AcDbEntity
  8
03__ASM_ALL_CURVES
100
AcDbLine
 62
4
  6
CONTINUOUS
 10
11.7694085923
 20
12.2884046618
 11
11.7794085923
 21
12.2817379967
  0
ARC
  5
4EB
100
AcDbEntity
  8
0
100
AcDbCircle
 62
7
  6
CONTINUOUS
 10
9.4999085923
 20
7.6504046618
 40
0.005
100
AcDbArc
 50
90.0
 51
180.0
  0
ARC
  5
4EC
100
AcDbEntity
  8
0
100
AcDbCircle
 62
7
  6
CONTINUOUS
 10
9.4999085923
 20
7.6984046618
 40
0.005
100
AcDbArc
 50
180.0
 51
270.0
  0
ARC
  5
4ED
100
AcDbEntity
  8
0
100
AcDbCircle
 62
7
  6
CONTINUOUS
 10
9.5104085923
 20
7.6634046618
 40
0.008
100
AcDbArc
 50
270.0
 51
360.0
  0
ARC
  5
4EE
100
AcDbEntity
  8
0
100
AcDbCircle
 62
7
  6
CONTINUOUS
 10
9.5104085923
 20
7.6854046618
 40
0.008
100
AcDbArc
 50
0.0
 51
90.0
  0
CIRCLE
  5
4EF
100
AcDbEntity
  8
0
100
AcDbCircle
 62
7
  6
CONTINUOUS
 10
9.8684085742
 20
9.0174046735
 40
0.4375
  0
CIRCLE
  5
4F0
100
AcDbEntity
  8
0
100
AcDbCircle
 62
7
  6
CONTINUOUS
 10
9.8684085742
 20
9.0174046735
 40
0.264
  0
CIRCLE
  5
4F1
100
AcDbEntity
  8
0
100
AcDbCircle
 62
7
  6
CONTINUOUS
 10
9.8684085742
 20
9.0174046735
 40
0.2325
  0
CIRCLE
  5
4F2
100
AcDbEntity
  8
0
100
AcDbCircle
 62
7
  6
CONTINUOUS
 10
9.8684085742
 20
9.0174046735
 40
0.211
  0
ARC
  5
4F3
100
AcDbEntity
  8
0
100
AcDbCircle
 62
7
  6
CONTINUOUS
 10
10.2264085923
 20
7.6634046618
 40
0.008
100
AcDbArc
 50
180.0
 51
270.0
  0
ARC
  5
4F4
100
AcDbEntity
  8
0
100
AcDbCircle
 62
7
  6
CONTINUOUS
 10
10.2264085923
 20
7.6854046618
 40
0.008
100
AcDbArc
 50
90.0
 51
180.0
  0
ARC
  5
4F5
100
AcDbEntity
  8
0
100
AcDbCircle
 62
7
  6
CONTINUOUS
 10
10.2369085923
 20
7.6504046618
 40
0.005
100
AcDbArc
 50
0.0
 51
90.0
  0
ARC
  5
4F6
100
AcDbEntity
  8
0
100
AcDbCircle
 62
7
  6
CONTINUOUS
 10
10.2369085923
 20
7.6984046618
 40
0.005
100
AcDbArc
 50
270.0
 51
360.0
  0
SPLINE
  5
4F7
100
AcDbEntity
  8
0
100
AcDbSpline
 62
7
  6
CONTINUOUS
 70
0
 71
3
 72
12
 73
8
 74
6
 42
0.0000001
 43
0.0000001
 44
0.0000000001
 12
0.0
 22
-0.1371777623
 32
0.0
 13
-0.0238206684
 23
-0.1350937238
 33
0.0
 40
0.0
 40
0.0
 40
0.0
 40
0.0
 40
0.1983935278
 40
0.3964809968
 40
0.5944808932
 40
0.7942785711
 40
1.0
 40
1.0
 40
1.0
 40
1.0
 10
10.6054085923
 20
11.8826016651
 30
0.0
 10
10.6054085923
 20
11.8735299384
 30
0.0
 10
10.6050388543
 20
11.8553983683
 30
0.0
 10
10.6034021931
 20
11.828258045
 30
0.0
 10
10.6007489042
 20
11.8011342387
 30
0.0
 10
10.5971349887
 20
11.7737709175
 30
0.0
 10
10.5941532685
 20
11.7554665553
 30
0.0
 10
10.5925197946
 20
11.746202664
 30
0.0
 11
10.6054085923
 21
11.8826016651
 31
0.0
 11
10.6048578374
 21
11.8553920583
 31
0.0
 11
10.6032335808
 21
11.8282674503
 31
0.0
 11
10.6006055929
 21
11.8012337024
 31
0.0
 11
10.5970361127
 21
11.7740593354
 31
0.0
 11
10.5925197946
 21
11.746202664
 31
0.0
  0
SPLINE
  5
4F8
100
AcDbEntity
  8
0
100
AcDbSpline
 62
7
  6
CONTINUOUS
 70
0
 71
3
 72
11
 73
7
 74
5
 42
0.0000001
 43
0.0000001
 44
0.0000000001
 12
0.0239920357
 22
-0.2721311912
 32
0.0
 13
0.0
 23
-0.2731867548
 33
0.0
 40
0.0
 40
0.0
 40
0.0
 40
0.0
 40
0.2530284046
 40
0.5010662045
 40
0.7496528308
 40
1.0
 40
1.0
 40
1.0
 40
1.0
 10
10.5925197946
 20
11.746202664
 30
0.0
 10
10.5945433501
 20
11.7232503569
 30
0.0
 10
10.5981745848
 20
11.6777639631
 30
0.0
 10
10.6022697919
 20
11.6096168917
 30
0.0
 10
10.6048255671
 20
11.5416379294
 30
0.0
 10
10.6054085923
 20
11.4962018387
 30
0.0
 10
10.6054085923
 20
11.4734046618
 30
0.0
 11
10.5925197946
 21
11.746202664
 31
0.0
 11
10.5979827755
 21
11.6772948674
 31
0.0
 11
10.6020139152
 21
11.6096542401
 31
0.0
 11
10.6045405019
 21
11.541790683
 31
0.0
 11
10.6054085923
 21
11.4734046618
 31
0.0
  0
SPLINE
  5
4F9
100
AcDbEntity
  8
0
100
AcDbSpline
 62
7
  6
CONTINUOUS
 70
0
 71
3
 72
11
 73
7
 74
5
 42
0.0000001
 43
0.0000001
 44
0.0000000001
 12
-0.0
 22
-0.2731867474
 32
0.0
 13
-0.023992035
 23
-0.2721311839
 33
0.0
 40
0.0
 40
0.0
 40
0.0
 40
0.0
 40
0.2511399754
 40
0.5001719253
 40
0.7479893089
 40
1.0
 40
1.0
 40
1.0
 40
1.0
 10
10.6054085923
 20
11.4734046618
 30
0.0
 10
10.6054085923
 20
11.4505352908
 30
0.0
 10
10.6048222473
 20
11.4049864356
 30
0.0
 10
10.6022563135
 20
11.336915093
 30
0.0
 10
10.5981589795
 20
11.2688404969
 30
0.0
 10
10.594535211
 20
11.2234666488
 30
0.0
 10
10.5925197946
 20
11.2006066596
 30
0.0
 11
10.6054085923
 21
11.4734046618
 31
0.0
 11
10.6045350245
 21
11.4048021104
 31
0.0
 11
10.6019973903
 21
11.336817226
 31
0.0
 11
10.5979633876
 21
11.2692370931
 31
0.0
 11
10.5925197946
 21
11.2006066596
 31
0.0
  0
SPLINE
  5
4FA
100
AcDbEntity
  8
0
100
AcDbSpline
 62
7
  6
CONTINUOUS
 70
0
 71
3
 72
12
 73
8
 74
6
 42
0.0000001
 43
0.0000001
 44
0.0000000001
 12
0.0238206686
 22
-0.1350937247
 32
0.0
 13
0.0
 23
-0.1371777631
 33
0.0
 40
0.0
 40
0.0
 40
0.0
 40
0.0
 40
0.2057600961
 40
0.4056691171
 40
0.6036421279
 40
0.8016665897
 40
1.0
 40
1.0
 40
1.0
 40
1.0
 10
10.5925197946
 20
11.2006066596
 30
0.0
 10
10.5941535756
 20
11.191341027
 30
0.0
 10
10.5971363541
 20
11.1730298856
 30
0.0
 10
10.6007506117
 20
11.1456609229
 30
0.0
 10
10.6034033264
 20
11.1185360755
 30
0.0
 10
10.605039082
 20
11.0914025747
 30
0.0
 10
10.6054085923
 20
11.0732766364
 30
0.0
 10
10.6054085923
 20
11.0642076585
 30
0.0
 11
10.5925197946
 21
11.2006066596
 31
0.0
 11
10.5970368854
 21
11.1727447397
 31
0.0
 11
10.6006079407
 21
11.1455551744
 31
0.0
 11
10.6032349117
 21
11.118525033
 31
0.0
 11
10.6048581699
 21
11.0914090237
 31
0.0
 11
10.6054085923
 21
11.0642076585
 31
0.0
  0
SPLINE
  5
4FB
100
AcDbEntity
  8
0
100
AcDbSpline
 62
7
  6
CONTINUOUS
 70
0
 71
3
 72
10
 73
6
 74
4
 42
0.0000001
 43
0.0000001
 44
0.0000000001
 12
0.0
 22
-0.0631042151
 32
0.0
 13
-0.0057128035
 23
-0.0628483856
 33
0.0
 40
0.0
 40
0.0
 40
0.0
 40
0.0
 40
0.4312735708
 40
0.8618818222
 40
1.0
 40
1.0
 40
1.0
 40
1.0
 10
10.6054085923
 20
11.0642076585
 30
0.0
 10
10.6054085923
 20
11.0551359318
 30
0.0
 10
10.6050388543
 20
11.0370043618
 30
0.0
 10
10.6037723825
 20
11.0160027913
 30
0.0
 10
10.6027584023
 20
11.0040820237
 30
0.0
 10
10.6024953883
 20
11.0011885222
 30
0.0
 11
10.6054085923
 21
11.0642076585
 31
0.0
 11
10.6048578374
 21
11.0369980517
 31
0.0
 11
10.6032335808
 21
11.0098734438
 31
0.0
 11
10.6024953883
 21
11.0011885222
 31
0.0
  0
SPLINE
  5
4FC
100
AcDbEntity
  8
0
100
AcDbSpline
 62
7
  6
CONTINUOUS
 70
0
 71
3
 72
10
 73
6
 74
4
 42
0.0000001
 43
0.0000001
 44
0.0000000001
 12
-0.0067058535
 22
-0.073773247
 32
0.0
 13
-0.0128627365
 23
-0.0729482035
 33
0.0
 40
0.0
 40
0.0
 40
0.0
 40
0.0
 40
0.2490139086
 40
0.6190218188
 40
1.0
 40
1.0
 40
1.0
 40
1.0
 10
10.6024953883
 20
11.0011885222
 30
0.0
 10
10.6019387714
 20
10.9950650007
 30
0.0
 10
10.6003684411
 20
10.9798594968
 30
0.0
 10
10.5971349887
 20
10.955376911
 30
0.0
 10
10.5941532685
 20
10.9370725487
 30
0.0
 10
10.5925197946
 20
10.9278086574
 30
0.0
 11
10.6024953883
 21
11.0011885222
 31
0.0
 11
10.6006055929
 21
10.9828396959
 31
0.0
 11
10.5970361127
 21
10.9556653288
 31
0.0
 11
10.5925197946
 21
10.9278086574
 31
0.0
  0
SPLINE
  5
4FD
100
AcDbEntity
  8
0
100
AcDbSpline
 62
7
  6
CONTINUOUS
 70
0
 71
3
 72
10
 73
6
 74
4
 42
0.0000001
 43
0.0000001
 44
0.0000000001
 12
0.0128627234
 22
-0.0729481296
 32
0.0
 13
0.0067058529
 23
-0.0737731709
 33
0.0
 40
0.0
 40
0.0
 40
0.0
 40
0.0
 40
0.381050178
 40
0.7512646632
 40
1.0
 40
1.0
 40
1.0
 40
1.0
 10
10.5925197946
 20
12.0190006662
 30
0.0
 10
10.5941535756
 20
12.0097350336
 30
0.0
 10
10.5971363541
 20
11.9914238921
 30
0.0
 10
10.6003694497
 20
11.9669412784
 30
0.0
 10
10.6019393873
 20
11.9517375394
 30
0.0
 10
10.6024953815
 20
11.9456208746
 30
0.0
 11
10.5925197946
 21
12.0190006662
 31
0.0
 11
10.5970368854
 21
11.9911387463
 31
0.0
 11
10.6006079407
 21
11.963949181
 31
0.0
 11
10.6024953815
 21
11.9456208746
 31
0.0
  0
SPLINE
  5
4FE
100
AcDbEntity
  8
0
100
AcDbSpline
 62
7
  6
CONTINUOUS
 70
0
 71
3
 72
10
 73
6
 74
4
 42
0.0000001
 43
0.0000001
 44
0.0000000001
 12
0.0057128157
 22
-0.0628484601
 32
0.0
 13
0.0
 23
-0.0631042911
 33
0.0
 40
0.0
 40
0.0
 40
0.0
 40
0.0
 40
0.1383868607
 40
0.5688576299
 40
1.0
 40
1.0
 40
1.0
 40
1.0
 10
10.6024953815
 20
11.9456208746
 30
0.0
 10
10.6027589077
 20
11.9427217409
 30
0.0
 10
10.6037729899
 20
11.930798197
 30
0.0
 10
10.605039082
 20
11.9097965812
 30
0.0
 10
10.6054085923
 20
11.891670643
 30
0.0
 10
10.6054085923
 20
11.8826016651
 30
0.0
 11
10.6024953815
 21
11.9456208746
 31
0.0
 11
10.6032349117
 21
11.9369190396
 31
0.0
 11
10.6048581699
 21
11.9098030304
 31
0.0
 11
10.6054085923
 21
11.8826016651
 31
0.0
  0
SPLINE
  5
4FF
100
AcDbEntity
  8
0
100
AcDbSpline
 62
7
  6
CONTINUOUS
 70
0
 71
3
 72
8
 73
4
 74
2
 42
0.0000001
 43
0.0000001
 44
0.0000000001
 12
0.0006814092
 22
0.0
 32
0.0
 13
0.0006813967
 23
-0.000005341
 33
0.0
 40
0.0
 40
0.0
 40
0.0
 40
0.0
 40
1.0
 40
1.0
 40
1.0
 40
1.0
 10
10.1106269866
 20
7.3304100043
 30
0.0
 10
10.110854123
 20
7.3304100043
 30
0.0
 10
10.1110812426
 20
7.3304064421
 30
0.0
 10
10.1113083749
 20
7.3304046618
 30
0.0
 11
10.1106269866
 21
7.3304100043
 31
0.0
 11
10.1113083749
 21
7.3304046618
 31
0.0
  0
SPLINE
  5
500
100
AcDbEntity
  8
0
100
AcDbSpline
 62
7
  6
CONTINUOUS
 70
0
 71
3
 72
8
 73
4
 74
2
 42
0.0000001
 43
0.0000001
 44
0.0000000001
 12
0.0011553649
 22
0.0
 32
0.0
 13
0.0011553583
 23
-0.0000051629
 33
0.0
 40
0.0
 40
0.0
 40
0.0
 40
0.0
 40
1.0
 40
1.0
 40
1.0
 40
1.0
 10
9.8667157754
 20
7.3304097822
 30
0.0
 10
9.867100897
 20
7.3304097822
 30
0.0
 10
9.8674860095
 20
7.3304063828
 30
0.0
 10
9.867871129
 20
7.3304046618
 30
0.0
 11
9.8667157754
 21
7.3304097822
 31
0.0
 11
9.867871129
 21
7.3304046618
 31
0.0
  0
SPLINE
  5
501
100
AcDbEntity
  8
0
100
AcDbSpline
 62
7
  6
CONTINUOUS
 70
0
 71
3
 72
8
 73
4
 74
2
 42
0.0000001
 43
0.0000001
 44
0.0000000001
 12
0.0007028434
 22
0.0
 32
0.0
 13
0.0007028337
 23
-0.00000532
 33
0.0
 40
0.0
 40
0.0
 40
0.0
 40
0.0
 40
1.0
 40
1.0
 40
1.0
 40
1.0
 10
9.6241854429
 20
7.3304097888
 30
0.0
 10
9.624419724
 20
7.3304097888
 30
0.0
 10
9.6246539897
 20
7.3304064351
 30
0.0
 10
9.6248882676
 20
7.3304046618
 30
0.0
 11
9.6241854429
 21
7.3304097888
 31
0.0
 11
9.6248882676
 21
7.3304046618
 31
0.0
  0
SPLINE
  5
502
100
AcDbEntity
  8
0
100
AcDbSpline
 62
7
  6
CONTINUOUS
 70
0
 71
3
 72
14
 73
10
 74
8
 42
0.0000001
 43
0.0000001
 44
0.0000000001
 12
0.0850151921
 22
0.0006200929
 32
0.0
 13
0.0736272745
 23
0.0425087268
 33
0.0
 40
0.0
 40
0.0
 40
0.0
 40
0.0
 40
0.132342334
 40
0.2668880286
 40
0.4039948201
 40
0.5442616036
 40
0.6891505536
 40
0.8404460628
 40
1.0
 40
1.0
 40
1.0
 40
1.0
 10
10.1126711483
 20
7.3304099971
 30
0.0
 10
10.1164215179
 20
7.330437352
 30
0.0
 10
10.123985627
 20
7.3308622349
 30
0.0
 10
10.1353292502
 20
7.3325100216
 30
0.0
 10
10.1467045753
 20
7.3351932218
 30
0.0
 10
10.1581082694
 20
7.3388563975
 30
0.0
 10
10.1695940965
 20
7.3434705278
 30
0.0
 10
10.1812586347
 20
7.3490317714
 30
0.0
 10
10.1889927518
 20
7.3532585869
 30
0.0
 10
10.1929085923
 20
7.3555193985
 30
0.0
 11
10.1126711483
 21
7.3304099971
 31
0.0
 11
10.1239059041
 21
7.3310219193
 31
0.0
 11
10.1352264703
 21
7.3326618516
 31
0.0
 11
10.1465760203
 21
7.3353191087
 31
0.0
 11
10.1579358507
 21
7.3389471732
 31
0.0
 11
10.1693743543
 21
7.343518384
 31
0.0
 11
10.1809946679
 21
7.3490337153
 31
0.0
 11
10.1929085923
 21
7.3555193985
 31
0.0
  0
SPLINE
  5
503
100
AcDbEntity
  8
0
100
AcDbSpline
 62
7
  6
CONTINUOUS
 70
0
 71
3
 72
14
 73
10
 74
8
 42
0.0000001
 43
0.0000001
 44
0.0000000001
 12
0.0733946274
 22
-0.0423744079
 32
0.0
 13
0.0847449877
 23
-0.0008054967
 33
0.0
 40
0.0
 40
0.0
 40
0.0
 40
0.0
 40
0.1605529058
 40
0.3123419809
 40
0.4573374636
 40
0.5974173777
 40
0.7341061586
 40
0.8681276311
 40
1.0
 40
1.0
 40
1.0
 40
1.0
 10
10.0306585923
 20
7.3555193985
 30
0.0
 10
10.0345864992
 20
7.3532516204
 30
0.0
 10
10.0423335292
 20
7.3490184665
 30
0.0
 10
10.0540030951
 20
7.3434576066
 30
0.0
 10
10.0654641651
 20
7.3388555013
 30
0.0
 10
10.0768180492
 20
7.3352075041
 30
0.0
 10
10.0881247193
 20
7.3325337482
 30
0.0
 10
10.0993908772
 20
7.3308850005
 30
0.0
 10
10.1069018125
 20
7.3304454119
 30
0.0
 10
10.1106269866
 20
7.3304100043
 30
0.0
 11
10.0306585923
 21
7.3555193985
 31
0.0
 11
10.0426097646
 21
7.3490147146
 31
0.0
 11
10.0542322231
 21
7.3435011384
 31
0.0
 11
10.0656436519
 21
7.3389427352
 31
0.0
 11
10.0769521763
 21
7.335329935
 31
0.0
 11
10.0882299183
 21
7.3326829537
 31
0.0
 11
10.0994687965
 21
7.3310411739
 31
0.0
 11
10.1106269866
 21
7.3304100043
 31
0.0
  0
SPLINE
  5
504
100
AcDbEntity
  8
0
100
AcDbSpline
 62
7
  6
CONTINUOUS
 70
0
 71
3
 72
14
 73
10
 74
8
 42
0.0000001
 43
0.0000001
 44
0.0000000001
 12
-0.0846993975
 22
-0.0008860795
 32
0.0
 13
-0.0733558437
 23
-0.0423520161
 33
0.0
 40
0.0
 40
0.0
 40
0.0
 40
0.0
 40
0.1321327399
 40
0.2666290428
 40
0.4038129412
 40
0.5441413719
 40
0.6890871131
 40
0.8404291904
 40
1.0
 40
1.0
 40
1.0
 40
1.0
 10
10.1105819892
 20
7.5494025384
 30
0.0
 10
10.106851468
 20
7.5493635117
 30
0.0
 10
10.0993241792
 20
7.5489175631
 30
0.0
 10
10.0880303918
 20
7.5472585801
 30
0.0
 10
10.0766983361
 20
7.544568838
 30
0.0
 10
10.0653349839
 20
7.5409068968
 30
0.0
 10
10.0538900197
 20
7.5363011557
 30
0.0
 10
10.0422672046
 20
7.5307553617
 30
0.0
 10
10.0345604094
 20
7.5265426402
 30
0.0
 10
10.0306585923
 20
7.5242899251
 30
0.0
 11
10.1105819892
 21
7.5494025384
 31
0.0
 11
10.0994081564
 21
7.5487620214
 31
0.0
 11
10.0881364163
 21
7.5471084864
 31
0.0
 11
10.0768259363
 21
7.5444442558
 31
0.0
 11
10.0655064871
 21
7.5408171095
 31
0.0
 11
10.0541084801
 21
7.5362539783
 31
0.0
 11
10.0425292322
 21
7.5307535179
 31
0.0
 11
10.0306585923
 21
7.5242899251
 31
0.0
  0
SPLINE
  5
505
100
AcDbEntity
  8
0
100
AcDbSpline
 62
7
  6
CONTINUOUS
 70
0
 71
3
 72
14
 73
10
 74
8
 42
0.0000001
 43
0.0000001
 44
0.0000000001
 12
-0.1567134905
 22
0.045239288
 32
0.0
 13
-0.1631115859
 23
0.0005672963
 33
0.0
 40
0.0
 40
0.0
 40
0.0
 40
0.0
 40
0.1525683772
 40
0.2996886364
 40
0.4430011222
 40
0.5840397245
 40
0.7239141414
 40
0.8626309336
 40
1.0
 40
1.0
 40
1.0
 40
1.0
 10
10.0306585923
 20
7.5242899251
 30
0.0
 10
10.0226887513
 20
7.52659062
 30
0.0
 10
10.0069658433
 20
7.5308799041
 30
0.0
 10
9.9835277163
 20
7.5364500381
 30
0.0
 10
9.9605181145
 20
7.541050699
 30
0.0
 10
9.9377348318
 20
7.5446871738
 30
0.0
 10
9.9150664123
 20
7.5473396745
 30
0.0
 10
9.8925014325
 20
7.5489591409
 30
0.0
 10
9.8774900598
 20
7.5493786486
 30
0.0
 10
9.870021231
 20
7.5494046249
 30
0.0
 11
10.0306585923
 21
7.5242899251
 31
0.0
 11
10.0066455687
 21
7.5308228232
 31
0.0
 11
9.9832949093
 21
7.5363555061
 31
0.0
 11
9.9603695954
 21
7.5409239355
 31
0.0
 11
9.9376500421
 21
7.5445377576
 31
0.0
 11
9.9149878739
 21
7.5471764978
 31
0.0
 11
9.892419665
 21
7.5487989388
 31
0.0
 11
9.870021231
 21
7.5494046249
 31
0.0
  0
SPLINE
  5
506
100
AcDbEntity
  8
0
100
AcDbSpline
 62
7
  6
CONTINUOUS
 70
0
 71
3
 72
14
 73
10
 74
8
 42
0.0000001
 43
0.0000001
 44
0.0000000001
 12
0.1629507771
 22
0.0005936495
 32
0.0
 13
0.1565590815
 23
0.0451947139
 33
0.0
 40
0.0
 40
0.0
 40
0.0
 40
0.0
 40
0.1379430282
 40
0.277252305
 40
0.4175046129
 40
0.5586983533
 40
0.7018664497
 40
0.848451921
 40
1.0
 40
1.0
 40
1.0
 40
1.0
 10
9.8701818393
 20
7.3304099948
 30
0.0
 10
9.8776744805
 20
7.3304372914
 30
0.0
 10
9.8927344749
 20
7.3308590154
 30
0.0
 10
9.9153600033
 20
7.3324972125
 30
0.0
 10
9.9380652109
 20
7.3351676878
 30
0.0
 10
9.9608446534
 20
7.3388179627
 30
0.0
 10
9.9838012464
 20
7.3434203572
 30
0.0
 10
10.00712447
 20
7.3489717761
 30
0.0
 10
10.0227498496
 20
7.3532363411
 30
0.0
 10
10.0306585923
 20
7.3555193985
 30
0.0
 11
9.8701818393
 21
7.3304099948
 31
0.0
 11
9.8926515835
 21
7.3310218383
 31
0.0
 11
9.9152929795
 21
7.3326617216
 31
0.0
 11
9.9379923523
 21
7.3353189566
 31
0.0
 11
9.9607122813
 21
7.338947024
 31
0.0
 11
9.9835895562
 21
7.3435182614
 31
0.0
 11
10.0068304572
 21
7.3490336423
 31
0.0
 11
10.0306585923
 21
7.3555193985
 31
0.0
  0
SPLINE
  5
507
100
AcDbEntity
  8
0
100
AcDbSpline
 62
7
  6
CONTINUOUS
 70
0
 71
3
 72
14
 73
10
 74
8
 42
0.0000001
 43
0.0000001
 44
0.0000000001
 12
0.156636352
 22
-0.04521702
 32
0.0
 13
0.1630312982
 23
-0.0005670047
 33
0.0
 40
0.0
 40
0.0
 40
0.0
 40
0.0
 40
0.1525692367
 40
0.2996906416
 40
0.4430066307
 40
0.5840472996
 40
0.723913357
 40
0.8626754946
 40
1.0
 40
1.0
 40
1.0
 40
1.0
 10
9.7061585923
 20
7.3555193985
 30
0.0
 10
9.7141245552
 20
7.3532198231
 30
0.0
 10
9.7298397955
 20
7.3489325129
 30
0.0
 10
9.753266531
 20
7.3433644499
 30
0.0
 10
9.7762649467
 20
7.3387649605
 30
0.0
 10
9.7990365967
 20
7.3351285437
 30
0.0
 10
9.8216957158
 20
7.3324754563
 30
0.0
 10
9.8442489067
 20
7.330851988
 30
0.0
 10
9.8592530446
 20
7.3304357367
 30
0.0
 10
9.8667157754
 20
7.3304097822
 30
0.0
 11
9.7061585923
 21
7.3555193985
 31
0.0
 11
9.7301598802
 21
7.3489894912
 31
0.0
 11
9.7534990844
 21
7.3434588845
 31
0.0
 11
9.7764134598
 21
7.3388915174
 31
0.0
 11
9.7991219073
 21
7.3352778158
 31
0.0
 11
9.8217713074
 21
7.332638305
 31
0.0
 11
9.8443355871
 21
7.3310134327
 31
0.0
 11
9.8667157754
 21
7.3304097822
 31
0.0
  0
SPLINE
  5
508
100
AcDbEntity
  8
0
100
AcDbSpline
 62
7
  6
CONTINUOUS
 70
0
 71
3
 72
14
 73
10
 74
8
 42
0.0000001
 43
0.0000001
 44
0.0000000001
 12
-0.1623829372
 22
-0.0005850727
 32
0.0
 13
-0.1560134924
 23
-0.0450372159
 33
0.0
 40
0.0
 40
0.0
 40
0.0
 40
0.0
 40
0.1379684733
 40
0.277284632
 40
0.4175279597
 40
0.5587166182
 40
0.701884865
 40
0.8484677082
 40
1.0
 40
1.0
 40
1.0
 40
1.0
 10
9.8660672703
 20
7.549399463
 30
0.0
 10
9.8585993617
 20
7.5493725558
 30
0.0
 10
9.8435907743
 20
7.5489188933
 30
0.0
 10
9.8210443161
 20
7.5472727993
 30
0.0
 10
9.7984205931
 20
7.5445938008
 30
0.0
 10
9.7757232007
 20
7.5409452225
 30
0.0
 10
9.7528486065
 20
7.5363511033
 30
0.0
 10
9.7296086736
 20
7.5308150475
 30
0.0
 10
9.714038953
 20
7.5265647893
 30
0.0
 10
9.7061585923
 20
7.5242899251
 30
0.0
 11
9.8660672703
 21
7.549399463
 31
0.0
 11
9.8436724479
 21
7.5487627672
 31
0.0
 11
9.8211103271
 21
7.5471081114
 31
0.0
 11
9.79849339
 21
7.5444442711
 31
0.0
 11
9.7758553231
 21
7.5408172795
 31
0.0
 11
9.7530593054
 21
7.5362541839
 31
0.0
 11
9.7299008454
 21
7.5307537664
 31
0.0
 11
9.7061585923
 21
7.5242899251
 31
0.0
  0
SPLINE
  5
509
100
AcDbEntity
  8
0
100
AcDbSpline
 62
7
  6
CONTINUOUS
 70
0
 71
3
 72
14
 73
10
 74
8
 42
0.0000001
 43
0.0000001
 44
0.0000000001
 12
-0.0733947583
 22
0.0423744835
 32
0.0
 13
-0.0847451389
 23
0.0008054983
 33
0.0
 40
0.0
 40
0.0
 40
0.0
 40
0.0
 40
0.1605526194
 40
0.3123414238
 40
0.4573366479
 40
0.5974163121
 40
0.7341048493
 40
0.8681260826
 40
1.0
 40
1.0
 40
1.0
 40
1.0
 10
9.7061585923
 20
7.5242899251
 30
0.0
 10
9.7022306854
 20
7.5265577032
 30
0.0
 10
9.6944836556
 20
7.5307908595
 30
0.0
 10
9.6828140891
 20
7.5363517092
 30
0.0
 10
9.6713530211
 20
7.5409538492
 30
0.0
 10
9.6599991299
 20
7.5446017235
 30
0.0
 10
9.648692485
 20
7.5472759217
 30
0.0
 10
9.6374261862
 20
7.5489230737
 30
0.0
 10
9.6299154225
 20
7.5493665825
 30
0.0
 10
9.626190198
 20
7.5494019905
 30
0.0
 11
9.7061585923
 21
7.5242899251
 31
0.0
 11
9.69420742
 21
7.530794609
 31
0.0
 11
9.6825849615
 21
7.5363081852
 31
0.0
 11
9.6711735327
 21
7.5408665884
 31
0.0
 11
9.6598650083
 21
7.5444793886
 31
0.0
 11
9.6485872663
 21
7.5471263699
 31
0.0
 11
9.6373483882
 21
7.5487681497
 31
0.0
 11
9.626190198
 21
7.5494019905
 31
0.0
  0
SPLINE
  5
50A
100
AcDbEntity
  8
0
100
AcDbSpline
 62
7
  6
CONTINUOUS
 70
0
 71
3
 72
14
 73
10
 74
8
 42
0.0000001
 43
0.0000001
 44
0.0000000001
 12
0.0846406263
 22
0.0008766395
 32
0.0
 13
0.073304864
 23
0.042322583
 33
0.0
 40
0.0
 40
0.0
 40
0.0
 40
0.0
 40
0.1324926697
 40
0.2670532852
 40
0.4041345336
 40
0.5443936626
 40
0.6892685607
 40
0.8405239772
 40
1.0
 40
1.0
 40
1.0
 40
1.0
 10
9.626293915
 20
7.330410754
 30
0.0
 10
9.6300320025
 20
7.3304494701
 30
0.0
 10
9.6375660759
 20
7.3308983964
 30
0.0
 10
9.6488598269
 20
7.3325653582
 30
0.0
 10
9.6601796744
 20
7.3352579777
 30
0.0
 10
9.6715272969
 20
7.3389192257
 30
0.0
 10
9.6829573344
 20
7.3435218434
 30
0.0
 10
9.6945649948
 20
7.3490620262
 30
0.0
 10
9.7022618029
 20
7.3532695861
 30
0.0
 10
9.7061585923
 20
7.3555193985
 30
0.0
 11
9.626293915
 21
7.330410754
 31
0.0
 11
9.6374902272
 21
7.3310555549
 31
0.0
 11
9.6487584874
 21
7.3327157545
 31
0.0
 11
9.6600513093
 21
7.3353818249
 31
0.0
 11
9.6713560425
 21
7.3390086003
 31
0.0
 11
9.6827395445
 21
7.3435688705
 31
0.0
 11
9.69430347
 21
7.3490637278
 31
0.0
 11
9.7061585923
 21
7.3555193985
 31
0.0
  0
SPLINE
  5
50B
100
AcDbEntity
  8
0
100
AcDbSpline
 62
7
  6
CONTINUOUS
 70
0
 71
3
 72
14
 73
10
 74
8
 42
0.0000001
 43
0.0000001
 44
0.0000000001
 12
-0.0847323901
 22
-0.0006106872
 32
0.0
 13
-0.0733823082
 23
-0.0423672954
 33
0.0
 40
0.0
 40
0.0
 40
0.0
 40
0.0
 40
0.1323590878
 40
0.2669171597
 40
0.4040274811
 40
0.5443000343
 40
0.6891933141
 40
0.8404803615
 40
1.0
 40
1.0
 40
1.0
 40
1.0
 10
9.6238627734
 20
7.5493994628
 30
0.0
 10
9.6201244062
 20
7.5493725194
 30
0.0
 10
9.612585999
 20
7.5489155823
 30
0.0
 10
9.6012821418
 20
7.5472600305
 30
0.0
 10
9.5899478678
 20
7.544568394
 30
0.0
 10
9.5785853091
 20
7.5409070879
 30
0.0
 10
9.5671404863
 20
7.5363013388
 30
0.0
 10
9.5555175119
 20
7.530755532
 30
0.0
 10
9.5478105654
 20
7.5265427303
 30
0.0
 10
9.5439085923
 20
7.5242899251
 30
0.0
 11
9.6238627734
 21
7.5493994628
 31
0.0
 11
9.6126654677
 21
7.5487627619
 31
0.0
 11
9.6013844476
 21
7.5471081091
 31
0.0
 11
9.5900759745
 21
7.5444442664
 31
0.0
 11
9.5787569446
 21
7.5408172747
 31
0.0
 11
9.5673589401
 21
7.5362541801
 31
0.0
 11
9.5557797135
 21
7.5307537636
 31
0.0
 11
9.5439085923
 21
7.5242899251
 31
0.0
  0
SPLINE
  5
50C
100
AcDbEntity
  8
0
100
AcDbSpline
 62
7
  6
CONTINUOUS
 70
0
 71
3
 72
20
 73
16
 74
14
 42
0.0000001
 43
0.0000001
 44
0.0000000001
 12
-0.3682900609
 22
-0.1096610368
 32
0.0
 13
-0.3682900609
 23
0.1096610368
 33
0.0
 40
0.0
 40
0.0
 40
0.0
 40
0.0
 40
0.0808994998
 40
0.1595041732
 40
0.2364443629
 40
0.3123001971
 40
0.3875896994
 40
0.4625546174
 40
0.5374457684
 40
0.6124106919
 40
0.6877001886
 40
0.763556004
 40
0.8404960122
 40
0.9191005132
 40
1.0
 40
1.0
 40
1.0
 40
1.0
 10
10.27631084
 20
8.0834683277
 30
0.0
 10
10.2663793461
 20
8.0805111533
 30
0.0
 10
10.2466953486
 20
8.075017584
 30
0.0
 10
10.2172257662
 20
8.0679988772
 30
0.0
 10
10.188122465
 20
8.0623347972
 30
0.0
 10
10.1592141789
 20
8.0580387288
 30
0.0
 10
10.130385409
 20
8.0551430675
 30
0.0
 10
10.1015713735
 20
8.0536834945
 30
0.0
 10
10.0727616961
 20
8.0536834983
 30
0.0
 10
10.0439476611
 20
8.0551430788
 30
0.0
 10
10.0151188943
 20
8.0580387471
 30
0.0
 10
9.9862106353
 20
8.0623348181
 30
0.0
 10
9.9571073818
 20
8.0679988935
 30
0.0
 10
9.9276378456
 20
8.0750175908
 30
0.0
 10
9.9079538709
 20
8.0805111538
 30
0.0
 10
9.8980223786
 20
8.0834683277
 30
0.0
 11
10.27631084
 21
8.0834683277
 31
0.0
 11
10.2463617212
 21
8.0751337406
 31
0.0
 11
10.2169732763
 21
8.0681563061
 31
0.0
 11
10.1879483871
 21
8.0625268447
 31
0.0
 11
10.1591136366
 21
8.0582575832
 31
0.0
 11
10.1303258843
 21
8.055377476
 31
0.0
 11
10.1015557309
 21
8.0539261277
 31
0.0
 11
10.0727773395
 21
8.0539261315
 31
0.0
 11
10.0440071844
 21
8.0553774873
 31
0.0
 11
10.0152194349
 21
8.0582576015
 31
0.0
 11
9.9863846925
 21
8.0625268685
 31
0.0
 11
9.9573598727
 21
8.0681563211
 31
0.0
 11
9.9279714926
 21
8.0751337419
 31
0.0
 11
9.8980223786
 21
8.0834683277
 31
0.0
  0
SPLINE
  5
50D
100
AcDbEntity
  8
0
100
AcDbSpline
 62
7
  6
CONTINUOUS
 70
0
 71
3
 72
22
 73
18
 74
16
 42
0.0000001
 43
0.0000001
 44
0.0000000001
 12
-0.3517854162
 22
0.1814265356
 32
0.0
 13
-0.3517854162
 23
-0.1814265356
 33
0.0
 40
0.0
 40
0.0
 40
0.0
 40
0.0
 40
0.0762692529
 40
0.1481294875
 40
0.2164524466
 40
0.28203266
 40
0.345672879
 40
0.40792517
 40
0.4694062844
 40
0.5305943147
 40
0.5920753794
 40
0.6543276175
 40
0.7179677727
 40
0.7835478851
 40
0.851870604
 40
0.9237306768
 40
1.0
 40
1.0
 40
1.0
 40
1.0
 10
10.27631084
 20
8.4569046618
 30
0.0
 10
10.2673673697
 20
8.4615170839
 30
0.0
 10
10.2497867084
 20
8.4700761047
 30
0.0
 10
10.2234778589
 20
8.4812206591
 30
0.0
 10
10.1979020863
 20
8.4903729298
 30
0.0
 10
10.1728513283
 20
8.4976312022
 30
0.0
 10
10.1481571936
 20
8.5030511794
 30
0.0
 10
10.1236791737
 20
8.506659591
 30
0.0
 10
10.0993258017
 20
8.5084628746
 30
0.0
 10
10.0750071862
 20
8.5084628658
 30
0.0
 10
10.050653829
 20
8.5066595665
 30
0.0
 10
10.026175833
 20
8.5030511435
 30
0.0
 10
10.0014817291
 20
8.4976311603
 30
0.0
 10
9.9764310252
 20
8.4903728935
 30
0.0
 10
9.9508553169
 20
8.4812206407
 30
0.0
 10
9.9245465078
 20
8.4700761033
 30
0.0
 10
9.9069658572
 20
8.4615170881
 30
0.0
 10
9.8980223786
 20
8.4569046618
 30
0.0
 11
10.27631084
 21
8.4569046618
 31
0.0
 11
10.2491510674
 21
8.4700837225
 31
0.0
 11
10.2229465673
 21
8.481144642
 31
0.0
 11
10.1974735153
 21
8.4902252079
 31
0.0
 11
10.17253349
 21
8.4974217163
 31
0.0
 11
10.1479245314
 21
8.5027993544
 31
0.0
 11
10.1235452835
 21
8.506376706
 31
0.0
 11
10.0992760243
 21
8.5081652447
 31
0.0
 11
10.0750569573
 21
8.508165236
 31
0.0
 11
10.0507877189
 21
8.5063766821
 31
0.0
 11
10.0264084938
 21
8.502799319
 31
0.0
 11
10.0017995625
 21
8.4974216741
 31
0.0
 11
9.9768595784
 21
8.4902251676
 31
0.0
 11
9.9513866175
 21
8.4811446288
 31
0.0
 11
9.9251821765
 21
8.470083734
 31
0.0
 11
9.8980223786
 21
8.4569046618
 31
0.0
  0
SPLINE
  5
50E
100
AcDbEntity
  8
0
100
AcDbSpline
 62
7
  6
CONTINUOUS
 70
0
 71
3
 72
20
 73
16
 74
14
 42
0.0000001
 43
0.0000001
 44
0.0000000001
 12
-0.3682900609
 22
-0.1096610368
 32
0.0
 13
-0.3682900609
 23
0.1096610368
 33
0.0
 40
0.0
 40
0.0
 40
0.0
 40
0.0
 40
0.0808994998
 40
0.1595041732
 40
0.2364443629
 40
0.3123001971
 40
0.3875896994
 40
0.4625546174
 40
0.5374457684
 40
0.6124106919
 40
0.6877001886
 40
0.763556004
 40
0.8404960122
 40
0.9191005132
 40
1.0
 40
1.0
 40
1.0
 40
1.0
 10
9.838794806
 20
8.0834683277
 30
0.0
 10
9.8288633121
 20
8.0805111533
 30
0.0
 10
9.8091793146
 20
8.075017584
 30
0.0
 10
9.7797097322
 20
8.0679988772
 30
0.0
 10
9.750606431
 20
8.0623347972
 30
0.0
 10
9.7216981449
 20
8.0580387288
 30
0.0
 10
9.692869375
 20
8.0551430675
 30
0.0
 10
9.6640553395
 20
8.0536834945
 30
0.0
 10
9.6352456621
 20
8.0536834983
 30
0.0
 10
9.6064316271
 20
8.0551430788
 30
0.0
 10
9.5776028603
 20
8.0580387471
 30
0.0
 10
9.5486946013
 20
8.0623348181
 30
0.0
 10
9.5195913478
 20
8.0679988935
 30
0.0
 10
9.4901218116
 20
8.0750175908
 30
0.0
 10
9.4704378369
 20
8.0805111538
 30
0.0
 10
9.4605063446
 20
8.0834683277
 30
0.0
 11
9.838794806
 21
8.0834683277
 31
0.0
 11
9.8088456872
 21
8.0751337406
 31
0.0
 11
9.7794572423
 21
8.0681563061
 31
0.0
 11
9.7504323531
 21
8.0625268447
 31
0.0
 11
9.7215976026
 21
8.0582575832
 31
0.0
 11
9.6928098503
 21
8.055377476
 31
0.0
 11
9.6640396969
 21
8.0539261277
 31
0.0
 11
9.6352613055
 21
8.0539261315
 31
0.0
 11
9.6064911504
 21
8.0553774873
 31
0.0
 11
9.5777034009
 21
8.0582576015
 31
0.0
 11
9.5488686585
 21
8.0625268685
 31
0.0
 11
9.5198438387
 21
8.0681563211
 31
0.0
 11
9.4904554586
 21
8.0751337419
 31
0.0
 11
9.4605063446
 21
8.0834683277
 31
0.0
  0
SPLINE
  5
50F
100
AcDbEntity
  8
0
100
AcDbSpline
 62
7
  6
CONTINUOUS
 70
0
 71
3
 72
22
 73
18
 74
16
 42
0.0000001
 43
0.0000001
 44
0.0000000001
 12
-0.3517854162
 22
0.1814265356
 32
0.0
 13
-0.3517854162
 23
-0.1814265356
 33
0.0
 40
0.0
 40
0.0
 40
0.0
 40
0.0
 40
0.0762692529
 40
0.1481294875
 40
0.2164524466
 40
0.28203266
 40
0.345672879
 40
0.40792517
 40
0.4694062844
 40
0.5305943147
 40
0.5920753794
 40
0.6543276175
 40
0.7179677727
 40
0.7835478851
 40
0.851870604
 40
0.9237306768
 40
1.0
 40
1.0
 40
1.0
 40
1.0
 10
9.838794806
 20
8.4569046618
 30
0.0
 10
9.8298513357
 20
8.4615170839
 30
0.0
 10
9.8122706744
 20
8.4700761047
 30
0.0
 10
9.7859618249
 20
8.4812206591
 30
0.0
 10
9.7603860523
 20
8.4903729298
 30
0.0
 10
9.7353352943
 20
8.4976312022
 30
0.0
 10
9.7106411596
 20
8.5030511794
 30
0.0
 10
9.6861631397
 20
8.506659591
 30
0.0
 10
9.6618097677
 20
8.5084628746
 30
0.0
 10
9.6374911522
 20
8.5084628658
 30
0.0
 10
9.613137795
 20
8.5066595665
 30
0.0
 10
9.588659799
 20
8.5030511435
 30
0.0
 10
9.5639656951
 20
8.4976311603
 30
0.0
 10
9.5389149912
 20
8.4903728935
 30
0.0
 10
9.5133392829
 20
8.4812206407
 30
0.0
 10
9.4870304738
 20
8.4700761033
 30
0.0
 10
9.4694498232
 20
8.4615170881
 30
0.0
 10
9.4605063446
 20
8.4569046618
 30
0.0
 11
9.838794806
 21
8.4569046618
 31
0.0
 11
9.8116350335
 21
8.4700837225
 31
0.0
 11
9.7854305333
 21
8.481144642
 31
0.0
 11
9.7599574813
 21
8.4902252079
 31
0.0
 11
9.735017456
 21
8.4974217163
 31
0.0
 11
9.7104084974
 21
8.5027993544
 31
0.0
 11
9.6860292495
 21
8.506376706
 31
0.0
 11
9.6617599903
 21
8.5081652447
 31
0.0
 11
9.6375409233
 21
8.508165236
 31
0.0
 11
9.6132716849
 21
8.5063766821
 31
0.0
 11
9.5888924598
 21
8.502799319
 31
0.0
 11
9.5642835285
 21
8.4974216741
 31
0.0
 11
9.5393435444
 21
8.4902251676
 31
0.0
 11
9.5138705835
 21
8.4811446288
 31
0.0
 11
9.4876661425
 21
8.470083734
 31
0.0
 11
9.4605063446
 21
8.4569046618
 31
0.0
  0
SPLINE
  5
510
100
AcDbEntity
  8
0
100
AcDbSpline
 62
7
  6
CONTINUOUS
 70
0
 71
3
 72
14
 73
10
 74
8
 42
0.0000001
 43
0.0000001
 44
0.0000000001
 12
0.0736614045
 22
-0.0425284317
 32
0.0
 13
0.0850547974
 23
-0.000592839
 33
0.0
 40
0.0
 40
0.0
 40
0.0
 40
0.0
 40
0.160620566
 40
0.3124433727
 40
0.4574495629
 40
0.5975344971
 40
0.7342430865
 40
0.8682512849
 40
1.0
 40
1.0
 40
1.0
 40
1.0
 10
9.5439085923
 20
7.3555193985
 30
0.0
 10
9.5478524378
 20
7.3532424182
 30
0.0
 10
9.5556305893
 20
7.3489932177
 30
0.0
 10
9.5673474946
 20
7.3434149088
 30
0.0
 10
9.5788547723
 20
7.3388034034
 30
0.0
 10
9.5902549374
 20
7.3351539692
 30
0.0
 10
9.6016073031
 20
7.3324881837
 30
0.0
 10
9.6129144955
 20
7.3308552095
 30
0.0
 10
9.6204501561
 20
7.3304358241
 30
0.0
 10
9.6241854429
 20
7.3304097888
 30
0.0
 11
9.5439085923
 21
7.3555193985
 31
0.0
 11
9.5559089709
 21
7.3489896265
 31
0.0
 11
9.5675783209
 21
7.3434591107
 31
0.0
 11
9.5790352629
 21
7.3388917915
 31
0.0
 11
9.5903892415
 21
7.3352780945
 31
0.0
 11
9.6017136946
 21
7.3326385423
 31
0.0
 11
9.6129955885
 21
7.3310135807
 31
0.0
 11
9.6241854429
 21
7.3304097888
 31
0.0
  0
SPLINE
  5
511
100
AcDbEntity
  8
0
100
AcDbSpline
 62
7
  6
CONTINUOUS
 70
0
 71
3
 72
14
 73
10
 74
8
 42
0.0000001
 43
0.0000001
 44
0.0000000001
 12
-0.0736960711
 22
0.0425484465
 32
0.0
 13
-0.0850948259
 23
0.0005931181
 33
0.0
 40
0.0
 40
0.0
 40
0.0
 40
0.0
 40
0.160618958
 40
0.3124384798
 40
0.4574379713
 40
0.5975169023
 40
0.7342291049
 40
0.8681922153
 40
1.0
 40
1.0
 40
1.0
 40
1.0
 10
10.1929085923
 20
7.5242899251
 30
0.0
 10
10.1889629303
 20
7.5265679541
 30
0.0
 10
10.1811811903
 20
7.5308190094
 30
0.0
 10
10.1694588311
 20
7.5363993125
 30
0.0
 10
10.1579461882
 20
7.5410119638
 30
0.0
 10
10.1465404244
 20
7.5446614554
 30
0.0
 10
10.1351835693
 20
7.5473267478
 30
0.0
 10
10.123870035
 20
7.5489558323
 30
0.0
 10
10.1163306568
 20
7.5493786026
 30
0.0
 10
10.1125919366
 20
7.5494046618
 30
0.0
 11
10.1929085923
 21
7.5242899251
 31
0.0
 11
10.1809026053
 21
7.5308225557
 31
0.0
 11
10.16922778
 21
7.5363550564
 31
0.0
 11
10.157765608
 21
7.5409233918
 31
0.0
 11
10.1464063179
 21
7.544537205
 31
0.0
 11
10.1350757586
 21
7.5471760209
 31
0.0
 11
10.1237919869
 21
7.5487986578
 31
0.0
 11
10.1125919366
 21
7.5494046618
 31
0.0
  0
SPLINE
  5
512
100
AcDbEntity
  8
0
100
AcDbSpline
 62
7
  6
CONTINUOUS
 70
0
 71
3
 72
10
 73
6
 74
4
 42
0.0000001
 43
0.0000001
 44
0.0000000001
 12
0.0020442035
 22
0.0
 32
0.0
 13
0.0020442035
 23
-0.0
 33
0.0
 40
0.0
 40
0.0
 40
0.0
 40
0.0
 40
0.3298866981
 40
0.6628731096
 40
1.0
 40
1.0
 40
1.0
 40
1.0
 10
10.1106269866
 20
7.3304100043
 30
0.0
 10
10.1108517717
 20
7.3304100043
 30
0.0
 10
10.1113034205
 20
7.3304028373
 30
0.0
 10
10.1119848467
 20
7.3304029343
 30
0.0
 10
10.1124414296
 20
7.3304099971
 30
0.0
 10
10.1126711483
 20
7.3304099971
 30
0.0
 11
10.1106269866
 21
7.3304100043
 31
0.0
 11
10.111301321
 21
7.3304046618
 31
0.0
 11
10.1119820129
 21
7.3304046618
 31
0.0
 11
10.1126711483
 21
7.3304099971
 31
0.0
  0
SPLINE
  5
513
100
AcDbEntity
  8
0
100
AcDbSpline
 62
7
  6
CONTINUOUS
 70
0
 71
3
 72
10
 73
6
 74
4
 42
0.0000001
 43
0.0000001
 44
0.0000000001
 12
0.0034660875
 22
0.0
 32
0.0
 13
0.0034660875
 23
-0.0
 33
0.0
 40
0.0
 40
0.0
 40
0.0
 40
0.0
 40
0.3300278564
 40
0.6628954485
 40
1.0
 40
1.0
 40
1.0
 40
1.0
 10
9.8667157754
 20
7.3304097822
 30
0.0
 10
9.8670970772
 20
7.3304097822
 30
0.0
 10
9.8678629433
 20
7.3304029439
 30
0.0
 10
9.8690183199
 20
7.3304029052
 30
0.0
 10
9.8697923613
 20
7.3304099948
 30
0.0
 10
9.8701818393
 20
7.3304099948
 30
0.0
 11
9.8667157754
 21
7.3304097822
 31
0.0
 11
9.8678596693
 21
7.3304046618
 31
0.0
 11
9.8690134175
 21
7.3304046618
 31
0.0
 11
9.8701818393
 21
7.3304099948
 31
0.0
  0
SPLINE
  5
514
100
AcDbEntity
  8
0
100
AcDbSpline
 62
7
  6
CONTINUOUS
 70
0
 71
3
 72
10
 73
6
 74
4
 42
0.0000001
 43
0.0000001
 44
0.0000000001
 12
0.0021085171
 22
0.0
 32
0.0
 13
0.0021085171
 23
-0.0
 33
0.0
 40
0.0
 40
0.0
 40
0.0
 40
0.0
 40
0.3305685375
 40
0.6635186906
 40
1.0
 40
1.0
 40
1.0
 40
1.0
 10
9.6241854429
 20
7.3304097888
 30
0.0
 10
9.6244177794
 20
7.3304097888
 30
0.0
 10
9.6248840951
 20
7.3304030462
 30
0.0
 10
9.625586961
 20
7.3304025474
 30
0.0
 10
9.6260574228
 20
7.330410754
 30
0.0
 10
9.626293915
 20
7.330410754
 30
0.0
 11
9.6241854429
 21
7.3304097888
 31
0.0
 11
9.6248824335
 21
7.3304046618
 31
0.0
 11
9.6255844646
 21
7.3304046618
 31
0.0
 11
9.626293915
 21
7.330410754
 31
0.0
  0
SPLINE
  5
515
100
AcDbEntity
  8
0
100
AcDbSpline
 62
7
  6
CONTINUOUS
 70
0
 71
3
 72
18
 73
14
 74
12
 42
0.0000001
 43
0.0000001
 44
0.0000000001
 12
-0.0737059037
 22
0.0425541233
 32
0.0
 13
-0.0851061794
 23
0.0005931973
 33
0.0
 40
0.0
 40
0.0
 40
0.0
 40
0.0
 40
0.1030435058
 40
0.2021962131
 40
0.298042187
 40
0.3911412945
 40
0.4819635666
 40
0.570931514
 40
0.6584146348
 40
0.7447389294
 40
0.8302171957
 40
0.9151479581
 40
1.0
 40
1.0
 40
1.0
 40
1.0
 10
10.1929085923
 20
7.5242899251
 30
0.0
 10
10.1903769541
 20
7.5257515671
 30
0.0
 10
10.1853652813
 20
7.5285444864
 30
0.0
 10
10.1778434919
 20
7.5324100605
 30
0.0
 10
10.1704405766
 20
7.5358784861
 30
0.0
 10
10.1631236103
 20
7.5389592177
 30
0.0
 10
10.1558639908
 20
7.5416558084
 30
0.0
 10
10.148639127
 20
7.5439660992
 30
0.0
 10
10.1414319624
 20
7.5458842701
 30
0.0
 10
10.1342306607
 20
7.5474005682
 30
0.0
 10
10.1270280102
 20
7.548509899
 30
0.0
 10
10.119814931
 20
7.5491886031
 30
0.0
 10
10.114999081
 20
7.5493878838
 30
0.0
 10
10.1125919366
 20
7.5494046618
 30
0.0
 11
10.1929085923
 21
7.5242899251
 31
0.0
 11
10.1852451521
 21
7.5285539596
 31
0.0
 11
10.177736922
 21
7.5324060186
 31
0.0
 11
10.1703477301
 21
7.535861609
 31
0.0
 11
10.1630429009
 21
7.5389310311
 31
0.0
 11
10.1557949809
 21
7.541617347
 31
0.0
 11
10.1485812547
 21
7.5439186325
 31
0.0
 11
10.1413849206
 21
7.5458288071
 31
0.0
 11
10.1341949591
 21
7.547339281
 31
0.0
 11
10.1270039604
 21
7.5484410005
 31
0.0
 11
10.1198081558
 21
7.5491257168
 31
0.0
 11
10.1125919366
 21
7.5494046618
 31
0.0
  0
SPLINE
  5
516
100
AcDbEntity
  8
0
100
AcDbSpline
 62
7
  6
CONTINUOUS
 70
0
 71
3
 72
13
 73
9
 74
7
 42
0.0000001
 43
0.0000001
 44
0.0000000001
 12
0.0128632737
 22
-0.07295125
 32
0.0
 13
0.0067053375
 23
-0.0737733589
 33
0.0
 40
0.0
 40
0.0
 40
0.0
 40
0.0
 40
0.1732141492
 40
0.3439874311
 40
0.5129309063
 40
0.6806398087
 40
0.8477106467
 40
1.0
 40
1.0
 40
1.0
 40
1.0
 10
10.5925197946
 20
12.0190006662
 30
0.0
 10
10.5932624949
 20
12.0147886033
 30
0.0
 10
10.5946877618
 20
12.0064149701
 30
0.0
 10
10.5966542196
 20
11.9939028104
 30
0.0
 10
10.5984329257
 20
11.9814998376
 30
0.0
 10
10.6000234536
 20
11.9691634667
 30
0.0
 10
10.601382368
 20
11.957213194
 30
0.0
 10
10.6021551033
 20
11.9493651346
 30
0.0
 10
10.6024954871
 20
11.9456201689
 30
0.0
 11
10.5925197946
 21
12.0190006662
 31
0.0
 11
10.5946708713
 21
12.0063511378
 31
0.0
 11
10.5966330414
 21
11.9938539278
 31
0.0
 11
10.5984077655
 21
11.981465639
 31
0.0
 11
10.599994588
 21
11.9691440856
 31
0.0
 11
10.601391239
 21
11.9568470985
 31
0.0
 11
10.6024954871
 21
11.9456201689
 31
0.0
  0
SPLINE
  5
517
100
AcDbEntity
  8
0
100
AcDbSpline
 62
7
  6
CONTINUOUS
 70
0
 71
3
 72
8
 73
4
 74
2
 42
0.0000001
 43
0.0000001
 44
0.0000000001
 12
0.0000977201
 22
-0.0010751344
 32
0.0
 13
0.0000961729
 23
-0.0010752742
 33
0.0
 40
0.0
 40
0.0
 40
0.0
 40
0.0
 40
1.0
 40
1.0
 40
1.0
 40
1.0
 10
10.6024954871
 20
11.9456201689
 30
0.0
 10
10.6025280605
 20
11.9452617908
 30
0.0
 10
10.6025603765
 20
11.9449033893
 30
0.0
 10
10.6025924341
 20
11.9445449645
 30
0.0
 11
10.6024954871
 21
11.9456201689
 31
0.0
 11
10.6025924341
 21
11.9445449645
 31
0.0
  0
SPLINE
  5
518
100
AcDbEntity
  8
0
100
AcDbSpline
 62
7
  6
CONTINUOUS
 70
0
 71
3
 72
12
 73
8
 74
6
 42
0.0000001
 43
0.0000001
 44
0.0000000001
 12
0.0055257351
 22
-0.0617812502
 32
0.0
 13
0.0
 23
-0.0620271663
 33
0.0
 40
0.0
 40
0.0
 40
0.0
 40
0.0
 40
0.1993761335
 40
0.3990641653
 40
0.5990604086
 40
0.7993741517
 40
1.0
 40
1.0
 40
1.0
 40
1.0
 10
10.6025924341
 20
11.9445449645
 30
0.0
 10
10.6029596674
 20
11.9404390623
 30
0.0
 10
10.6036268382
 20
11.9322147478
 30
0.0
 10
10.6044160022
 20
11.9198532764
 30
0.0
 10
10.6049863435
 20
11.9074603213
 30
0.0
 10
10.605331534
 20
11.8950396706
 30
0.0
 10
10.6054085923
 20
11.8867497494
 30
0.0
 10
10.6054085923
 20
11.8826016651
 30
0.0
 11
10.6025924341
 21
11.9445449645
 31
0.0
 11
10.6035910047
 21
11.9322186094
 31
0.0
 11
10.6043790052
 21
11.9198576183
 31
0.0
 11
10.6049484572
 21
11.9074654951
 31
0.0
 11
10.6052931018
 21
11.895045382
 31
0.0
 11
10.6054085923
 21
11.8826016651
 31
0.0
  0
SPLINE
  5
519
100
AcDbEntity
  8
0
100
AcDbSpline
 62
7
  6
CONTINUOUS
 70
0
 71
3
 72
18
 73
14
 74
12
 42
0.0000001
 43
0.0000001
 44
0.0000000001
 12
0.0
 22
-0.1371833588
 32
0.0
 13
-0.0238216403
 23
-0.1350992354
 33
0.0
 40
0.0
 40
0.0
 40
0.0
 40
0.0
 40
0.091060793
 40
0.1819603957
 40
0.2726790973
 40
0.3632037437
 40
0.4535155543
 40
0.5436968198
 40
0.6338893406
 40
0.724311057
 40
0.8152663583
 40
0.9070587902
 40
1.0
 40
1.0
 40
1.0
 40
1.0
 10
10.6054085923
 20
11.8826016651
 30
0.0
 10
10.6054085923
 20
11.8784376566
 30
0.0
 10
10.605330949
 20
11.8701168026
 30
0.0
 10
10.6049832312
 20
11.8576519688
 30
0.0
 10
10.6044090532
 20
11.8452200403
 30
0.0
 10
10.6036152642
 20
11.8328271861
 30
0.0
 10
10.6026101894
 20
11.8204743773
 30
0.0
 10
10.6014026257
 20
11.8081550289
 30
0.0
 10
10.6000004721
 20
11.7958513009
 30
0.0
 10
10.5984097892
 20
11.7835348841
 30
0.0
 10
10.5966343377
 20
11.7711698667
 30
0.0
 10
10.5946755999
 20
11.7587159746
 30
0.0
 10
10.5932577986
 20
11.7503880928
 30
0.0
 10
10.5925197946
 20
11.746202664
 30
0.0
 11
10.6054085923
 21
11.8826016651
 31
0.0
 11
10.6052922141
 21
11.8701101818
 31
0.0
 11
10.6049450281
 21
11.8576451031
 31
0.0
 11
10.6043717143
 21
11.8452132194
 31
0.0
 11
10.6035790513
 21
11.8328200678
 31
0.0
 11
10.6025756959
 21
11.8204714858
 31
0.0
 11
10.601370358
 21
11.8081589748
 31
0.0
 11
10.5999710565
 21
11.7958654427
 31
0.0
 11
10.5983839709
 21
11.7835630374
 31
0.0
 11
10.5966123711
 21
11.7712118925
 31
0.0
 11
10.5946577656
 21
11.7587721213
 31
0.0
 11
10.5925197946
 21
11.746202664
 31
0.0
  0
SPLINE
  5
51A
100
AcDbEntity
  8
0
100
AcDbSpline
 62
7
  6
CONTINUOUS
 70
0
 71
3
 72
18
 73
14
 74
12
 42
0.0000001
 43
0.0000001
 44
0.0000000001
 12
0.0239924614
 22
-0.2721360204
 32
0.0
 13
0.0
 23
-0.2731916028
 33
0.0
 40
0.0
 40
0.0
 40
0.0
 40
0.0
 40
0.0926697386
 40
0.1843040557
 40
0.2751747868
 40
0.3655616141
 40
0.4557223048
 40
0.5459292529
 40
0.636326346
 40
0.7269181252
 40
0.8177226976
 40
0.9087484694
 40
1.0
 40
1.0
 40
1.0
 40
1.0
 10
10.5925197946
 20
11.746202664
 30
0.0
 10
10.5932609196
 20
11.737796406
 30
0.0
 10
10.5946841965
 20
11.7210732935
 30
0.0
 10
10.596647783
 20
11.696091688
 30
0.0
 10
10.5984258432
 20
11.671304584
 30
0.0
 10
10.6000167072
 20
11.6466392148
 30
0.0
 10
10.6014171986
 20
11.622022825
 30
0.0
 10
10.6026219878
 20
11.5973951213
 30
0.0
 10
10.6036236865
 20
11.5727190078
 30
0.0
 10
10.6044140376
 20
11.547980751
 30
0.0
 10
10.6049853427
 20
11.5231791767
 30
0.0
 10
10.6053313257
 20
11.4983133586
 30
0.0
 10
10.6054085923
 20
11.4817143791
 30
0.0
 10
10.6054085923
 20
11.4734046618
 30
0.0
 11
10.5925197946
 21
11.746202664
 31
0.0
 11
10.5946648569
 21
11.7209771083
 31
0.0
 11
10.596624699
 21
11.6960202164
 31
0.0
 11
10.5983991874
 21
11.6712585967
 31
0.0
 11
10.5999868668
 21
11.6466167688
 31
0.0
 11
10.6013843759
 21
11.6220253028
 31
0.0
 11
10.602587082
 21
11.5974108877
 31
0.0
 11
10.6035874919
 21
11.5727354323
 31
0.0
 11
10.6043767369
 21
11.5479991067
 31
0.0
 11
10.6049472328
 21
11.5231986209
 31
0.0
 11
10.6052927171
 21
11.4983335444
 31
0.0
 11
10.6054085923
 21
11.4734046618
 31
0.0
  0
SPLINE
  5
51B
100
AcDbEntity
  8
0
100
AcDbSpline
 62
7
  6
CONTINUOUS
 70
0
 71
3
 72
18
 73
14
 74
12
 42
0.0000001
 43
0.0000001
 44
0.0000000001
 12
-0.0
 22
-0.2731916028
 32
0.0
 13
-0.0239924614
 23
-0.2721360204
 33
0.0
 40
0.0
 40
0.0
 40
0.0
 40
0.0
 40
0.0912547524
 40
0.1822827058
 40
0.2730889183
 40
0.3636820853
 40
0.4540809468
 40
0.5442901928
 40
0.6344511264
 40
0.7248364132
 40
0.8157043228
 40
0.907334712
 40
1.0
 40
1.0
 40
1.0
 40
1.0
 10
10.6054085923
 20
11.4734046618
 30
0.0
 10
10.6054085923
 20
11.4650946511
 30
0.0
 10
10.6053313207
 20
11.4484951796
 30
0.0
 10
10.6049853179
 20
11.4236287203
 30
0.0
 10
10.6044139865
 20
11.398826672
 30
0.0
 10
10.6036236029
 20
11.3740879792
 30
0.0
 10
10.6026218624
 20
11.3494113703
 30
0.0
 10
10.6014170288
 20
11.3247832759
 30
0.0
 10
10.6000165055
 20
11.3001667967
 30
0.0
 10
10.5984256415
 20
11.2755018033
 30
0.0
 10
10.5966476167
 20
11.2507154537
 30
0.0
 10
10.5946840986
 20
11.2257348659
 30
0.0
 10
10.593260884
 20
11.2090125138
 30
0.0
 10
10.5925197946
 20
11.2006066596
 30
0.0
 11
10.6054085923
 21
11.4734046618
 31
0.0
 11
10.6052927089
 21
11.4484748991
 31
0.0
 11
10.6049472055
 21
11.4236092268
 31
0.0
 11
10.604376684
 21
11.3988082934
 31
0.0
 11
10.6035874084
 21
11.3740715894
 31
0.0
 11
10.6025869574
 21
11.3493956521
 31
0.0
 11
10.6013841955
 21
11.3247806113
 31
0.0
 11
10.5999866559
 21
11.3001890805
 31
0.0
 11
10.5983989795
 21
11.2755476742
 31
0.0
 11
10.5966245275
 21
11.2507868247
 31
0.0
 11
10.5946647578
 21
11.2258310035
 31
0.0
 11
10.5925197946
 21
11.2006066596
 31
0.0
  0
SPLINE
  5
51C
100
AcDbEntity
  8
0
100
AcDbSpline
 62
7
  6
CONTINUOUS
 70
0
 71
3
 72
18
 73
14
 74
12
 42
0.0000001
 43
0.0000001
 44
0.0000000001
 12
0.0238216407
 22
-0.1350992377
 32
0.0
 13
0.0
 23
-0.1371833612
 33
0.0
 40
0.0
 40
0.0
 40
0.0
 40
0.0
 40
0.0935326425
 40
0.185747259
 40
0.2769738114
 40
0.367533716
 40
0.4577490768
 40
0.5478521171
 40
0.6379996138
 40
0.7282881346
 40
0.8187160126
 40
0.9092874476
 40
1.0
 40
1.0
 40
1.0
 40
1.0
 10
10.5925197946
 20
11.2006066596
 30
0.0
 10
10.5932624949
 20
11.1963945967
 30
0.0
 10
10.5946877618
 20
11.1880209635
 30
0.0
 10
10.5966542196
 20
11.1755088039
 30
0.0
 10
10.5984329257
 20
11.163105831
 30
0.0
 10
10.6000234536
 20
11.1507694601
 30
0.0
 10
10.6014230277
 20
11.1384616262
 30
0.0
 10
10.6026265071
 20
11.1261519727
 30
0.0
 10
10.6036268382
 20
11.1138207412
 30
0.0
 10
10.6044160022
 20
11.1014592699
 30
0.0
 10
10.6049863435
 20
11.0890663148
 30
0.0
 10
10.605331534
 20
11.076645664
 30
0.0
 10
10.6054085923
 20
11.0683557428
 30
0.0
 10
10.6054085923
 20
11.0642076585
 30
0.0
 11
10.5925197946
 21
11.2006066596
 31
0.0
 11
10.5946708713
 21
11.1879571312
 31
0.0
 11
10.5966330414
 21
11.1754599212
 31
0.0
 11
10.5984077655
 21
11.1630716324
 31
0.0
 11
10.599994588
 21
11.150750079
 31
0.0
 11
10.601391239
 21
11.1384530919
 31
0.0
 11
10.6025924341
 21
11.126150958
 31
0.0
 11
10.6035910047
 21
11.1138246028
 31
0.0
 11
10.6043790052
 21
11.1014636117
 31
0.0
 11
10.6049484572
 21
11.0890714885
 31
0.0
 11
10.6052931018
 21
11.0766513754
 31
0.0
 11
10.6054085923
 21
11.0642076585
 31
0.0
  0
SPLINE
  5
51D
100
AcDbEntity
  8
0
100
AcDbSpline
 62
7
  6
CONTINUOUS
 70
0
 71
3
 72
12
 73
8
 74
6
 42
0.0000001
 43
0.0000001
 44
0.0000000001
 12
0.0
 22
-0.062214787
 32
0.0
 13
-0.0055579659
 23
-0.0619667383
 33
0.0
 40
0.0
 40
0.0
 40
0.0
 40
0.0
 40
0.2007886877
 40
0.4012219513
 40
0.601256329
 40
0.8008628156
 40
1.0
 40
1.0
 40
1.0
 40
1.0
 10
10.6054085923
 20
11.0642076585
 30
0.0
 10
10.6054085923
 20
11.06004365
 30
0.0
 10
10.605330949
 20
11.051722796
 30
0.0
 10
10.6049832312
 20
11.0392579622
 30
0.0
 10
10.6044090532
 20
11.0268260338
 30
0.0
 10
10.6036152642
 20
11.0144331795
 30
0.0
 10
10.6029446285
 20
11.0061907732
 30
0.0
 10
10.6025756959
 20
11.0020774793
 30
0.0
 11
10.6054085923
 21
11.0642076585
 31
0.0
 11
10.6052922141
 21
11.0517161752
 31
0.0
 11
10.6049450281
 21
11.0392510965
 31
0.0
 11
10.6043717143
 21
11.0268192128
 31
0.0
 11
10.6035790513
 21
11.0144260612
 31
0.0
 11
10.6025756959
 21
11.0020774793
 31
0.0
  0
SPLINE
  5
51E
100
AcDbEntity
  8
0
100
AcDbSpline
 62
7
  6
CONTINUOUS
 70
0
 71
3
 72
8
 73
4
 74
2
 42
0.0000001
 43
0.0000001
 44
0.0000000001
 12
-0.0000796153
 22
-0.0008876452
 32
0.0
 13
-0.0000806694
 23
-0.0008875498
 33
0.0
 40
0.0
 40
0.0
 40
0.0
 40
0.0
 40
1.0
 40
1.0
 40
1.0
 40
1.0
 10
10.6025756959
 20
11.0020774793
 30
0.0
 10
10.6025491575
 20
11.0017815975
 30
0.0
 10
10.6025224431
 20
11.0014857316
 30
0.0
 10
10.6024955533
 20
11.0011898817
 30
0.0
 11
10.6025756959
 21
11.0020774793
 31
0.0
 11
10.6024955533
 21
11.0011898817
 31
0.0
  0
SPLINE
  5
51F
100
AcDbEntity
  8
0
100
AcDbSpline
 62
7
  6
CONTINUOUS
 70
0
 71
3
 72
13
 73
9
 74
7
 42
0.0000001
 43
0.0000001
 44
0.0000000001
 12
-0.0067053273
 22
-0.0737740997
 32
0.0
 13
-0.0128634009
 23
-0.0729519717
 33
0.0
 40
0.0
 40
0.0
 40
0.0
 40
0.0
 40
0.1549753994
 40
0.3220022845
 40
0.4894536154
 40
0.6578930882
 40
0.8278828372
 40
1.0
 40
1.0
 40
1.0
 40
1.0
 10
10.6024955533
 20
11.0011898817
 30
0.0
 10
10.6021491663
 20
10.9973788248
 30
0.0
 10
10.6013689879
 20
10.989465855
 30
0.0
 10
10.6000004721
 20
10.9774572943
 30
0.0
 10
10.5984097892
 20
10.9651408775
 30
0.0
 10
10.5966343377
 20
10.9527758601
 30
0.0
 10
10.5946755999
 20
10.9403219681
 30
0.0
 10
10.5932577986
 20
10.9319940862
 30
0.0
 10
10.5925197946
 20
10.9278086574
 30
0.0
 11
10.6024955533
 21
11.0011898817
 31
0.0
 11
10.601370358
 21
10.9897649682
 31
0.0
 11
10.5999710565
 21
10.9774714362
 31
0.0
 11
10.5983839709
 21
10.9651690308
 31
0.0
 11
10.5966123711
 21
10.9528178859
 31
0.0
 11
10.5946577656
 21
10.9403781147
 31
0.0
 11
10.5925197946
 21
10.9278086574
 31
0.0
  0
SPLINE
  5
520
100
AcDbEntity
  8
0
100
AcDbSpline
 62
7
  6
CONTINUOUS
 70
0
 71
3
 72
29
 73
25
 74
23
 42
0.0000001
 43
0.0000001
 44
0.0000000001
 12
-0.368309993
 22
-0.1096669717
 32
0.0
 13
-0.368309993
 23
0.1096669717
 33
0.0
 40
0.0
 40
0.0
 40
0.0
 40
0.0
 40
0.0481532247
 40
0.0953500039
 40
0.1417627688
 40
0.1875563829
 40
0.2328736415
 40
0.2778306399
 40
0.3225218035
 40
0.367030389
 40
0.4114136483
 40
0.4557246731
 40
0.5000000002
 40
0.5442753274
 40
0.5885863522
 40
0.6329696115
 40
0.677478197
 40
0.7221693606
 40
0.767126359
 40
0.8124436174
 40
0.8582372315
 40
0.9046499962
 40
0.9518467752
 40
1.0
 40
1.0
 40
1.0
 40
1.0
 10
10.27631084
 20
8.0834683277
 30
0.0
 10
10.2703990687
 20
8.0817080549
 30
0.0
 10
10.2586567514
 20
8.0783424932
 30
0.0
 10
10.2410936627
 20
8.0737215644
 30
0.0
 10
10.2237228541
 20
8.0695754409
 30
0.0
 10
10.2064925383
 20
8.0658992717
 30
0.0
 10
10.1893581825
 20
8.0626928767
 30
0.0
 10
10.1722847791
 20
8.0599602223
 30
0.0
 10
10.1552457322
 20
8.0577079801
 30
0.0
 10
10.1382229681
 20
8.0559443111
 30
0.0
 10
10.1212047733
 20
8.0546773408
 30
0.0
 10
10.1041863968
 20
8.0539140512
 30
0.0
 10
10.0871666092
 20
8.0536590777
 30
0.0
 10
10.0701468217
 20
8.0539140512
 30
0.0
 10
10.0531284451
 20
8.0546773408
 30
0.0
 10
10.0361102503
 20
8.0559443111
 30
0.0
 10
10.0190874862
 20
8.0577079801
 30
0.0
 10
10.0020484393
 20
8.0599602224
 30
0.0
 10
9.9849750359
 20
8.0626928767
 30
0.0
 10
9.9678406802
 20
8.0658992718
 30
0.0
 10
9.9506103644
 20
8.0695754409
 30
0.0
 10
9.9332395559
 20
8.0737215644
 30
0.0
 10
9.9156764673
 20
8.0783424932
 30
0.0
 10
9.9039341499
 20
8.0817080549
 30
0.0
 10
9.8980223786
 20
8.0834683277
 30
0.0
 11
10.27631084
 21
8.0834683277
 31
0.0
 11
10.2585209439
 21
8.0783744099
 31
0.0
 11
10.2409794515
 21
8.0737639283
 31
0.0
 11
10.2236297833
 21
8.0696273647
 31
0.0
 11
10.2064182353
 21
8.0659594201
 31
0.0
 11
10.1892996908
 21
8.0627598596
 31
0.0
 11
10.1722397327
 21
8.0600328221
 31
0.0
 11
10.1552130581
 21
8.0577851956
 31
0.0
 11
10.1381996574
 21
8.0560249176
 31
0.0
 11
10.1211905365
 21
8.0547604122
 31
0.0
 11
10.1041792881
 21
8.053998542
 31
0.0
 11
10.0871666092
 21
8.053744046
 31
0.0
 11
10.0701539304
 21
8.053998542
 31
0.0
 11
10.053142682
 21
8.0547604122
 31
0.0
 11
10.0361335611
 21
8.0560249176
 31
0.0
 11
10.0191201603
 21
8.0577851956
 31
0.0
 11
10.0020934857
 21
8.0600328221
 31
0.0
 11
9.9850335277
 21
8.0627598597
 31
0.0
 11
9.9679149832
 21
8.0659594202
 31
0.0
 11
9.9507034353
 21
8.0696273647
 31
0.0
 11
9.9333537671
 21
8.0737639283
 31
0.0
 11
9.9158122747
 21
8.0783744099
 31
0.0
 11
9.8980223786
 21
8.0834683277
 31
0.0
  0
SPLINE
  5
521
100
AcDbEntity
  8
0
100
AcDbSpline
 62
7
  6
CONTINUOUS
 70
0
 71
3
 72
31
 73
27
 74
25
 42
0.0000001
 43
0.0000001
 44
0.0000000001
 12
-0.3518213634
 22
0.1814450746
 32
0.0
 13
-0.3518213634
 23
-0.1814450746
 33
0.0
 40
0.0
 40
0.0
 40
0.0
 40
0.0
 40
0.0483022806
 40
0.0946851827
 40
0.1394052167
 40
0.182705807
 40
0.2248005411
 40
0.2658840025
 40
0.3061246961
 40
0.3456872828
 40
0.3847199113
 40
0.4233590145
 40
0.4617446074
 40
0.5000000004
 40
0.5382553935
 40
0.5766409863
 40
0.6152800894
 40
0.654312718
 40
0.6938753045
 40
0.734115998
 40
0.7751994593
 40
0.8172941933
 40
0.8605947834
 40
0.9053148173
 40
0.9516977193
 40
1.0
 40
1.0
 40
1.0
 40
1.0
 10
10.27631084
 20
8.4569046618
 30
0.0
 10
10.2706462486
 20
8.4598260654
 30
0.0
 10
10.259457443
 20
8.4653906582
 30
0.0
 10
10.24273323
 20
8.4730575153
 30
0.0
 10
10.22637045
 20
8.4799062323
 30
0.0
 10
10.2103056464
 20
8.485974291
 30
0.0
 10
10.1944817192
 20
8.4912904416
 30
0.0
 10
10.1788505685
 20
8.4958748848
 30
0.0
 10
10.163370454
 20
8.4997415122
 30
0.0
 10
10.1480061966
 20
8.502899022
 30
0.0
 10
10.1327276771
 20
8.5053523895
 30
0.0
 10
10.1175090419
 20
8.5071040897
 30
0.0
 10
10.1023286853
 20
8.5081549716
 30
0.0
 10
10.0871666092
 20
8.5085052574
 30
0.0
 10
10.072004533
 20
8.5081549716
 30
0.0
 10
10.0568241764
 20
8.5071040897
 30
0.0
 10
10.0416055413
 20
8.5053523894
 30
0.0
 10
10.0263270218
 20
8.5028990219
 30
0.0
 10
10.0109627644
 20
8.4997415122
 30
0.0
 10
9.9954826499
 20
8.4958748847
 30
0.0
 10
9.9798514993
 20
8.4912904415
 30
0.0
 10
9.9640275721
 20
8.4859742909
 30
0.0
 10
9.9479627685
 20
8.4799062323
 30
0.0
 10
9.9315999887
 20
8.4730575153
 30
0.0
 10
9.9148757756
 20
8.4653906582
 30
0.0
 10
9.9036869701
 20
8.4598260654
 30
0.0
 10
9.8980223786
 20
8.4569046618
 30
0.0
 11
10.27631084
 21
8.4569046618
 31
0.0
 11
10.2591862834
 21
8.4654105019
 31
0.0
 11
10.2424918143
 21
8.4730535516
 31
0.0
 11
10.226158513
 21
8.4798804002
 31
0.0
 11
10.2101206365
 21
8.485929441
 31
0.0
 11
10.1943223929
 21
8.4912288477
 31
0.0
 11
10.1787147021
 21
8.4957990989
 31
0.0
 11
10.1632585595
 21
8.4996533202
 31
0.0
 11
10.1479170678
 21
8.5028007188
 31
0.0
 11
10.1326605871
 21
8.5052461969
 31
0.0
 11
10.1174650985
 21
8.5069920533
 31
0.0
 11
10.1023061444
 21
8.5080395143
 31
0.0
 11
10.0871666092
 21
8.5083886278
 31
0.0
 11
10.0720270739
 21
8.5080395143
 31
0.0
 11
10.0568681198
 21
8.5069920532
 31
0.0
 11
10.0416726312
 21
8.5052461969
 31
0.0
 11
10.0264161505
 21
8.5028007188
 31
0.0
 11
10.0110746589
 21
8.4996533202
 31
0.0
 11
9.9956185164
 21
8.4957990989
 31
0.0
 11
9.9800108255
 21
8.4912288476
 31
0.0
 11
9.964212582
 21
8.485929441
 31
0.0
 11
9.9481747056
 21
8.4798804002
 31
0.0
 11
9.9318414043
 21
8.4730535516
 31
0.0
 11
9.9151469353
 21
8.4654105019
 31
0.0
 11
9.8980223786
 21
8.4569046618
 31
0.0
  0
SPLINE
  5
522
100
AcDbEntity
  8
0
100
AcDbSpline
 62
7
  6
CONTINUOUS
 70
0
 71
3
 72
29
 73
25
 74
23
 42
0.0000001
 43
0.0000001
 44
0.0000000001
 12
-0.368309993
 22
-0.1096669717
 32
0.0
 13
-0.368309993
 23
0.1096669717
 33
0.0
 40
0.0
 40
0.0
 40
0.0
 40
0.0
 40
0.0481532247
 40
0.0953500039
 40
0.1417627688
 40
0.1875563829
 40
0.2328736415
 40
0.2778306399
 40
0.3225218035
 40
0.367030389
 40
0.4114136483
 40
0.4557246731
 40
0.5000000002
 40
0.5442753274
 40
0.5885863522
 40
0.6329696115
 40
0.677478197
 40
0.7221693606
 40
0.767126359
 40
0.8124436174
 40
0.8582372315
 40
0.9046499962
 40
0.9518467752
 40
1.0
 40
1.0
 40
1.0
 40
1.0
 10
9.838794806
 20
8.0834683277
 30
0.0
 10
9.8328830347
 20
8.0817080549
 30
0.0
 10
9.8211407174
 20
8.0783424932
 30
0.0
 10
9.8035776287
 20
8.0737215644
 30
0.0
 10
9.7862068201
 20
8.0695754409
 30
0.0
 10
9.7689765043
 20
8.0658992717
 30
0.0
 10
9.7518421486
 20
8.0626928767
 30
0.0
 10
9.7347687451
 20
8.0599602223
 30
0.0
 10
9.7177296983
 20
8.0577079801
 30
0.0
 10
9.7007069341
 20
8.0559443111
 30
0.0
 10
9.6836887393
 20
8.0546773408
 30
0.0
 10
9.6666703628
 20
8.0539140512
 30
0.0
 10
9.6496505752
 20
8.0536590777
 30
0.0
 10
9.6326307877
 20
8.0539140512
 30
0.0
 10
9.6156124111
 20
8.0546773408
 30
0.0
 10
9.5985942163
 20
8.0559443111
 30
0.0
 10
9.5815714522
 20
8.0577079801
 30
0.0
 10
9.5645324053
 20
8.0599602224
 30
0.0
 10
9.5474590019
 20
8.0626928767
 30
0.0
 10
9.5303246462
 20
8.0658992718
 30
0.0
 10
9.5130943304
 20
8.0695754409
 30
0.0
 10
9.4957235219
 20
8.0737215644
 30
0.0
 10
9.4781604333
 20
8.0783424932
 30
0.0
 10
9.4664181159
 20
8.0817080549
 30
0.0
 10
9.4605063446
 20
8.0834683277
 30
0.0
 11
9.838794806
 21
8.0834683277
 31
0.0
 11
9.8210049099
 21
8.0783744099
 31
0.0
 11
9.8034634175
 21
8.0737639283
 31
0.0
 11
9.7861137493
 21
8.0696273647
 31
0.0
 11
9.7689022013
 21
8.0659594201
 31
0.0
 11
9.7517836568
 21
8.0627598596
 31
0.0
 11
9.7347236987
 21
8.0600328221
 31
0.0
 11
9.7176970241
 21
8.0577851956
 31
0.0
 11
9.7006836234
 21
8.0560249176
 31
0.0
 11
9.6836745025
 21
8.0547604122
 31
0.0
 11
9.6666632541
 21
8.053998542
 31
0.0
 11
9.6496505752
 21
8.053744046
 31
0.0
 11
9.6326378964
 21
8.053998542
 31
0.0
 11
9.615626648
 21
8.0547604122
 31
0.0
 11
9.5986175271
 21
8.0560249176
 31
0.0
 11
9.5816041263
 21
8.0577851956
 31
0.0
 11
9.5645774517
 21
8.0600328221
 31
0.0
 11
9.5475174937
 21
8.0627598597
 31
0.0
 11
9.5303989492
 21
8.0659594202
 31
0.0
 11
9.5131874013
 21
8.0696273647
 31
0.0
 11
9.4958377331
 21
8.0737639283
 31
0.0
 11
9.4782962407
 21
8.0783744099
 31
0.0
 11
9.4605063446
 21
8.0834683277
 31
0.0
  0
SPLINE
  5
523
100
AcDbEntity
  8
0
100
AcDbSpline
 62
7
  6
CONTINUOUS
 70
0
 71
3
 72
31
 73
27
 74
25
 42
0.0000001
 43
0.0000001
 44
0.0000000001
 12
-0.3518213634
 22
0.1814450746
 32
0.0
 13
-0.3518213634
 23
-0.1814450746
 33
0.0
 40
0.0
 40
0.0
 40
0.0
 40
0.0
 40
0.0483022806
 40
0.0946851827
 40
0.1394052167
 40
0.182705807
 40
0.2248005411
 40
0.2658840025
 40
0.3061246961
 40
0.3456872828
 40
0.3847199113
 40
0.4233590145
 40
0.4617446074
 40
0.5000000004
 40
0.5382553935
 40
0.5766409863
 40
0.6152800894
 40
0.654312718
 40
0.6938753045
 40
0.734115998
 40
0.7751994593
 40
0.8172941933
 40
0.8605947834
 40
0.9053148173
 40
0.9516977193
 40
1.0
 40
1.0
 40
1.0
 40
1.0
 10
9.838794806
 20
8.4569046618
 30
0.0
 10
9.8331302146
 20
8.4598260654
 30
0.0
 10
9.821941409
 20
8.4653906582
 30
0.0
 10
9.805217196
 20
8.4730575153
 30
0.0
 10
9.7888544161
 20
8.4799062323
 30
0.0
 10
9.7727896124
 20
8.485974291
 30
0.0
 10
9.7569656852
 20
8.4912904416
 30
0.0
 10
9.7413345345
 20
8.4958748848
 30
0.0
 10
9.72585442
 20
8.4997415122
 30
0.0
 10
9.7104901626
 20
8.502899022
 30
0.0
 10
9.6952116431
 20
8.5053523895
 30
0.0
 10
9.6799930079
 20
8.5071040897
 30
0.0
 10
9.6648126513
 20
8.5081549716
 30
0.0
 10
9.6496505752
 20
8.5085052574
 30
0.0
 10
9.634488499
 20
8.5081549716
 30
0.0
 10
9.6193081424
 20
8.5071040897
 30
0.0
 10
9.6040895073
 20
8.5053523894
 30
0.0
 10
9.5888109878
 20
8.5028990219
 30
0.0
 10
9.5734467304
 20
8.4997415122
 30
0.0
 10
9.5579666159
 20
8.4958748847
 30
0.0
 10
9.5423354653
 20
8.4912904415
 30
0.0
 10
9.5265115381
 20
8.4859742909
 30
0.0
 10
9.5104467346
 20
8.4799062323
 30
0.0
 10
9.4940839547
 20
8.4730575153
 30
0.0
 10
9.4773597416
 20
8.4653906582
 30
0.0
 10
9.4661709361
 20
8.4598260654
 30
0.0
 10
9.4605063446
 20
8.4569046618
 30
0.0
 11
9.838794806
 21
8.4569046618
 31
0.0
 11
9.8216702494
 21
8.4654105019
 31
0.0
 11
9.8049757803
 21
8.4730535516
 31
0.0
 11
9.788642479
 21
8.4798804002
 31
0.0
 11
9.7726046026
 21
8.485929441
 31
0.0
 11
9.7568063589
 21
8.4912288477
 31
0.0
 11
9.7411986681
 21
8.4957990989
 31
0.0
 11
9.7257425256
 21
8.4996533202
 31
0.0
 11
9.7104010338
 21
8.5028007188
 31
0.0
 11
9.6951445531
 21
8.5052461969
 31
0.0
 11
9.6799490645
 21
8.5069920533
 31
0.0
 11
9.6647901104
 21
8.5080395143
 31
0.0
 11
9.6496505752
 21
8.5083886278
 31
0.0
 11
9.6345110399
 21
8.5080395143
 31
0.0
 11
9.6193520858
 21
8.5069920532
 31
0.0
 11
9.6041565972
 21
8.5052461969
 31
0.0
 11
9.5889001165
 21
8.5028007188
 31
0.0
 11
9.5735586249
 21
8.4996533202
 31
0.0
 11
9.5581024824
 21
8.4957990989
 31
0.0
 11
9.5424947915
 21
8.4912288476
 31
0.0
 11
9.526696548
 21
8.485929441
 31
0.0
 11
9.5106586716
 21
8.4798804002
 31
0.0
 11
9.4943253703
 21
8.4730535516
 31
0.0
 11
9.4776309013
 21
8.4654105019
 31
0.0
 11
9.4605063446
 21
8.4569046618
 31
0.0
  0
SPLINE
  5
524
100
AcDbEntity
  8
0
100
AcDbSpline
 62
7
  6
CONTINUOUS
 70
0
 71
3
 72
18
 73
14
 74
12
 42
0.0000001
 43
0.0000001
 44
0.0000000001
 12
0.073671286
 22
-0.0425341368
 32
0.0
 13
0.0850662073
 23
-0.0005929186
 33
0.0
 40
0.0
 40
0.0
 40
0.0
 40
0.0
 40
0.1030761856
 40
0.2022612965
 40
0.2981389842
 40
0.3912689756
 40
0.4821227708
 40
0.5711215529
 40
0.6586296292
 40
0.7449896056
 40
0.8305103933
 40
0.9154259317
 40
1.0
 40
1.0
 40
1.0
 40
1.0
 10
9.5439085923
 20
7.3555193985
 30
0.0
 10
9.546439844
 20
7.3540579796
 30
0.0
 10
9.5514507686
 20
7.3512654622
 30
0.0
 10
9.5589714359
 20
7.3474003894
 30
0.0
 10
9.5663732638
 20
7.3439323439
 30
0.0
 10
9.5736891859
 20
7.340851863
 30
0.0
 10
9.5809477932
 20
7.3381554036
 30
0.0
 10
9.5881715315
 20
7.3358451497
 30
0.0
 10
9.5953777229
 20
7.3339268992
 30
0.0
 10
9.6025784062
 20
7.3324101028
 30
0.0
 10
9.6097793956
 20
7.3313011922
 30
0.0
 10
9.6169818429
 20
7.3306205067
 30
0.0
 10
9.6217873111
 20
7.330426504
 30
0.0
 10
9.6241854429
 20
7.3304097888
 30
0.0
 11
9.5439085923
 21
7.3555193985
 31
0.0
 11
9.5515708517
 21
7.3512559957
 31
0.0
 11
9.5590779767
 21
7.3474044265
 31
0.0
 11
9.5664660916
 21
7.3439492085
 31
0.0
 11
9.5737698443
 21
7.3408800493
 31
0.0
 11
9.5810167934
 21
7.338193844
 31
0.0
 11
9.5882295406
 21
7.3358925603
 31
0.0
 11
9.5954244507
 21
7.3339823765
 31
0.0
 11
9.6026139146
 21
7.3324715543
 31
0.0
 11
9.6098050404
 21
7.331369341
 31
0.0
 11
9.6169961179
 21
7.3306844575
 31
0.0
 11
9.6241854429
 21
7.3304097888
 31
0.0
  0
SPLINE
  5
525
100
AcDbEntity
  8
0
100
AcDbSpline
 62
7
  6
CONTINUOUS
 70
0
 71
3
 72
18
 73
14
 74
12
 42
0.0000001
 43
0.0000001
 44
0.0000000001
 12
0.0850266118
 22
0.0006201762
 32
0.0
 13
0.0736371645
 23
0.0425144368
 33
0.0
 40
0.0
 40
0.0
 40
0.0
 40
0.0
 40
0.0848376038
 40
0.1700194846
 40
0.2557885607
 40
0.3423575108
 40
0.4300210901
 40
0.5191081726
 40
0.6099663673
 40
0.7029984891
 40
0.798654913
 40
0.8974698774
 40
1.0
 40
1.0
 40
1.0
 40
1.0
 10
10.1126711483
 20
7.3304099971
 30
0.0
 10
10.1150756329
 20
7.3304275352
 30
0.0
 10
10.1198938282
 20
7.3306240505
 30
0.0
 10
10.1271145504
 20
7.3313104391
 30
0.0
 10
10.1343317525
 20
7.3324268199
 30
0.0
 10
10.1415449622
 20
7.3339519371
 30
0.0
 10
10.148758711
 20
7.3358782753
 30
0.0
 10
10.1559840256
 20
7.3381951472
 30
0.0
 10
10.1632372328
 20
7.3408953891
 30
0.0
 10
10.1705397056
 20
7.3439753049
 30
0.0
 10
10.1779188396
 20
7.3474367648
 30
0.0
 10
10.1854062557
 20
7.3512873872
 30
0.0
 10
10.1903919165
 20
7.354066395
 30
0.0
 10
10.1929085923
 20
7.3555193985
 30
0.0
 11
10.1126711483
 21
7.3304099971
 31
0.0
 11
10.1198794229
 21
7.3306883195
 31
0.0
 11
10.1270893386
 21
7.3313789693
 31
0.0
 11
10.1342972614
 21
7.3324886899
 31
0.0
 11
10.1414996457
 21
7.3340078754
 31
0.0
 11
10.1487025014
 21
7.335926214
 31
0.0
 11
10.1559172937
 21
7.3382342452
 31
0.0
 11
10.1631593504
 21
7.3409244209
 31
0.0
 11
10.1704502217
 21
7.3439932781
 31
0.0
 11
10.1778163063
 21
7.3474422726
 31
0.0
 11
10.1852908579
 21
7.3512798219
 31
0.0
 11
10.1929085923
 21
7.3555193985
 31
0.0
  0
SPLINE
  5
526
100
AcDbEntity
  8
0
100
AcDbSpline
 62
7
  6
CONTINUOUS
 70
0
 71
3
 72
18
 73
14
 74
12
 42
0.0000001
 43
0.0000001
 44
0.0000000001
 12
0.0734043449
 22
-0.0423800183
 32
0.0
 13
0.0847562081
 23
-0.0008056034
 33
0.0
 40
0.0
 40
0.0
 40
0.0
 40
0.0
 40
0.1030219718
 40
0.2021705684
 40
0.2980249249
 40
0.3911402826
 40
0.4819835238
 40
0.5709737576
 40
0.6584765567
 40
0.7448202011
 40
0.8303143832
 40
0.9152601932
 40
1.0
 40
1.0
 40
1.0
 40
1.0
 10
10.0306585923
 20
7.3555193985
 30
0.0
 10
10.0331793458
 20
7.3540640408
 30
0.0
 10
10.0381696906
 20
7.3512825815
 30
0.0
 10
10.0456593922
 20
7.3474313705
 30
0.0
 10
10.0530311092
 20
7.3439738761
 30
0.0
 10
10.060317391
 20
7.3409007181
 30
0.0
 10
10.0675465321
 20
7.3382083331
 30
0.0
 10
10.0747408822
 20
7.335898793
 30
0.0
 10
10.0819174591
 20
7.3339777925
 30
0.0
 10
10.0890881316
 20
7.3324548222
 30
0.0
 10
10.0962603969
 20
7.3313353032
 30
0.0
 10
10.1034399664
 20
7.3306416089
 30
0.0
 10
10.1082329117
 20
7.3304327599
 30
0.0
 10
10.1106269866
 20
7.3304100043
 30
0.0
 11
10.0306585923
 21
7.3555193985
 31
0.0
 11
10.0382887822
 21
7.3512731556
 31
0.0
 11
10.0457650975
 21
7.3474352899
 31
0.0
 11
10.0531232677
 21
7.3439904733
 31
0.0
 11
10.0603975544
 21
7.3409284974
 31
0.0
 11
10.0676151542
 21
7.3382462689
 31
0.0
 11
10.0747985486
 21
7.3359456363
 31
0.0
 11
10.0819643176
 21
7.3340325776
 31
0.0
 11
10.0891238332
 21
7.3325154624
 31
0.0
 11
10.0962844695
 21
7.3314032999
 31
0.0
 11
10.1034504696
 21
7.3307043106
 31
0.0
 11
10.1106269866
 21
7.3304100043
 31
0.0
  0
SPLINE
  5
527
100
AcDbEntity
  8
0
100
AcDbSpline
 62
7
  6
CONTINUOUS
 70
0
 71
3
 72
18
 73
14
 74
12
 42
0.0000001
 43
0.0000001
 44
0.0000000001
 12
-0.0847105618
 22
-0.0008861963
 32
0.0
 13
-0.0733655128
 23
-0.0423575986
 33
0.0
 40
0.0
 40
0.0
 40
0.0
 40
0.0
 40
0.0852095824
 40
0.1703933752
 40
0.2561090726
 40
0.3426395338
 40
0.4302825709
 40
0.5193424949
 40
0.6101712419
 40
0.7031703464
 40
0.7987846334
 40
0.8975437906
 40
1.0
 40
1.0
 40
1.0
 40
1.0
 10
10.1105819892
 20
7.5494025384
 30
0.0
 10
10.1081759387
 20
7.5493773676
 30
0.0
 10
10.1033658209
 20
7.5491620932
 30
0.0
 10
10.0961643292
 20
7.5484623477
 30
0.0
 10
10.0889787354
 20
7.5473344414
 30
0.0
 10
10.0817980095
 20
7.5458029355
 30
0.0
 10
10.0746160903
 20
7.5438737428
 30
0.0
 10
10.0674222319
 20
7.5415577251
 30
0.0
 10
10.0602005692
 20
7.5388619338
 30
0.0
 10
10.0529297369
 20
7.5357899057
 30
0.0
 10
10.0455826365
 20
7.5323397186
 30
0.0
 10
10.0381280517
 20
7.5285038209
 30
0.0
 10
10.0331641764
 20
7.5257365247
 30
0.0
 10
10.0306585923
 20
7.5242899251
 30
0.0
 11
10.1105819892
 21
7.5494025384
 31
0.0
 11
10.1033698074
 21
7.5490994724
 31
0.0
 11
10.0961880338
 21
7.5483937773
 31
0.0
 11
10.0890135432
 21
7.5472735377
 31
0.0
 11
10.0818436451
 21
7.5457477637
 31
0.0
 11
10.074671863
 21
7.5438263918
 31
0.0
 11
10.0674885733
 21
7.5415191674
 31
0.0
 11
10.0602779651
 21
7.5388333495
 31
0.0
 11
10.0530185369
 21
7.5357722256
 31
0.0
 11
10.0456843201
 21
7.5323343498
 31
0.0
 11
10.038242448
 21
7.5285113648
 31
0.0
 11
10.0306585923
 21
7.5242899251
 31
0.0
  0
SPLINE
  5
528
100
AcDbEntity
  8
0
100
AcDbSpline
 62
7
  6
CONTINUOUS
 70
0
 71
3
 72
18
 73
14
 74
12
 42
0.0000001
 43
0.0000001
 44
0.0000000001
 12
-0.1567195211
 22
0.0452410288
 32
0.0
 13
-0.1631178627
 23
0.0005673181
 33
0.0
 40
0.0
 40
0.0
 40
0.0
 40
0.0
 40
0.0975326748
 40
0.1925743322
 40
0.2856195113
 40
0.3771417966
 40
0.4675239955
 40
0.5570919677
 40
0.6461022503
 40
0.7347457801
 40
0.8231753924
 40
0.9115045982
 40
1.0
 40
1.0
 40
1.0
 40
1.0
 10
10.0306585923
 20
7.5242899251
 30
0.0
 10
10.025563501
 20
7.5257607513
 30
0.0
 10
10.0154758041
 20
7.5285702567
 30
0.0
 10
10.0004329104
 20
7.5324335249
 30
0.0
 10
9.9856287828
 20
7.535899346
 30
0.0
 10
9.9709978513
 20
7.5389771967
 30
0.0
 10
9.9564834143
 20
7.5416706436
 30
0.0
 10
9.9420407333
 20
7.543977623
 30
0.0
 10
9.9276360481
 20
7.5458924622
 30
0.0
 10
9.9132458532
 20
7.5474056803
 30
0.0
 10
9.8988554901
 20
7.5485123805
 30
0.0
 10
9.8844470466
 20
7.5491893276
 30
0.0
 10
9.874832958
 20
7.5493878899
 30
0.0
 10
9.870021231
 20
7.5494046249
 30
0.0
 11
10.0306585923
 21
7.5242899251
 31
0.0
 11
10.0153312772
 21
7.5285540759
 31
0.0
 11
10.0003144001
 21
7.5324062275
 31
0.0
 11
9.9855356124
 21
7.5358618879
 31
0.0
 11
9.9709255581
 21
7.5389313579
 31
0.0
 11
9.956429324
 21
7.5416177
 31
0.0
 11
9.9420014783
 21
7.5439189892
 31
0.0
 11
9.9276084219
 21
7.5458291436
 31
0.0
 11
9.9132280975
 21
7.5473395746
 31
0.0
 11
9.898845691
 21
7.5484412267
 31
0.0
 11
9.8844538069
 21
7.5491258456
 31
0.0
 11
9.870021231
 21
7.5494046249
 31
0.0
  0
SPLINE
  5
529
100
AcDbEntity
  8
0
100
AcDbSpline
 62
7
  6
CONTINUOUS
 70
0
 71
3
 72
18
 73
14
 74
12
 42
0.0000001
 43
0.0000001
 44
0.0000000001
 12
0.1629570818
 22
0.0005936725
 32
0.0
 13
0.156565139
 23
0.0451964626
 33
0.0
 40
0.0
 40
0.0
 40
0.0
 40
0.0
 40
0.088485103
 40
0.1770754613
 40
0.2658017141
 40
0.3546884992
 40
0.4438711826
 40
0.5335455735
 40
0.6239490962
 40
0.7153918899
 40
0.8082420217
 40
0.9029533951
 40
1.0
 40
1.0
 40
1.0
 40
1.0
 10
9.8701818393
 20
7.3304099948
 30
0.0
 10
9.874988264
 20
7.3304275052
 30
0.0
 10
9.8846065704
 20
7.3306234067
 30
0.0
 10
9.8990302674
 20
7.3313080394
 30
0.0
 10
9.9134494474
 20
7.3324218211
 30
0.0
 10
9.9278633084
 20
7.3339438652
 30
0.0
 10
9.9422810709
 20
7.3358668899
 30
0.0
 10
9.956724617
 20
7.3381804719
 30
0.0
 10
9.971226239
 20
7.3408776023
 30
0.0
 10
9.9858282176
 20
7.3439546775
 30
0.0
 10
10.0005848269
 20
7.3474135792
 30
0.0
 10
10.0155590153
 20
7.3512619444
 30
0.0
 10
10.0255938873
 20
7.3540573441
 30
0.0
 10
10.0306585923
 20
7.3555193985
 30
0.0
 11
9.8701818393
 21
7.3304099948
 31
0.0
 11
9.8845985238
 21
7.3306882621
 31
0.0
 11
9.8990185179
 21
7.3313788713
 31
0.0
 11
9.9134345382
 21
7.3324885628
 31
0.0
 11
9.9278394801
 21
7.3340077298
 31
0.0
 11
9.9422453623
 21
7.3359260603
 31
0.0
 11
9.9566751176
 21
7.3382340934
 31
0.0
 11
9.9711594016
 21
7.3409242807
 31
0.0
 11
9.9857413154
 21
7.3439931589
 31
0.0
 11
10.0004736579
 21
7.3474421836
 31
0.0
 11
10.0154229389
 21
7.3512797725
 31
0.0
 11
10.0306585923
 21
7.3555193985
 31
0.0
  0
SPLINE
  5
52A
100
AcDbEntity
  8
0
100
AcDbSpline
 62
7
  6
CONTINUOUS
 70
0
 71
3
 72
18
 73
14
 74
12
 42
0.0000001
 43
0.0000001
 44
0.0000000001
 12
0.1566424087
 22
-0.0452187684
 32
0.0
 13
0.1630376021
 23
-0.0005670266
 33
0.0
 40
0.0
 40
0.0
 40
0.0
 40
0.0
 40
0.0975650879
 40
0.1926390811
 40
0.2857161362
 40
0.3772697025
 40
0.4676840461
 40
0.5572837435
 40
0.6463200701
 40
0.7350008526
 40
0.8234752023
 40
0.911790271
 40
1.0
 40
1.0
 40
1.0
 40
1.0
 10
9.7061585923
 20
7.3555193985
 30
0.0
 10
9.7112528691
 20
7.3540488075
 30
0.0
 10
9.721338988
 20
7.3512397252
 30
0.0
 10
9.7363795471
 20
7.3473769774
 30
0.0
 10
9.7511814134
 20
7.3439115503
 30
0.0
 10
9.7658101746
 20
7.3408339591
 30
0.0
 10
9.7803225078
 20
7.338140647
 30
0.0
 10
9.7947628572
 20
7.3358337049
 30
0.0
 10
9.8091655219
 20
7.3339187773
 30
0.0
 10
9.8235544229
 20
7.332405056
 30
0.0
 10
9.837941358
 20
7.3312987456
 30
0.0
 10
9.852328781
 20
7.3306198258
 30
0.0
 10
9.8619219411
 20
7.3304264546
 30
0.0
 10
9.8667157754
 20
7.3304097822
 30
0.0
 11
9.7061585923
 21
7.3555193985
 31
0.0
 11
9.7214834502
 21
7.351255905
 31
0.0
 11
9.7364980257
 21
7.3474042635
 31
0.0
 11
9.7512745718
 21
7.3439489906
 31
0.0
 11
9.7658823889
 21
7.3408797935
 31
0.0
 11
9.7803765968
 21
7.3381935675
 31
0.0
 11
9.7948024009
 21
7.3358922806
 31
0.0
 11
9.8091925321
 21
7.3339821119
 31
0.0
 11
9.8235717723
 21
7.3324713237
 31
0.0
 11
9.837954337
 21
7.3313691638
 31
0.0
 11
9.852336807
 21
7.3306843532
 31
0.0
 11
9.8667157754
 21
7.3304097822
 31
0.0
  0
SPLINE
  5
52B
100
AcDbEntity
  8
0
100
AcDbSpline
 62
7
  6
CONTINUOUS
 70
0
 71
3
 72
18
 73
14
 74
12
 42
0.0000001
 43
0.0000001
 44
0.0000000001
 12
-0.1623891424
 22
-0.000585095
 32
0.0
 13
-0.1560194541
 23
-0.0450389369
 33
0.0
 40
0.0
 40
0.0
 40
0.0
 40
0.0
 40
0.0902746746
 40
0.1794482706
 40
0.2678077157
 40
0.3564006321
 40
0.4453824165
 40
0.5348135463
 40
0.6249733552
 40
0.7161790306
 40
0.8087825339
 40
0.903232688
 40
1.0
 40
1.0
 40
1.0
 40
1.0
 10
9.8660672703
 20
7.549399463
 30
0.0
 10
9.861180728
 20
7.5493818566
 30
0.0
 10
9.8514678462
 20
7.5491582518
 30
0.0
 10
9.83698708
 20
7.5484511867
 30
0.0
 10
9.8226241559
 20
7.5473176724
 30
0.0
 10
9.8083089695
 20
7.5457871196
 30
0.0
 10
9.7939832174
 20
7.543860098
 30
0.0
 10
9.77962889
 20
7.5415475344
 30
0.0
 10
9.7652182582
 20
7.5388568485
 30
0.0
 10
9.7507073114
 20
7.5357911146
 30
0.0
 10
9.7360426171
 20
7.5323483525
 30
0.0
 10
9.7211626553
 20
7.5285210849
 30
0.0
 10
9.7111911201
 20
7.5257426907
 30
0.0
 10
9.7061585923
 20
7.5242899251
 30
0.0
 11
9.8660672703
 21
7.549399463
 31
0.0
 11
9.85141074
 21
7.5490935664
 31
0.0
 11
9.8369475863
 21
7.5483765148
 31
0.0
 11
9.8226429591
 21
7.5472526582
 31
0.0
 11
9.8083377028
 21
7.5457247483
 31
0.0
 11
9.794016496
 21
7.5438015028
 31
0.0
 11
9.7796781231
 21
7.5414947734
 31
0.0
 11
9.7652851218
 21
7.5388110412
 31
0.0
 11
9.7507933012
 21
7.5357532448
 31
0.0
 11
9.7361525116
 21
7.5323202072
 31
0.0
 11
9.7212971847
 21
7.5285035685
 31
0.0
 11
9.7061585923
 21
7.5242899251
 31
0.0
  0
SPLINE
  5
52C
100
AcDbEntity
  8
0
100
AcDbSpline
 62
7
  6
CONTINUOUS
 70
0
 71
3
 72
18
 73
14
 74
12
 42
0.0000001
 43
0.0000001
 44
0.0000000001
 12
-0.0734044384
 22
0.0423800723
 32
0.0
 13
-0.084756316
 23
0.0008056045
 33
0.0
 40
0.0
 40
0.0
 40
0.0
 40
0.0
 40
0.1029589689
 40
0.2020485766
 40
0.2978476999
 40
0.390910895
 40
0.4817017513
 40
0.5706410583
 40
0.6581030458
 40
0.7443865139
 40
0.829806864
 40
0.9148326429
 40
1.0
 40
1.0
 40
1.0
 40
1.0
 10
9.7061585923
 20
7.5242899251
 30
0.0
 10
9.7036393772
 20
7.5257443946
 30
0.0
 10
9.6986520641
 20
7.5285242242
 30
0.0
 10
9.6911669316
 20
7.5323733874
 30
0.0
 10
9.6837996664
 20
7.5358293179
 30
0.0
 10
9.6765178113
 20
7.5389013684
 30
0.0
 10
9.6692931152
 20
7.5415931161
 30
0.0
 10
9.6621030152
 20
7.5439025761
 30
0.0
 10
9.6549309737
 20
7.5458239571
 30
0.0
 10
9.6477655075
 20
7.5473475769
 30
0.0
 10
9.6405951114
 20
7.5484694664
 30
0.0
 10
9.6334034889
 20
7.5491651187
 30
0.0
 10
9.6285963552
 20
7.5493791201
 30
0.0
 10
9.626190198
 20
7.5494019905
 30
0.0
 11
9.7061585923
 21
7.5242899251
 31
0.0
 11
9.6985331016
 21
7.5285336531
 31
0.0
 11
9.6910613503
 21
7.5323694849
 31
0.0
 11
9.6837076146
 21
7.5358127564
 31
0.0
 11
9.6764376676
 21
7.5388736716
 31
0.0
 11
9.669224554
 21
7.5415552538
 31
0.0
 11
9.6620456379
 21
7.5438557481
 31
0.0
 11
9.6548835919
 21
7.5457693773
 31
0.0
 11
9.6477294355
 21
7.5472872224
 31
0.0
 11
9.6405753156
 21
7.5484006231
 31
0.0
 11
9.633402782
 21
7.5491025422
 31
0.0
 11
9.626190198
 21
7.5494019905
 31
0.0
  0
SPLINE
  5
52D
100
AcDbEntity
  8
0
100
AcDbSpline
 62
7
  6
CONTINUOUS
 70
0
 71
3
 72
18
 73
14
 74
12
 42
0.0000001
 43
0.0000001
 44
0.0000000001
 12
0.0846518208
 22
0.0008767555
 32
0.0
 13
0.0733145593
 23
0.0423281805
 33
0.0
 40
0.0
 40
0.0
 40
0.0
 40
0.0
 40
0.0850369163
 40
0.1702552848
 40
0.2559921013
 40
0.3425407031
 40
0.4301971599
 40
0.5192732125
 40
0.6101180965
 40
0.7031323269
 40
0.7987609266
 40
0.8975329953
 40
1.0
 40
1.0
 40
1.0
 40
1.0
 10
9.626293915
 20
7.330410754
 30
0.0
 10
9.6286934249
 20
7.3304356062
 30
0.0
 10
9.6334963836
 20
7.3306496721
 30
0.0
 10
9.6406892993
 20
7.3313519334
 30
0.0
 10
9.6478716665
 20
7.3324810433
 30
0.0
 10
9.655048491
 20
7.3340135574
 30
0.0
 10
9.6622263474
 20
7.3359431174
 30
0.0
 10
9.6694160794
 20
7.3382590231
 30
0.0
 10
9.6766336624
 20
7.340954248
 30
0.0
 10
9.6839003687
 20
7.3440252534
 30
0.0
 10
9.6912432548
 20
7.3474739579
 30
0.0
 10
9.698693498
 20
7.351307908
 30
0.0
 10
9.7036544846
 20
7.3540736512
 30
0.0
 10
9.7061585923
 20
7.3555193985
 30
0.0
 11
9.626293915
 21
7.330410754
 31
0.0
 11
9.6334865018
 21
7.3307125578
 31
0.0
 11
9.6406659846
 21
7.3314202435
 31
0.0
 11
9.6478369522
 21
7.3325419431
 31
0.0
 11
9.6550030152
 21
7.3340686562
 31
0.0
 11
9.662170543
 21
7.335990371
 31
0.0
 11
9.6693497904
 21
7.3382975105
 31
0.0
 11
9.676556356
 21
7.3409827852
 31
0.0
 11
9.6838116624
 21
7.3440428968
 31
0.0
 11
9.6911416893
 21
7.3474793116
 31
0.0
 11
9.6985792458
 21
7.3513003732
 31
0.0
 11
9.7061585923
 21
7.3555193985
 31
0.0
  0
SPLINE
  5
52E
100
AcDbEntity
  8
0
100
AcDbSpline
 62
7
  6
CONTINUOUS
 70
0
 71
3
 72
18
 73
14
 74
12
 42
0.0000001
 43
0.0000001
 44
0.0000000001
 12
-0.0847436156
 22
-0.0006107681
 32
0.0
 13
-0.07339203
 23
-0.0423729083
 33
0.0
 40
0.0
 40
0.0
 40
0.0
 40
0.0
 40
0.0865487685
 40
0.1722996492
 40
0.2577322535
 40
0.3440372228
 40
0.4315267452
 40
0.5203940918
 40
0.6110252571
 40
0.7038283416
 40
0.799235976
 40
0.8977758899
 40
1.0
 40
1.0
 40
1.0
 40
1.0
 10
9.6238627734
 20
7.5493994628
 30
0.0
 10
9.6214179549
 20
7.5493818424
 30
0.0
 10
9.6165520729
 20
7.5491575684
 30
0.0
 10
9.6093029656
 20
7.5484487592
 30
0.0
 10
9.6021142518
 20
7.5473126978
 30
0.0
 10
9.5949504448
 20
7.5457791293
 30
0.0
 10
9.587782765
 20
7.5438488497
 30
0.0
 10
9.5806021225
 20
7.541533069
 30
0.0
 10
9.5733944148
 20
7.5388393271
 30
0.0
 10
9.5661374333
 20
7.5357707954
 30
0.0
 10
9.5588042155
 20
7.5323255058
 30
0.0
 10
9.5513638522
 20
7.5284959955
 30
0.0
 10
9.546409404
 20
7.5257337694
 30
0.0
 10
9.5439085923
 20
7.5242899251
 30
0.0
 11
9.6238627734
 21
7.5493994628
 31
0.0
 11
9.6165345094
 21
7.5490935555
 31
0.0
 11
9.6093029447
 21
7.5483764963
 31
0.0
 11
9.6021506484
 21
7.5472526346
 31
0.0
 11
9.5949980363
 21
7.5457247215
 31
0.0
 11
9.5878374485
 21
7.5438014745
 31
0.0
 11
9.5806682777
 21
7.5414947456
 31
0.0
 11
9.5734717928
 21
7.5388110156
 31
0.0
 11
9.5662258981
 21
7.5357532231
 31
0.0
 11
9.5589055191
 21
7.532320191
 31
0.0
 11
9.5514778718
 21
7.5285035595
 31
0.0
 11
9.5439085923
 21
7.5242899251
 31
0.0
  0
ENDSEC
  0
SECTION
  2
OBJECTS
  0
DICTIONARY
  5
C
100
AcDbDictionary
280
0
281
1
  3
ACAD_GROUP
350
D
  3
ACAD_MLINESTYLE
350
17
  3
ACAD_LAYOUT
350
1A
  3
ACAD_PLOTSETTINGS
350
19
  3
ACAD_PLOTSTYLENAME
350
E
  0
DICTIONARY
  5
D
102
{ACAD_REACTORS
330
C
102
}
100
AcDbDictionary
280
0
281
1
  0
ACDBDICTIONARYWDFLT
  5
E
102
{ACAD_REACTORS
330
C
102
}
100
AcDbDictionary
281
1
  3
Normal
350
F
100
AcDbDictionaryWithDefault
340
F
  0
DICTIONARY
  5
17
102
{ACAD_REACTORS
330
C
102
}
100
AcDbDictionary
280
0
281
1
  3
Standard
350
18
  0
DICTIONARY
  5
19
102
{ACAD_REACTORS
330
C
102
}
100
AcDbDictionary
281
1
  0
DICTIONARY
  5
1A
102
{ACAD_REACTORS
330
C
102
}
100
AcDbDictionary
281
1
  3
Layout1
350
1E
  3
Model
350
22
  0
ACDBPLACEHOLDER
  5
F
102
{ACAD_REACTORS
330
E
102
}
  0
MLINESTYLE
  5
18
102
{ACAD_REACTORS
330
17
102
}
100
AcDbMlineStyle
  2
STANDARD
 70
0
  3

 62
256
 51
90.0
 52
90.0
 71
2
 49
0.5
 62
256
  6
BYLAYER
 49
-0.5
 62
256
  6
BYLAYER
  0
LAYOUT
  5
1E
102
{ACAD_REACTORS
330
1A
102
}
100
AcDbPlotSettings
  1

  2

  4

  6

 40
0.0
 41
0.0
 42
0.0
 43
0.0
 44
0.0
 45
0.0
 46
0.0
 47
0.0
 48
0.0
 49
0.0
140
0.0
141
0.0
142
1.0
143
1.0
 70
0
 72
0
 73
0
 74
0
  7

 75
0
147
1.0
148
0.0
149
0.0
100
AcDbLayout
  1
Layout1
 70
0
 71
0
 10
0.0
 20
0.0
 11
0.0
 21
0.0
 12
0.0
 22
0.0
 32
0.0
 14
0.0
 24
0.0
 34
0.0
 15
0.0
 25
0.0
 35
0.0
146
0.0
 13
0.0
 23
0.0
 33
0.0
 16
0.0
 26
0.0
 36
0.0
 17
0.0
 27
0.0
 37
0.0
 76
0
330
1B
331
0
345
0
346
0
  0
LAYOUT
  5
22
102
{ACAD_REACTORS
330
1A
102
}
100
AcDbPlotSettings
  1

  2

  4

  6

 40
0.0
 41
0.0
 42
0.0
 43
0.0
 44
0.0
 45
0.0
 46
0.0
 47
0.0
 48
0.0
 49
0.0
140
0.0
141
0.0
142
1.0
143
1.0
 70
0
 72
0
 73
0
 74
0
  7

 75
0
147
1.0
148
0.0
149
0.0
100
AcDbLayout
  1
Model
 70
0
 71
0
 10
0.0
 20
0.0
 11
0.0
 21
0.0
 12
0.0
 22
0.0
 32
0.0
 14
0.0
 24
0.0
 34
0.0
 15
0.0
 25
0.0
 35
0.0
146
0.0
 13
0.0
 23
0.0
 33
0.0
 16
0.0
 26
0.0
 36
0.0
 17
0.0
 27
0.0
 37
0.0
 76
0
330
1F
331
0
345
0
346
0
  0
ENDSEC
  0
EOF
